0
SECTION
2
HEADER
9
$ACADVER
1
AC1009
9
$ANGDIR
70
0
9
$EXTMIN
10
0
20
0
9
$EXTMAX
10
24.00000
20
18.00000
9
$CECOLOR
62
256
0
ENDSEC
0
SECTION
2
ENTITIES
0
ARC
62
0
8
_____1
10
61.94669
20
54.28663
40
1.27425
50
0.48416
51
37.28643
0
ARC
62
0
8
_____1
10
57.80534
20
52.40011
40
5.80028
50
27.27966
51
35.28984
0
ARC
62
0
8
_____1
10
55.00687
20
50.53693
40
9.16138
50
34.69000
51
44.83213
0
LINE
62
0
8
_____1
10
61.50390
20
56.99600
11
61.50390
21
136.52480
0
ARC
62
0
8
_____1
10
50.79062
20
149.05623
40
16.48669
50
310.52755
51
317.15554
0
ARC
62
0
8
_____1
10
59.26500
20
140.97631
40
4.78156
50
319.09171
51
341.86354
0
ARC
62
0
8
_____1
10
56.44921
20
140.90000
40
7.49404
50
349.13880
51
365.95643
0
ARC
62
0
8
_____1
10
74.57793
20
142.02579
40
10.68082
50
170.14863
51
181.86773
0
ARC
62
0
8
_____1
10
78.48634
20
136.99193
40
15.97974
50
130.69367
51
154.57224
0
ARC
62
0
8
_____1
10
74.56565
20
140.63808
40
10.67547
50
91.65515
51
127.49672
0
ARC
62
0
8
_____1
10
74.76328
20
138.30502
40
13.01392
50
66.61318
51
92.22822
0
ARC
62
0
8
_____1
10
60.25312
20
108.84191
40
45.84487
50
62.76251
51
64.58424
0
ARC
62
0
8
_____1
10
82.82878
20
153.05648
40
3.80301
50
245.22961
51
267.10312
0
ARC
62
0
8
_____1
10
82.51943
20
151.78038
40
2.52477
50
272.65957
51
305.85488
0
ARC
62
0
8
_____1
10
81.08398
20
154.54389
40
5.62385
50
301.21177
51
308.63946
0
ARC
62
0
8
_____1
10
79.13285
20
157.20499
40
8.92179
50
307.75561
51
310.09126
0
ARC
62
0
8
_____1
10
79.56801
20
156.75239
40
8.29540
50
309.80513
51
311.06713
0
ARC
62
0
8
_____1
10
83.12112
20
152.70609
40
2.91061
50
310.66057
51
311.17585
0
ARC
62
0
8
_____1
10
84.61932
20
150.99625
40
0.63726
50
310.99853
51
670.03331
0
ARC
62
0
8
_____1
10
113.83751
20
116.98276
40
44.20272
50
130.67223
51
130.72807
0
ARC
62
0
8
_____1
10
89.10818
20
145.70264
40
6.30323
50
130.71543
51
131.04428
0
ARC
62
0
8
_____1
10
77.87146
20
158.75822
40
10.92226
50
310.52977
51
311.07366
0
ARC
62
0
8
_____1
10
84.59457
20
151.03734
40
0.68450
50
311.45168
51
371.76626
0
ARC
62
0
8
_____1
10
84.00747
20
150.89218
40
1.28906
50
12.76169
51
45.17152
0
ARC
62
0
8
_____1
10
81.61221
20
149.05317
40
4.30080
50
39.80433
51
59.18381
0
ARC
62
0
8
_____1
10
77.23675
20
142.86019
40
11.87534
50
56.35953
51
70.37962
0
ARC
62
0
8
_____1
10
75.98313
20
140.06362
40
14.93244
50
69.45184
51
91.91780
0
ARC
62
0
8
_____1
10
76.62766
20
140.54201
40
14.49094
50
94.52901
51
130.07550
0
ARC
62
0
8
_____1
10
74.79318
20
142.75762
40
11.61455
50
130.18730
51
174.43869
0
ARC
62
0
8
_____1
10
-51.24225
20
129.34662
40
115.39482
50
7.23692
51
8.61486
0
ARC
62
0
8
_____1
10
48.85561
20
144.33705
40
14.18191
50
9.31192
51
20.47474
0
ARC
62
0
8
_____1
10
41.27133
20
131.59509
40
27.36703
50
40.30549
51
45.95478
0
ARC
62
0
8
_____1
10
53.86074
20
143.52774
40
10.06568
50
50.24655
51
65.64079
0
ARC
62
0
8
_____1
10
52.56476
20
140.84953
40
13.04023
50
65.30702
51
89.08677
0
LINE
62
0
8
_____1
10
52.77260
20
153.88810
11
52.77260
21
168.69750
0
ARC
62
0
8
_____1
10
34.72318
20
192.44674
40
29.82965
50
307.23483
51
310.96191
0
ARC
62
0
8
_____1
10
51.44951
20
172.91345
40
4.11780
50
313.38894
51
340.18090
0
ARC
62
0
8
_____1
10
108.14029
20
163.93852
40
53.35787
50
167.88190
51
171.83427
0
ARC
62
0
8
_____1
10
52.83037
20
185.01129
40
10.35917
50
287.65065
51
306.79109
0
ARC
62
0
8
_____1
10
56.22774
20
180.20526
40
4.47847
50
308.80816
51
352.68836
0
LINE
62
0
8
_____1
10
60.66980
20
179.63530
11
60.66980
21
181.20490
0
ARC
62
0
8
_____1
10
57.09940
20
181.20778
40
3.57040
50
359.95383
51
415.24645
0
ARC
62
0
8
_____1
10
54.37101
20
178.21578
40
7.60290
50
51.20308
51
77.13269
0
ARC
62
0
8
_____1
10
50.29630
20
165.92547
40
20.52920
50
73.68264
51
92.86552
0
ARC
62
0
8
_____1
10
49.26927
20
158.81119
40
27.61781
50
89.99849
51
104.17469
0
ARC
62
0
8
_____1
10
45.59920
20
175.35585
40
10.68953
50
106.81867
51
125.12082
0
ARC
62
0
8
_____1
10
42.05247
20
180.80048
40
4.20207
50
128.27617
51
174.47713
0
LINE
62
0
8
_____1
10
37.86990
20
181.20490
11
37.86990
21
179.63530
0
ARC
62
0
8
_____1
10
41.27075
20
179.62191
40
3.40087
50
179.77443
51
238.73216
0
ARC
62
0
8
_____1
10
44.80880
20
183.26132
40
8.42487
50
230.98866
51
254.57797
0
ARC
62
0
8
_____1
10
-122.14224
20
143.79313
40
167.66696
50
9.51772
51
10.77531
0
ARC
62
0
8
_____1
10
45.44895
20
171.83879
40
2.25528
50
188.19538
51
238.22768
0
ARC
62
0
8
_____1
10
53.69403
20
179.98491
40
13.79299
50
226.85335
51
234.91936
0
LINE
62
0
8
_____1
10
45.76680
20
168.69750
11
45.76680
21
153.88810
0
ARC
62
0
8
_____1
10
46.49700
20
138.55201
40
15.35347
50
92.72598
51
112.88129
0
ARC
62
0
8
_____1
10
44.94300
20
143.12851
40
10.53858
50
114.77214
51
144.16873
0
ARC
62
0
8
_____1
10
37.87596
20
148.05017
40
1.93346
50
139.81321
51
181.57122
0
ARC
62
0
8
_____1
10
54.05500
20
143.92365
40
18.56421
50
167.32457
51
171.60713
0
ARC
62
0
8
_____1
10
113.23247
20
134.43581
40
78.49634
50
171.06064
51
173.08700
0
ARC
62
0
8
_____1
10
23.78019
20
142.77524
40
11.57979
50
5.49345
51
49.89383
0
ARC
62
0
8
_____1
10
21.94610
20
140.62337
40
14.40720
50
49.82797
51
85.57888
0
ARC
62
0
8
_____1
10
22.09709
20
142.89667
40
12.12905
50
85.46223
51
112.95841
0
ARC
62
0
8
_____1
10
22.14321
20
141.17492
40
13.74681
50
110.33536
51
122.43827
0
ARC
62
0
8
_____1
10
18.16555
20
147.58901
40
6.20049
50
123.20925
51
136.62553
0
ARC
62
0
8
_____1
10
15.15942
20
150.52992
40
1.99702
50
138.72578
51
159.51281
0
ARC
62
0
8
_____1
10
13.94668
20
151.03736
40
0.68528
50
163.77184
51
228.47752
0
ARC
62
0
8
_____1
10
19.58096
20
157.56883
40
9.31107
50
229.16326
51
238.15770
0
ARC
62
0
8
_____1
10
16.19635
20
152.33309
40
3.07969
50
240.25954
51
267.34827
0
ARC
62
0
8
_____1
10
15.99691
20
151.99817
40
2.74207
50
271.19030
51
301.85509
0
ARC
62
0
8
_____1
10
-6.71515
20
200.19301
40
56.00299
50
295.55594
51
297.05103
0
ARC
62
0
8
_____1
10
23.32590
20
140.35522
40
10.96044
50
99.37786
51
114.65278
0
ARC
62
0
8
_____1
10
23.40278
20
139.57849
40
11.73943
50
91.99497
51
99.13031
0
ARC
62
0
8
_____1
10
23.63589
20
134.33491
40
16.98802
50
89.70142
51
92.16507
0
ARC
62
0
8
_____1
10
23.58707
20
134.01486
40
17.30838
50
88.33633
51
89.54532
0
ARC
62
0
8
_____1
10
23.88013
20
142.77620
40
8.54231
50
87.39260
51
88.59507
0
ARC
62
0
8
_____1
10
25.50323
20
189.11918
40
37.82966
50
267.86756
51
268.12994
0
ARC
62
0
8
_____1
10
24.09915
20
151.38486
40
0.06924
50
-90.03727
51
267.06223
0
ARC
62
0
8
_____1
10
23.89862
20
144.72241
40
6.59626
50
88.16966
51
88.25829
0
ARC
62
0
8
_____1
10
24.48853
20
163.38142
40
12.07207
50
268.19987
51
268.29625
0
ARC
62
0
8
_____1
10
23.99079
20
146.58023
40
4.73650
50
87.96779
51
88.32054
0
ARC
62
0
8
_____1
10
23.25390
20
125.39372
40
25.93581
50
87.72554
51
88.00066
0
ARC
62
0
8
_____1
10
23.83498
20
140.24603
40
11.07215
50
53.15287
51
87.67992
0
ARC
62
0
8
_____1
10
22.76658
20
139.06360
40
12.65991
50
22.23015
51
52.49258
0
ARC
62
0
8
_____1
10
32.86503
20
143.04312
40
1.81167
50
-8.45647
51
26.56058
0
ARC
62
0
8
_____1
10
18.62884
20
142.51829
40
16.03025
50
-3.00225
51
0.92366
0
ARC
62
0
8
_____1
10
49.47710
20
141.21341
40
14.84731
50
178.20415
51
186.67384
0
ARC
62
0
8
_____1
10
37.66993
20
140.06871
40
2.99636
50
191.17694
51
227.90594
0
ARC
62
0
8
_____1
10
43.37339
20
144.49908
40
10.18573
50
220.78691
51
231.52571
0
LINE
62
0
8
_____1
10
37.03620
20
136.52480
11
37.03620
21
56.99600
0
ARC
62
0
8
_____1
10
42.32600
20
51.73559
40
7.46016
50
135.15960
51
159.91588
0
ARC
62
0
8
_____1
10
-219.05477
20
54.29740
40
254.37427
50
-1.12691
51
0.00000
0
ARC
62
0
8
_____1
10
41.70882
20
49.29455
40
6.43852
50
179.99956
51
216.11169
0
ARC
62
0
8
_____1
10
45.51562
20
51.80390
40
10.99496
50
214.98416
51
236.14621
0
ARC
62
0
8
_____1
10
42.33545
20
46.65948
40
4.95623
50
233.54642
51
253.90296
0
ARC
62
0
8
_____1
10
45.41409
20
54.13100
40
13.01862
50
249.99906
51
257.73876
0
ARC
62
0
8
_____1
10
49.28566
20
68.88759
40
28.26826
50
256.42239
51
263.55100
0
LINE
62
0
8
_____1
10
46.11060
20
40.79820
11
46.11060
21
35.50550
0
ARC
62
0
8
_____1
10
49.08135
20
26.63010
40
9.35939
50
108.50630
51
129.57819
0
ARC
62
0
8
_____1
10
44.46448
20
32.86629
40
1.66379
50
144.01431
51
194.69369
0
ARC
62
0
8
_____1
10
68.14473
20
32.88719
40
25.29350
50
181.00337
51
184.28117
0
ARC
62
0
8
_____1
10
46.52282
20
31.12462
40
3.60321
50
181.99795
51
217.34035
0
ARC
62
0
8
_____1
10
283.83919
20
158.76672
40
273.02411
50
208.39302
51
209.09949
0
ARC
62
0
8
_____1
10
25.37550
20
16.04261
40
22.24807
50
17.88187
51
26.55152
0
ARC
62
0
8
_____1
10
54.99878
20
25.50596
40
8.85038
50
197.30053
51
207.63237
0
ARC
62
0
8
_____1
10
48.92910
20
22.46295
40
2.06511
50
210.94061
51
254.87340
0
ARC
62
0
8
_____1
10
-3332.61361
20
-21.60932
40
3381.26565
50
0.08051
51
0.71305
0
ARC
62
0
8
_____1
10
6239783.28069
20
35937.51837
40
6239838.21865
50
180.33014
51
180.33049
0
ARC
62
0
8
_____1
10
49.49496
20
-54.18112
40
0.63108
50
180.43389
51
249.51596
0
ARC
62
0
8
_____1
10
49.28214
20
-54.34976
40
0.42261
50
268.91144
51
382.81285
0
ARC
62
0
8
_____1
10
33417.37218
20
-228.58156
40
33368.15621
50
179.57236
51
179.70055
0
ARC
62
0
8
_____1
10
49.81597
20
22.19198
40
1.75419
50
280.82408
51
333.14752
0
ARC
62
0
8
_____1
10
46.61133
20
24.23743
40
5.55005
50
329.24874
51
345.77913
0
ARC
62
0
8
_____1
10
73.85474
20
16.17473
40
22.86679
50
146.06821
51
162.96418
0
ARC
62
0
8
_____1
10
68.17420
20
21.91604
40
15.03340
50
147.89211
51
152.14967
0
ARC
62
0
8
_____1
10
53.92379
20
30.71344
40
1.71772
50
331.98108
51
369.56938
0
ARC
62
0
8
_____1
10
124.73065
20
28.51867
40
69.15754
50
176.74612
51
177.94465
0
ARC
62
0
8
_____1
10
52.01067
20
32.47843
40
3.67409
50
359.46418
51
381.81728
0
ARC
62
0
8
_____1
10
53.26875
20
32.26385
40
2.67045
50
36.27616
51
73.77435
0
ARC
62
0
8
_____1
10
49.19189
20
25.73616
40
10.29185
50
62.05478
51
71.66454
0
LINE
62
0
8
_____1
10
52.42950
20
35.50550
11
52.42950
21
40.79820
0
ARC
62
0
8
_____1
10
47.72785
20
77.52983
40
37.03131
50
277.29420
51
282.73388
0
ARC
62
0
8
_____1
10
52.80204
20
54.20895
40
13.16694
50
283.56535
51
298.82104
0
ARC
62
0
8
_____1
10
50.37857
20
54.50259
40
14.72645
50
306.55473
51
322.31649
0
ARC
62
0
8
_____1
10
56.29621
20
49.46892
40
6.97577
50
325.32562
51
358.56728
0
ARC
62
0
8
_____1
10
-192.66475
20
49.29450
40
255.93455
50
0.00000
51
1.12004
0
ENDSEC
0
EOF
