0
SECTION
2
HEADER
9
$ACADVER
1
AC1009
9
$ANGDIR
70
0
9
$EXTMIN
10
0
20
0
9
$EXTMAX
10
24.00000
20
18.00000
9
$CECOLOR
62
256
0
ENDSEC
0
SECTION
2
ENTITIES
0
ARC
62
0
8
_____1
10
99.30023
20
27.89084
40
3.02105
50
62.10250
51
93.39352
0
ARC
62
0
8
_____1
10
100.33148
20
29.49813
40
1.12935
50
-12.43177
51
70.21522
0
ARC
62
0
8
_____1
10
98.06310
20
30.56218
40
3.61580
50
313.28458
51
338.80664
0
ARC
62
0
8
_____1
10
93.02372
20
36.29802
40
11.24947
50
303.69007
51
311.93898
0
ARC
62
0
8
_____1
10
78.62279
20
60.27312
40
39.20827
50
290.09831
51
301.76559
0
ARC
62
0
8
_____1
10
67.18762
20
93.93120
40
74.75078
50
283.34783
51
289.46428
0
ARC
62
0
8
_____1
10
52.37954
20
165.81047
40
148.12310
50
276.32969
51
282.50218
0
ARC
62
0
8
_____1
10
42.21345
20
268.43898
40
251.24970
50
272.41413
51
276.05362
0
ARC
62
0
8
_____1
10
38.12783
20
420.66326
40
403.51770
50
269.81768
51
272.08329
0
ARC
62
0
8
_____1
10
31.92201
20
261.08941
40
243.99145
50
263.65728
51
271.15585
0
ARC
62
0
8
_____1
10
16.07320
20
134.24699
40
116.18757
50
256.64336
51
264.51478
0
ARC
62
0
8
_____1
10
2.85023
20
81.53835
40
61.85382
50
249.88822
51
257.28159
0
ARC
62
0
8
_____1
10
-8.98234
20
51.95241
40
30.01792
50
236.44124
51
251.67861
0
ARC
62
0
8
_____1
10
-21.34571
20
33.70986
40
7.98466
50
226.19427
51
238.00791
0
ARC
62
0
8
_____1
10
-25.64341
20
29.71497
40
2.15307
50
191.66235
51
235.18003
0
ARC
62
0
8
_____1
10
-26.38761
20
29.35277
40
1.36638
50
116.78962
51
183.06387
0
ARC
62
0
8
_____1
10
-25.47702
20
27.25549
40
3.65137
50
89.31703
51
114.71121
0
LINE
62
0
8
_____1
10
-25.43350
20
30.90660
11
23.43390
21
30.90660
0
ARC
62
0
8
_____1
10
33.30366
20
61.17538
40
31.83726
50
237.20906
51
251.94037
0
ARC
62
0
8
_____1
10
40.11902
20
70.96154
40
43.75715
50
225.92738
51
236.64680
0
ARC
62
0
8
_____1
10
55.11386
20
84.77123
40
64.11943
50
210.25608
51
224.88399
0
ARC
62
0
8
_____1
10
76.23816
20
95.55597
40
87.81033
50
188.02717
51
209.38944
0
ARC
62
0
8
_____1
10
-3.71278
20
84.74624
40
7.14812
50
161.53715
51
191.72286
0
ARC
62
0
8
_____1
10
-7.73355
20
86.25361
40
2.86121
50
89.77879
51
164.67154
0
LINE
62
0
8
_____1
10
-7.72250
20
89.11480
11
80.39130
21
89.11480
0
ARC
62
0
8
_____1
10
80.76284
20
85.51439
40
3.61953
50
19.94370
51
95.89173
0
ARC
62
0
8
_____1
10
89.12860
20
79.69965
40
8.62135
50
90.00000
51
125.14857
0
ARC
62
0
8
_____1
10
89.22203
20
82.01354
40
6.30815
50
52.17261
51
90.84865
0
ARC
62
0
8
_____1
10
86.69527
20
79.58025
40
9.79269
50
24.33877
51
49.22545
0
ARC
62
0
8
_____1
10
73.56381
20
75.29991
40
23.56969
50
-0.02336
51
20.66081
0
ARC
62
0
8
_____1
10
60.99170
20
75.30272
40
36.14180
50
317.63349
51
359.98030
0
ARC
62
0
8
_____1
10
62.52841
20
73.88089
40
34.04828
50
295.19227
51
317.65870
0
ARC
62
0
8
_____1
10
60.84002
20
78.60625
40
39.04585
50
274.89823
51
294.48263
0
ARC
62
0
8
_____1
10
36.00332
20
67.92138
40
39.87310
50
303.00051
51
314.95153
0
ARC
62
0
8
_____1
10
41.81231
20
58.15291
40
28.52030
50
287.18992
51
303.90169
0
LINE
62
0
8
_____1
10
50.24120
20
30.90660
11
99.12140
21
30.90660
0
ARC
62
0
8
_____1
10
64.83373
20
74.44716
40
27.41401
50
282.80458
51
322.43107
0
ARC
62
0
8
_____1
10
12.36756
20
88.66249
40
71.44125
50
325.02881
51
338.42929
0
ARC
62
0
8
_____1
10
-1.12250
20
94.83914
40
86.26093
50
337.90823
51
349.00496
0
ARC
62
0
8
_____1
10
94.34825
20
71.05583
40
13.04767
50
130.74519
51
145.81388
0
ARC
62
0
8
_____1
10
89.60701
20
76.25536
40
6.01709
50
96.34439
51
128.85617
0
ARC
62
0
8
_____1
10
88.95380
20
79.24074
40
2.99489
50
47.85592
51
90.22380
0
ARC
62
0
8
_____1
10
88.04681
20
78.20039
40
4.37493
50
19.12050
51
48.19086
0
ARC
62
0
8
_____1
10
83.18814
20
75.91677
40
9.73005
50
-3.69154
51
22.45617
0
ARC
62
0
8
_____1
10
67.88950
20
75.30733
40
25.00851
50
338.19997
51
359.96099
0
ARC
62
0
8
_____1
10
61.34544
20
76.95876
40
31.71055
50
322.67702
51
339.82077
0
ENDSEC
0
EOF
