0
SECTION
2
HEADER
9
$ACADVER
1
AC1009
9
$ANGDIR
70
0
9
$EXTMIN
10
0
20
0
9
$EXTMAX
10
24.00000
20
18.00000
9
$CECOLOR
62
256
0
ENDSEC
0
SECTION
2
ENTITIES
0
ARC
62
0
8
_____1
10
-59.69802
20
94.70118
40
0.32359
50
39.79736
51
212.14649
0
ARC
62
0
8
_____1
10
4871.26409
20
4137.33868
40
6375.98454
50
219.34651
51
219.79163
0
ARC
62
0
8
_____1
10
-21.32600
20
-3.27774
40
60.36094
50
90.00000
51
96.24856
0
ARC
62
0
8
_____1
10
-19.72241
20
-23.31099
40
80.41019
50
84.58177
51
91.14270
0
ARC
62
0
8
_____1
10
-16.84611
20
11.91468
40
45.07268
50
72.29796
51
83.99352
0
ARC
62
0
8
_____1
10
-6.48510
20
43.72680
40
11.61808
50
64.39287
51
73.27155
0
ARC
62
0
8
_____1
10
-3.00510
20
50.24969
40
4.24383
50
44.36853
51
68.70385
0
ARC
62
0
8
_____1
10
-0.73628
20
52.21409
40
1.26154
50
-29.46781
51
52.67560
0
ARC
62
0
8
_____1
10
-3.06874
20
54.22169
40
4.32178
50
298.81968
51
322.54566
0
ARC
62
0
8
_____1
10
-1211.86742
20
-1496.44084
40
1964.44923
50
51.57201
51
51.94645
0
ARC
62
0
8
_____1
10
-162.66618
20
-182.38214
40
282.96614
50
50.02647
51
52.62618
0
ARC
62
0
8
_____1
10
15.08659
20
29.40911
40
6.46931
50
42.76219
51
51.42113
0
ARC
62
0
8
_____1
10
18.72367
20
32.52988
40
1.68961
50
15.69271
51
48.81695
0
ARC
62
0
8
_____1
10
18.69150
20
32.66435
40
1.68986
50
-21.77968
51
11.00322
0
ARC
62
0
8
_____1
10
14.94502
20
34.47135
40
5.84648
50
325.87288
51
335.39748
0
ARC
62
0
8
_____1
10
879.70493
20
907.97502
40
1228.09303
50
225.55633
51
225.94429
0
ARC
62
0
8
_____1
10
224.34791
20
-1669.83671
40
1706.81978
50
94.48757
51
96.68211
0
ARC
62
0
8
_____1
10
157.65488
20
-775.04011
40
809.55575
50
92.42334
51
94.73689
0
ARC
62
0
8
_____1
10
142.73868
20
-387.11264
40
421.34718
50
90.40500
51
92.62727
0
ARC
62
0
8
_____1
10
143.39285
20
-142.15141
40
176.41283
50
85.87177
51
91.17984
0
LINE
62
0
8
_____1
10
156.09260
20
33.80370
11
159.37790
21
37.90780
0
ARC
62
0
8
_____1
10
161.07645
20
36.43094
40
2.25082
50
122.35453
51
138.99357
0
ARC
62
0
8
_____1
10
160.62073
20
37.23307
40
1.33007
50
110.20412
51
124.26319
0
ARC
62
0
8
_____1
10
160.31668
20
38.29893
40
0.23955
50
49.13931
51
130.41830
0
ARC
62
0
8
_____1
10
159.04566
20
38.38984
40
1.43059
50
-39.19287
51
3.61740
0
LINE
62
0
8
_____1
10
160.15440
20
37.48580
11
149.01300
21
23.60280
0
ARC
62
0
8
_____1
10
116.00787
20
581.97361
40
559.34542
50
273.38280
51
275.28761
0
ARC
62
0
8
_____1
10
168.51889
20
14.75522
40
10.29843
50
94.12534
51
95.37331
0
ARC
62
0
8
_____1
10
168.77802
20
11.18955
40
13.87351
50
93.76510
51
94.13340
0
ARC
62
0
8
_____1
10
168.53687
20
14.57359
40
10.48096
50
92.69386
51
93.66444
0
ARC
62
0
8
_____1
10
168.45321
20
16.78372
40
8.26936
50
90.37349
51
92.83456
0
ARC
62
0
8
_____1
10
168.46952
20
18.49220
40
6.56108
50
84.41337
51
90.61313
0
ARC
62
0
8
_____1
10
168.92860
20
22.32180
40
2.70628
50
71.14060
51
86.19393
0
ARC
62
0
8
_____1
10
169.82521
20
24.38027
40
0.50300
50
7.88350
51
92.48569
0
ARC
62
0
8
_____1
10
169.44206
20
24.67476
40
0.90978
50
302.09619
51
345.64928
0
ARC
62
0
8
_____1
10
168.02094
20
27.18032
40
3.78964
50
289.43661
51
300.16970
0
ARC
62
0
8
_____1
10
166.30141
20
32.95232
40
9.80945
50
279.39322
51
287.68890
0
ARC
62
0
8
_____1
10
69.60004
20
798.01061
40
780.94785
50
275.66109
51
277.23133
0
ARC
62
0
8
_____1
10
334.21092
20
-186.52264
40
279.63690
50
132.12737
51
136.90045
0
ARC
62
0
8
_____1
10
434.54202
20
-280.54205
40
417.13589
50
136.88714
51
140.08722
0
ARC
62
0
8
_____1
10
90.65445
20
6.16494
40
30.59943
50
313.32974
51
321.46327
0
ARC
62
0
8
_____1
10
100.67668
20
-4.82671
40
15.72873
50
298.43145
51
314.24810
0
ARC
62
0
8
_____1
10
99.28091
20
-1.50413
40
19.31835
50
284.51123
51
297.38005
0
ARC
62
0
8
_____1
10
95.40292
20
15.72377
40
36.97265
50
276.91281
51
283.63948
0
ARC
62
0
8
_____1
10
79.10813
20
273.83943
40
295.54848
50
270.93710
51
274.02494
0
ARC
62
0
8
_____1
10
70.68018
20
906.64238
40
928.40662
50
269.83526
51
270.81845
0
ARC
62
0
8
_____1
10
69.64123
20
1009.47325
40
1031.23494
50
268.13906
51
269.90941
0
ARC
62
0
8
_____1
10
60.94946
20
599.10427
40
620.81747
50
265.13775
51
267.71091
0
ARC
62
0
8
_____1
10
101.23082
20
1047.38721
40
1070.90361
50
263.53146
51
265.02327
0
ARC
62
0
8
_____1
10
115.26072
20
1172.75184
40
1197.05073
50
262.20557
51
263.54020
0
ARC
62
0
8
_____1
10
62.04498
20
792.31487
40
812.91232
50
261.30240
51
262.28518
0
ARC
62
0
8
_____1
10
2.50374
20
408.24884
40
424.25988
50
260.46647
51
261.40750
0
ARC
62
0
8
_____1
10
-57.80568
20
61.31510
40
72.15712
50
256.53366
51
262.06717
0
ARC
62
0
8
_____1
10
-68.25203
20
26.79936
40
36.21982
50
252.03098
51
259.89129
0
ARC
62
0
8
_____1
10
-78.68567
20
-3.77552
40
3.94828
50
222.94688
51
259.19357
0
ARC
62
0
8
_____1
10
-76.96307
20
-3.14655
40
5.68266
50
190.82593
51
215.73655
0
ARC
62
0
8
_____1
10
23.23357
20
15.96506
40
107.68571
50
187.57533
51
190.80037
0
ARC
62
0
8
_____1
10
-70.67019
20
3.82087
40
13.00501
50
185.26126
51
189.07823
0
ARC
62
0
8
_____1
10
-82.05308
20
2.96175
40
1.60240
50
160.93684
51
192.00911
0
ARC
62
0
8
_____1
10
-81.62333
20
2.07632
40
2.40102
50
103.71265
51
144.07350
0
ARC
62
0
8
_____1
10
-113.11574
20
143.84246
40
142.82144
50
282.50453
51
285.56103
0
ARC
62
0
8
_____1
10
-71.12969
20
5.77909
40
3.70296
50
148.23715
51
172.59875
0
ARC
62
0
8
_____1
10
-72.74949
20
6.51487
40
1.95170
50
96.02085
51
141.55538
0
ARC
62
0
8
_____1
10
-85.81185
20
106.12159
40
98.50850
50
277.49983
51
279.56998
0
ARC
62
0
8
_____1
10
-110.69053
20
39.91437
40
51.56297
50
323.14040
51
327.14597
0
ARC
62
0
8
_____1
10
-77.11404
20
18.93465
40
11.98992
50
324.31996
51
341.56505
0
ARC
62
0
8
_____1
10
-458.21502
20
123.69391
40
407.21050
50
344.53963
51
347.11906
0
ARC
62
0
8
_____1
10
-57.13806
20
31.89898
40
4.23764
50
138.67098
51
166.11091
0
ARC
62
0
8
_____1
10
-62.50775
20
37.11966
40
3.26379
50
312.08539
51
347.90524
0
ARC
62
0
8
_____1
10
-53.12370
20
36.25126
40
6.19545
50
153.46269
51
178.29308
0
ARC
62
0
8
_____1
10
-54.39935
20
36.45328
40
4.97917
50
118.36119
51
148.97956
0
LINE
62
0
8
_____1
10
-56.76460
20
40.83480
11
-68.11480
21
61.95150
0
ARC
62
0
8
_____1
10
-61.20154
20
65.96556
40
7.99412
50
201.46688
51
210.14085
0
ARC
62
0
8
_____1
10
-67.50561
20
63.79358
40
1.36279
50
163.39793
51
213.57050
0
ARC
62
0
8
_____1
10
-67.64338
20
63.39808
40
1.40739
50
99.64370
51
146.10408
0
ARC
62
0
8
_____1
10
-66.70720
20
54.88428
40
9.97042
50
90.00000
51
96.75030
0
LINE
62
0
8
_____1
10
-66.70720
20
64.85470
11
-41.98310
21
64.41510
0
ARC
62
0
8
_____1
10
-41.77552
20
57.65682
40
6.76147
50
74.18641
51
91.75931
0
ARC
62
0
8
_____1
10
-40.42306
20
61.42512
40
2.78080
50
36.91375
51
79.84885
0
ARC
62
0
8
_____1
10
369.78717
20
363.14224
40
506.43998
50
216.33198
51
217.32104
0
ARC
62
0
8
_____1
10
-20.83726
20
-22.35822
40
79.38684
50
96.14142
51
98.78348
0
ARC
62
0
8
_____1
10
6604.58591
20
5443.07374
40
8545.36333
50
218.91182
51
219.07535
0
ARC
62
0
8
_____1
10
1126.08723
20
1033.64760
40
1512.83848
50
218.37209
51
219.29584
0
ARC
62
0
8
_____1
10
-46.83519
20
487.37624
40
427.00978
50
268.34867
51
270.14340
0
ARC
62
0
8
_____1
10
-45.76650
20
48.50141
40
11.86639
50
83.88329
51
90.00000
0
ARC
62
0
8
_____1
10
-44.86620
20
58.93643
40
1.41158
50
22.99640
51
75.05180
0
LINE
62
0
8
_____1
10
-43.56680
20
59.48790
11
-40.83900
21
54.71410
0
ARC
62
0
8
_____1
10
-18.07550
20
-62.83742
40
119.73528
50
100.95951
51
104.59432
0
ARC
62
0
8
_____1
10
-46.40086
20
46.00142
40
7.27099
50
104.69732
51
117.05503
0
ARC
62
0
8
_____1
10
-48.55202
20
50.28672
40
2.47641
50
117.82754
51
153.29037
0
ARC
62
0
8
_____1
10
-50.11983
20
51.37942
40
0.64468
50
178.18968
51
249.33061
0
ARC
62
0
8
_____1
10
-48.80646
20
53.07394
40
2.76657
50
236.15277
51
252.40593
0
ARC
62
0
8
_____1
10
-46.68412
20
58.74300
40
8.81740
50
250.39459
51
260.25620
0
ARC
62
0
8
_____1
10
-211.71307
20
132.17878
40
182.99978
50
332.52746
51
333.33480
0
ARC
62
0
8
_____1
10
3551.02932
20
2814.57284
40
4540.70495
50
217.33831
51
217.54153
0
LINE
62
0
8
_____1
10
132.75350
20
22.50940
11
138.83060
21
30.10330
0
ARC
62
0
8
_____1
10
94.37538
20
374.91969
40
347.67026
50
277.34630
51
280.06365
0
LINE
62
0
8
_____1
10
155.12800
20
32.59860
11
147.86020
21
23.52110
0
ARC
62
0
8
_____1
10
-44.12299
20
2776.92088
40
2760.08476
50
273.67424
51
273.98854
0
LINE
62
0
8
_____1
10
58.15410
20
22.46390
11
61.52550
21
28.13170
0
LINE
62
0
8
_____1
10
61.52550
20
28.13170
11
61.33940
21
28.24230
0
ARC
62
0
8
_____1
10
241.01304
20
-1836.23994
40
1873.11949
50
94.88176
51
95.50440
0
LINE
62
0
8
_____1
10
81.61110
20
30.08470
11
76.68460
21
24.18640
0
ARC
62
0
8
_____1
10
-198.15929
20
2880.39631
40
2869.40311
50
275.12486
51
275.49647
0
LINE
62
0
8
_____1
10
77.94270
20
24.30830
11
82.79140
21
30.11880
0
LINE
62
0
8
_____1
10
82.79140
20
30.11880
11
82.69490
21
30.17600
0
ARC
62
0
8
_____1
10
200.16150
20
-1371.22780
40
1406.31825
50
94.03630
51
94.79137
0
LINE
62
0
8
_____1
10
101.17300
20
31.60230
11
96.60140
21
26.17620
0
ARC
62
0
8
_____1
10
-174.89630
20
2644.07658
40
2631.94100
50
275.51265
51
275.92087
0
LINE
62
0
8
_____1
10
115.99590
20
21.54200
11
120.78390
21
27.93360
0
ARC
62
0
8
_____1
10
-58.33333
20
1602.51377
40
1584.73521
50
276.48982
51
276.95881
0
LINE
62
0
8
_____1
10
133.66650
20
29.45250
11
128.31480
21
22.23270
0
ARC
62
0
8
_____1
10
92.34632
20
553.54290
40
532.52630
50
272.54535
51
273.87288
0
LINE
62
0
8
_____1
10
97.87190
20
26.30790
11
102.36290
21
31.64400
0
LINE
62
0
8
_____1
10
102.36290
20
31.64400
11
102.30160
21
31.68010
0
ARC
62
0
8
_____1
10
169.64508
20
-954.84278
40
988.81875
50
93.00325
51
93.90515
0
LINE
62
0
8
_____1
10
117.83830
20
32.61790
11
114.44210
21
28.08350
0
ARC
62
0
8
_____1
10
-138.82521
20
2313.41123
40
2299.31885
50
275.90863
51
276.32390
0
LINE
62
0
8
_____1
10
43.19760
20
21.18650
11
46.50970
21
26.75570
0
ARC
62
0
8
_____1
10
273.70997
20
-2164.54268
40
2203.04530
50
95.55372
51
95.91944
0
LINE
62
0
8
_____1
10
60.50160
20
28.16130
11
57.05440
21
22.36640
0
ARC
62
0
8
_____1
10
-102.98487
20
1819.91757
40
1804.66141
50
274.64620
51
275.08773
0
LINE
62
0
8
_____1
10
115.65070
20
28.21780
11
118.98550
21
32.67580
0
ARC
62
0
8
_____1
10
147.95930
20
-547.26369
40
580.66281
50
91.12995
51
92.86012
0
LINE
62
0
8
_____1
10
136.50860
20
33.28620
11
134.37960
21
30.41400
0
ARC
62
0
8
_____1
10
-21.32541
20
1277.28866
40
1256.55898
50
276.25819
51
277.11803
0
ARC
62
0
8
_____1
10
264.64014
20
-2078.39793
40
2116.42442
50
95.94594
51
96.35886
0
LINE
62
0
8
_____1
10
45.39970
20
26.64030
11
42.10370
21
21.09830
0
ARC
62
0
8
_____1
10
-135.95226
20
2282.40901
40
2268.30996
50
274.32370
51
274.50219
0
LINE
62
0
8
_____1
10
35.05850
20
20.55460
11
30.23470
21
25.00560
0
LINE
62
0
8
_____1
10
101.09030
20
21.06180
11
105.18240
21
26.22520
0
ARC
62
0
8
_____1
10
55.29126
20
529.11099
40
505.35457
50
275.66576
51
276.64187
0
LINE
62
0
8
_____1
10
113.74210
20
27.14810
11
109.32270
21
21.24740
0
ARC
62
0
8
_____1
10
102.88077
20
167.87670
40
146.77074
50
270.60343
51
272.51558
0
ARC
62
0
8
_____1
10
-262.99811
20
23352.57689
40
23334.35572
50
270.89403
51
270.90222
0
LINE
62
0
8
_____1
10
129.47450
20
22.30410
11
134.87980
21
29.60240
0
ARC
62
0
8
_____1
10
194.46122
20
-430.69272
40
464.13526
50
96.99225
51
97.37546
0
LINE
62
0
8
_____1
10
137.95970
20
29.99060
11
131.91360
21
22.45600
0
ARC
62
0
8
_____1
10
24.06200
20
1734.60017
40
1715.53771
50
273.52280
51
273.60442
0
LINE
62
0
8
_____1
10
110.46990
20
21.29190
11
114.94920
21
27.28110
0
ARC
62
0
8
_____1
10
-37.12954
20
1412.32651
40
1393.36956
50
276.26601
51
276.46999
0
LINE
62
0
8
_____1
10
119.87920
20
27.83130
11
115.18280
21
21.50200
0
ARC
62
0
8
_____1
10
70.33733
20
974.49776
40
954.05033
50
272.41088
51
272.69420
0
LINE
62
0
8
_____1
10
93.33750
20
20.91910
11
97.09060
21
25.37940
0
ARC
62
0
8
_____1
10
-241.60352
20
3308.10699
40
3300.15366
50
275.89063
51
276.01673
0
LINE
62
0
8
_____1
10
104.31490
20
26.13280
11
100.28350
21
21.04760
0
ARC
62
0
8
_____1
10
121.87541
20
-1333.88713
40
1355.10676
50
90.91297
51
91.20671
0
LINE
62
0
8
_____1
10
84.18180
20
20.73690
11
86.95780
21
24.35410
0
ARC
62
0
8
_____1
10
164.35759
20
-698.02303
40
726.51183
50
95.41316
51
96.11568
0
LINE
62
0
8
_____1
10
95.82070
20
25.24880
11
92.15310
21
20.89610
0
ARC
62
0
8
_____1
10
98.13491
20
-478.26406
40
499.19600
50
90.68659
51
91.60169
0
LINE
62
0
8
_____1
10
135.59430
20
30.56600
11
137.62140
21
33.30410
0
ARC
62
0
8
_____1
10
141.59744
20
-255.38802
40
288.71950
50
87.70999
51
90.78906
0
ARC
62
0
8
_____1
10
112.65336
20
251.24949
40
221.87268
50
275.93481
51
280.51249
0
LINE
62
0
8
_____1
10
74.80280
20
20.54400
11
77.18410
21
23.39810
0
ARC
62
0
8
_____1
10
-98.87490
20
1872.01759
40
1856.98432
50
275.44033
51
275.71697
0
LINE
62
0
8
_____1
10
86.10760
20
24.26970
11
83.38250
21
20.72030
0
ARC
62
0
8
_____1
10
66.51272
20
632.83879
40
612.35091
50
270.77570
51
271.57865
0
ARC
62
0
8
_____1
10
5.42693
20
224.25912
40
200.78030
50
276.04239
51
276.76833
0
LINE
62
0
8
_____1
10
29.08990
20
24.87810
11
33.96440
21
20.35690
0
LINE
62
0
8
_____1
10
33.96440
20
20.35690
11
33.51270
21
19.72510
0
ARC
62
0
8
_____1
10
21.56733
20
778.25627
40
758.62522
50
270.76236
51
270.90222
0
ARC
62
0
8
_____1
10
350.42466
20
356.78161
40
463.93480
50
225.72698
51
226.60002
0
LINE
62
0
8
_____1
10
56.78980
20
20.17050
11
57.63250
21
21.58680
0
ARC
62
0
8
_____1
10
-86.24508
20
1663.15020
40
1647.85653
50
275.00898
51
275.40697
0
LINE
62
0
8
_____1
10
69.03160
20
22.62580
11
67.24710
21
20.38720
0
ARC
62
0
8
_____1
10
46.82257
20
753.58233
40
733.47956
50
270.77862
51
271.59567
0
LINE
62
0
8
_____1
10
68.05880
20
20.40370
11
69.89430
21
22.70640
0
ARC
62
0
8
_____1
10
521.27468
20
-4716.78761
40
4760.93980
50
95.36743
51
95.44033
0
LINE
62
0
8
_____1
10
75.92520
20
23.27690
11
73.62120
21
20.51950
0
ARC
62
0
8
_____1
10
61.85734
20
451.93963
40
431.58049
50
270.82332
51
271.56194
0
LINE
62
0
8
_____1
10
48.88960
20
20.01030
11
49.54690
21
20.88360
0
ARC
62
0
8
_____1
10
-602.56534
20
7579.69100
40
7586.88471
50
274.93080
51
274.98376
0
LINE
62
0
8
_____1
10
56.53350
20
21.48960
11
55.73560
21
20.14880
0
ARC
62
0
8
_____1
10
42.85840
20
487.39673
40
467.42535
50
270.73931
51
271.57865
0
LINE
62
0
8
_____1
10
42.42270
20
19.88320
11
42.67830
21
20.31350
0
ARC
62
0
8
_____1
10
13.99624
20
403.73436
40
384.49215
50
274.27808
51
275.18036
0
LINE
62
0
8
_____1
10
48.71250
20
20.81270
11
48.09650
21
19.99450
0
ARC
62
0
8
_____1
10
38.24980
20
377.28098
40
357.42214
50
270.66894
51
271.57865
0
ARC
62
0
8
_____1
10
17.21520
20
296.66334
40
277.50980
50
273.85948
51
275.03787
0
LINE
62
0
8
_____1
10
41.58450
20
20.22560
11
41.36920
21
19.86360
0
ARC
62
0
8
_____1
10
46.62572
20
-418.77390
40
438.66900
50
90.68659
51
91.39919
0
LINE
62
0
8
_____1
10
35.91430
20
19.76430
11
35.89430
21
19.78290
0
ENDSEC
0
EOF
