  0
SECTION
  2
HEADER
  9
$ACADVER
  1
AC1009
  9
$EXTMIN
 10
-140.00008689
 20
-244.99992727
 30
0.0
  9
$EXTMAX
 10
140.00008689
 20
244.99992727
 30
0.0
  0
ENDSEC
  0
SECTION
  2
TABLES
  0
TABLE
  2
LAYER
 70
1
 0
LAYER
 2
Векторный_слой_3
 70
0
 62
1
 6
CONTINUOUS
 0
ENDTAB
 0
ENDSEC
  0
SECTION
  2
ENTITIES
  0
POLYLINE
  8
Векторный_слой_3
 66
   1
 39
0.000000
 70
    1
  0
VERTEX
  8
0
 10
72.71169081
 20
-205.37075461
  0
VERTEX
  8
0
 10
72.62724835
 20
-204.82333628
  0
VERTEX
  8
0
 10
72.58190211
 20
-204.27917082
  0
VERTEX
  8
0
 10
72.57221037
 20
-203.73805142
  0
VERTEX
  8
0
 10
72.59473142
 20
-203.19977128
  0
VERTEX
  8
0
 10
72.64602356
 20
-202.66412356
  0
VERTEX
  8
0
 10
72.72264508
 20
-202.13090146
  0
VERTEX
  8
0
 10
72.82115427
 20
-201.59989815
  0
VERTEX
  8
0
 10
72.93810941
 20
-201.07090683
  0
VERTEX
  8
0
 10
73.21359074
 20
-200.01813287
  0
VERTEX
  8
0
 10
73.52155539
 20
-198.97092505
  0
VERTEX
  8
0
 10
73.83446970
 20
-197.92762883
  0
VERTEX
  8
0
 10
74.12480000
 20
-196.88658969
  0
VERTEX
  8
0
 10
74.11044963
 20
-196.40434672
  0
VERTEX
  8
0
 10
74.06247229
 20
-195.92315273
  0
VERTEX
  8
0
 10
73.98358329
 20
-195.44417949
  0
VERTEX
  8
0
 10
73.87649795
 20
-194.96859878
  0
VERTEX
  8
0
 10
73.74393159
 20
-194.49758235
  0
VERTEX
  8
0
 10
73.58859955
 20
-194.03230197
  0
VERTEX
  8
0
 10
73.41321714
 20
-193.57392942
  0
VERTEX
  8
0
 10
73.22049969
 20
-193.12363645
  0
VERTEX
  8
0
 10
73.01316251
 20
-192.68259482
  0
VERTEX
  8
0
 10
72.79392094
 20
-192.25197632
  0
VERTEX
  8
0
 10
72.33058588
 20
-191.42669573
  0
VERTEX
  8
0
 10
71.85221711
 20
-190.65716880
  0
VERTEX
  8
0
 10
71.38053720
 20
-189.95276966
  0
VERTEX
  8
0
 10
71.60014991
 20
-189.41987505
  0
VERTEX
  8
0
 10
71.78541481
 20
-188.82756502
  0
VERTEX
  8
0
 10
71.93432782
 20
-188.18274675
  0
VERTEX
  8
0
 10
72.04488484
 20
-187.49232739
  0
VERTEX
  8
0
 10
72.11508180
 20
-186.76321412
  0
VERTEX
  8
0
 10
72.14291460
 20
-186.00231408
  0
VERTEX
  8
0
 10
72.12637916
 20
-185.21653444
  0
VERTEX
  8
0
 10
72.06347139
 20
-184.41278236
  0
VERTEX
  8
0
 10
71.95218720
 20
-183.59796501
  0
VERTEX
  8
0
 10
71.79052250
 20
-182.77898955
  0
VERTEX
  8
0
 10
71.57647322
 20
-181.96276313
  0
VERTEX
  8
0
 10
71.30803525
 20
-181.15619292
  0
VERTEX
  8
0
 10
71.15279424
 20
-180.75868739
  0
VERTEX
  8
0
 10
70.98320452
 20
-180.36618609
  0
VERTEX
  8
0
 10
70.79901559
 20
-179.97955243
  0
VERTEX
  8
0
 10
70.59997694
 20
-179.59964979
  0
VERTEX
  8
0
 10
70.38583805
 20
-179.22734158
  0
VERTEX
  8
0
 10
70.15634842
 20
-178.86349119
  0
VERTEX
  8
0
 10
69.91125753
 20
-178.50896201
  0
VERTEX
  8
0
 10
69.65031487
 20
-178.16461744
  0
VERTEX
  8
0
 10
70.06789633
 20
-177.75957484
  0
VERTEX
  8
0
 10
70.51040529
 20
-177.40201085
  0
VERTEX
  8
0
 10
70.97547378
 20
-177.08823444
  0
VERTEX
  8
0
 10
71.46073383
 20
-176.81455461
  0
VERTEX
  8
0
 10
71.96381746
 20
-176.57728034
  0
VERTEX
  8
0
 10
72.48235670
 20
-176.37272062
  0
VERTEX
  8
0
 10
73.01398357
 20
-176.19718444
  0
VERTEX
  8
0
 10
73.55633009
 20
-176.04698078
  0
VERTEX
  8
0
 10
74.10702830
 20
-175.91841864
  0
VERTEX
  8
0
 10
74.66371022
 20
-175.80780699
  0
VERTEX
  8
0
 10
75.78555329
 20
-175.62567114
  0
VERTEX
  8
0
 10
76.90291551
 20
-175.47104512
  0
VERTEX
  8
0
 10
77.99685307
 20
-175.31440083
  0
VERTEX
  8
0
 10
78.18064117
 20
-175.12488873
  0
VERTEX
  8
0
 10
78.37311482
 20
-174.94798607
  0
VERTEX
  8
0
 10
78.77767911
 20
-174.62336050
  0
VERTEX
  8
0
 10
79.62019831
 20
-174.03028805
  0
VERTEX
  8
0
 10
80.03239467
 20
-173.72724674
  0
VERTEX
  8
0
 10
80.42137651
 20
-173.39680577
  0
VERTEX
  8
0
 10
80.60313722
 20
-173.21590502
  0
VERTEX
  8
0
 10
80.77426458
 20
-173.02166791
  0
VERTEX
  8
0
 10
80.93314867
 20
-172.81193227
  0
VERTEX
  8
0
 10
81.07817960
 20
-172.58453595
  0
VERTEX
  8
0
 10
81.92824305
 20
-172.46565361
  0
VERTEX
  8
0
 10
82.80710781
 20
-172.36098456
  0
VERTEX
  8
0
 10
84.62057304
 20
-172.15430162
  0
VERTEX
  8
0
 10
85.53983941
 20
-172.03229538
  0
VERTEX
  8
0
 10
86.45723889
 20
-171.88451773
  0
VERTEX
  8
0
 10
87.36510441
 20
-171.70097250
  0
VERTEX
  8
0
 10
88.25576893
 20
-171.47166351
  0
VERTEX
  8
0
 10
88.88471388
 20
-171.27264125
  0
VERTEX
  8
0
 10
89.50618166
 20
-171.03978520
  0
VERTEX
  8
0
 10
90.11498229
 20
-170.77316087
  0
VERTEX
  8
0
 10
90.70592582
 20
-170.47283377
  0
VERTEX
  8
0
 10
91.27382228
 20
-170.13886939
  0
VERTEX
  8
0
 10
91.81348169
 20
-169.77133327
  0
VERTEX
  8
0
 10
92.31971411
 20
-169.37029090
  0
VERTEX
  8
0
 10
92.78732956
 20
-168.93580779
  0
VERTEX
  8
0
 10
93.21113808
 20
-168.46794945
  0
VERTEX
  8
0
 10
93.40499287
 20
-168.22152505
  0
VERTEX
  8
0
 10
93.58594970
 20
-167.96678140
  0
VERTEX
  8
0
 10
93.75335981
 20
-167.70372671
  0
VERTEX
  8
0
 10
93.90657446
 20
-167.43236914
  0
VERTEX
  8
0
 10
94.04494490
 20
-167.15271691
  0
VERTEX
  8
0
 10
94.16782239
 20
-166.86477819
  0
VERTEX
  8
0
 10
94.27455819
 20
-166.56856117
  0
VERTEX
  8
0
 10
94.36450354
 20
-166.26407404
  0
VERTEX
  8
0
 10
94.43700970
 20
-165.95132500
  0
VERTEX
  8
0
 10
94.49142793
 20
-165.63032222
  0
VERTEX
  8
0
 10
94.52710947
 20
-165.30107390
  0
VERTEX
  8
0
 10
94.54340560
 20
-164.96358822
  0
VERTEX
  8
0
 10
94.53966755
 20
-164.61787339
  0
VERTEX
  8
0
 10
94.51524658
 20
-164.26393757
  0
VERTEX
  8
0
 10
94.42154862
 20
-163.55577726
  0
VERTEX
  8
0
 10
94.29211700
 20
-162.84002205
  0
VERTEX
  8
0
 10
93.99381138
 20
-161.39456125
  0
VERTEX
  8
0
 10
93.85881667
 20
-160.66927278
  0
VERTEX
  8
0
 10
93.75584689
 20
-159.94522371
  0
VERTEX
  8
0
 10
93.70184170
 20
-159.22462258
  0
VERTEX
  8
0
 10
93.69849446
 20
-158.86630518
  0
VERTEX
  8
0
 10
93.71374074
 20
-158.50967798
  0
VERTEX
  8
0
 10
93.85575159
 20
-158.05212431
  0
VERTEX
  8
0
 10
94.02110170
 20
-157.59932399
  0
VERTEX
  8
0
 10
94.20726806
 20
-157.15119505
  0
VERTEX
  8
0
 10
94.41172761
 20
-156.70765552
  0
VERTEX
  8
0
 10
94.86543418
 20
-155.83401683
  0
VERTEX
  8
0
 10
95.36203715
 20
-154.97775220
  0
VERTEX
  8
0
 10
95.88135222
 20
-154.13820592
  0
VERTEX
  8
0
 10
96.40319513
 20
-153.31472226
  0
VERTEX
  8
0
 10
96.90738159
 20
-152.50664549
  0
VERTEX
  8
0
 10
97.37372733
 20
-151.71331990
  0
VERTEX
  8
0
 10
97.63253365
 20
-151.30881266
  0
VERTEX
  8
0
 10
97.85662832
 20
-150.90151594
  0
VERTEX
  8
0
 10
98.04727841
 20
-150.49177463
  0
VERTEX
  8
0
 10
98.20575096
 20
-150.07993363
  0
VERTEX
  8
0
 10
98.33331305
 20
-149.66633783
  0
VERTEX
  8
0
 10
98.43123172
 20
-149.25133213
  0
VERTEX
  8
0
 10
98.50077403
 20
-148.83526142
  0
VERTEX
  8
0
 10
98.54320705
 20
-148.41847059
  0
VERTEX
  8
0
 10
98.55979783
 20
-148.00130454
  0
VERTEX
  8
0
 10
98.55181342
 20
-147.58410817
  0
VERTEX
  8
0
 10
98.52052089
 20
-147.16722637
  0
VERTEX
  8
0
 10
98.46718729
 20
-146.75100404
  0
VERTEX
  8
0
 10
98.39307968
 20
-146.33578606
  0
VERTEX
  8
0
 10
98.29946512
 20
-145.92191734
  0
VERTEX
  8
0
 10
98.18761066
 20
-145.50974276
  0
VERTEX
  8
0
 10
98.05878336
 20
-145.09960723
  0
VERTEX
  8
0
 10
97.75527849
 20
-144.28683288
  0
VERTEX
  8
0
 10
97.39908695
 20
-143.48635344
  0
VERTEX
  8
0
 10
97.00034522
 20
-142.70092807
  0
VERTEX
  8
0
 10
96.56918975
 20
-141.93331592
  0
VERTEX
  8
0
 10
96.11575700
 20
-141.18627616
  0
VERTEX
  8
0
 10
95.65018343
 20
-140.46256795
  0
VERTEX
  8
0
 10
94.72315969
 20
-139.09618277
  0
VERTEX
  8
0
 10
94.84808769
 20
-138.55020695
  0
VERTEX
  8
0
 10
94.93145209
 20
-137.99817040
  0
VERTEX
  8
0
 10
94.97862910
 20
-137.44066239
  0
VERTEX
  8
0
 10
94.99499492
 20
-136.87827219
  0
VERTEX
  8
0
 10
94.98592575
 20
-136.31158906
  0
VERTEX
  8
0
 10
94.95679780
 20
-135.74120228
  0
VERTEX
  8
0
 10
94.85987035
 20
-134.59167482
  0
VERTEX
  8
0
 10
95.12285403
 20
-134.22807122
  0
VERTEX
  8
0
 10
95.40999792
 20
-133.85583841
  0
VERTEX
  8
0
 10
96.03405245
 20
-133.08691807
  0
VERTEX
  8
0
 10
96.68660612
 20
-132.28777960
  0
VERTEX
  8
0
 10
97.32223110
 20
-131.46128881
  0
VERTEX
  8
0
 10
97.61949913
 20
-131.03868185
  0
VERTEX
  8
0
 10
97.89549956
 20
-130.61031150
  0
VERTEX
  8
0
 10
98.14455389
 20
-130.17653596
  0
VERTEX
  8
0
 10
98.36098366
 20
-129.73771347
  0
VERTEX
  8
0
 10
98.53911038
 20
-129.29420225
  0
VERTEX
  8
0
 10
98.67325558
 20
-128.84636053
  0
VERTEX
  8
0
 10
98.75774078
 20
-128.39454654
  0
VERTEX
  8
0
 10
98.78688750
 20
-127.93911849
  0
VERTEX
  8
0
 10
98.83740884
 20
-127.61839374
  0
VERTEX
  8
0
 10
98.87297244
 20
-127.29597338
  0
VERTEX
  8
0
 10
98.90163659
 20
-126.64660093
  0
VERTEX
  8
0
 10
98.87770041
 20
-125.99211131
  0
VERTEX
  8
0
 10
98.80598437
 20
-125.33361467
  0
VERTEX
  8
0
 10
98.69130893
 20
-124.67222119
  0
VERTEX
  8
0
 10
98.53849455
 20
-124.00904104
  0
VERTEX
  8
0
 10
98.35236171
 20
-123.34518437
  0
VERTEX
  8
0
 10
98.13773087
 20
-122.68176137
  0
VERTEX
  8
0
 10
97.89942248
 20
-122.01988218
  0
VERTEX
  8
0
 10
97.64225702
 20
-121.36065699
  0
VERTEX
  8
0
 10
97.09063675
 20
-120.05460923
  0
VERTEX
  8
0
 10
96.52143375
 20
-118.77249942
  0
VERTEX
  8
0
 10
95.97321175
 20
-117.52320890
  0
VERTEX
  8
0
 10
96.02146482
 20
-116.33054854
  0
VERTEX
  8
0
 10
96.08497907
 20
-115.12942625
  0
VERTEX
  8
0
 10
96.21780742
 20
-112.72105176
  0
VERTEX
  8
0
 10
96.26712967
 20
-111.52342748
  0
VERTEX
  8
0
 10
96.29172941
 20
-110.33659711
  0
VERTEX
  8
0
 10
96.28161072
 20
-109.16537463
  0
VERTEX
  8
0
 10
96.22677768
 20
-108.01457399
  0
VERTEX
  8
0
 10
96.19575990
 20
-107.41882243
  0
VERTEX
  8
0
 10
96.13847025
 20
-106.83702422
  0
VERTEX
  8
0
 10
96.05558102
 20
-106.26912289
  0
VERTEX
  8
0
 10
95.94776449
 20
-105.71506194
  0
VERTEX
  8
0
 10
95.81569297
 20
-105.17478489
  0
VERTEX
  8
0
 10
95.66003873
 20
-104.64823524
  0
VERTEX
  8
0
 10
95.48147407
 20
-104.13535651
  0
VERTEX
  8
0
 10
95.28067128
 20
-103.63609222
  0
VERTEX
  8
0
 10
95.05830264
 20
-103.15038586
  0
VERTEX
  8
0
 10
94.81504045
 20
-102.67818097
  0
VERTEX
  8
0
 10
94.55155699
 20
-102.21942104
  0
VERTEX
  8
0
 10
94.26852455
 20
-101.77404959
  0
VERTEX
  8
0
 10
93.96661543
 20
-101.34201014
  0
VERTEX
  8
0
 10
93.64650190
 20
-100.92324619
  0
VERTEX
  8
0
 10
93.30885627
 20
-100.51770126
  0
VERTEX
  8
0
 10
92.95435081
 20
-100.12531886
  0
VERTEX
  8
0
 10
92.58365782
 20
-99.74604250
  0
VERTEX
  8
0
 10
92.19744959
 20
-99.37981569
  0
VERTEX
  8
0
 10
91.79639840
 20
-99.02658195
  0
VERTEX
  8
0
 10
91.38117655
 20
-98.68628479
  0
VERTEX
  8
0
 10
90.95245633
 20
-98.35886771
  0
VERTEX
  8
0
 10
90.51091001
 20
-98.04427424
  0
VERTEX
  8
0
 10
90.05720990
 20
-97.74244789
  0
VERTEX
  8
0
 10
89.59202828
 20
-97.45333216
  0
VERTEX
  8
0
 10
89.11603745
 20
-97.17687057
  0
VERTEX
  8
0
 10
88.62990968
 20
-96.91300664
  0
VERTEX
  8
0
 10
88.13431727
 20
-96.66168387
  0
VERTEX
  8
0
 10
87.62993251
 20
-96.42284577
  0
VERTEX
  8
0
 10
86.59747509
 20
-95.98239765
  0
VERTEX
  8
0
 10
85.53791573
 20
-95.59121038
  0
VERTEX
  8
0
 10
85.00978154
 20
-95.32925477
  0
VERTEX
  8
0
 10
84.49164178
 20
-95.05476376
  0
VERTEX
  8
0
 10
83.48281293
 20
-94.47155323
  0
VERTEX
  8
0
 10
82.50636399
 20
-93.84833411
  0
VERTEX
  8
0
 10
81.55722977
 20
-93.19186170
  0
VERTEX
  8
0
 10
80.63034510
 20
-92.50889129
  0
VERTEX
  8
0
 10
79.72064479
 20
-91.80617820
  0
VERTEX
  8
0
 10
77.93253651
 20
-90.36854518
  0
VERTEX
  8
0
 10
76.15238346
 20
-88.93300507
  0
VERTEX
  8
0
 10
75.25262719
 20
-88.23290812
  0
VERTEX
  8
0
 10
74.33966418
 20
-87.55360030
  0
VERTEX
  8
0
 10
73.40842925
 20
-86.90183693
  0
VERTEX
  8
0
 10
72.45385720
 20
-86.28437331
  0
VERTEX
  8
0
 10
71.47088287
 20
-85.70796474
  0
VERTEX
  8
0
 10
70.96716197
 20
-85.43726713
  0
VERTEX
  8
0
 10
70.45444106
 20
-85.17936652
  0
VERTEX
  8
0
 10
62.67401436
 20
-83.07848702
  0
VERTEX
  8
0
 10
62.32939588
 20
-82.96932879
  0
VERTEX
  8
0
 10
61.99094396
 20
-82.84566257
  0
VERTEX
  8
0
 10
61.33036137
 20
-82.56041855
  0
VERTEX
  8
0
 10
60.68790984
 20
-82.23397979
  0
VERTEX
  8
0
 10
60.05923262
 20
-81.87757112
  0
VERTEX
  8
0
 10
58.82577404
 20
-81.11974342
  0
VERTEX
  8
0
 10
58.21227918
 20
-80.74077405
  0
VERTEX
  8
0
 10
57.59513158
 20
-80.37673411
  0
VERTEX
  8
0
 10
56.59896130
 20
-79.83428820
  0
VERTEX
  8
0
 10
55.68050417
 20
-79.39367795
  0
VERTEX
  8
0
 10
55.24668309
 20
-79.20997043
  0
VERTEX
  8
0
 10
54.82780835
 20
-79.04981291
  0
VERTEX
  8
0
 10
54.42238599
 20
-78.91256908
  0
VERTEX
  8
0
 10
54.02892202
 20
-78.79760264
  0
VERTEX
  8
0
 10
53.64592246
 20
-78.70427728
  0
VERTEX
  8
0
 10
53.27189334
 20
-78.63195669
  0
VERTEX
  8
0
 10
52.90534066
 20
-78.58000458
  0
VERTEX
  8
0
 10
52.54477046
 20
-78.54778463
  0
VERTEX
  8
0
 10
52.18868875
 20
-78.53466053
  0
VERTEX
  8
0
 10
51.83560156
 20
-78.53999599
  0
VERTEX
  8
0
 10
51.48401490
 20
-78.56315470
  0
VERTEX
  8
0
 10
51.13243480
 20
-78.60350035
  0
VERTEX
  8
0
 10
50.77936728
 20
-78.66039663
  0
VERTEX
  8
0
 10
50.42331835
 20
-78.73320725
  0
VERTEX
  8
0
 10
49.69630036
 20
-78.92402625
  0
VERTEX
  8
0
 10
48.93942901
 20
-79.17086690
  0
VERTEX
  8
0
 10
48.14075245
 20
-79.46863876
  0
VERTEX
  8
0
 10
47.28831887
 20
-79.81225138
  0
VERTEX
  8
0
 10
46.37017640
 20
-80.19661432
  0
VERTEX
  8
0
 10
44.28895752
 20
-81.06722938
  0
VERTEX
  8
0
 10
43.35028558
 20
-80.69428833
  0
VERTEX
  8
0
 10
42.42947726
 20
-80.38079994
  0
VERTEX
  8
0
 10
41.51406149
 20
-80.12659630
  0
VERTEX
  8
0
 10
41.05447860
 20
-80.02167378
  0
VERTEX
  8
0
 10
40.59156720
 20
-79.93150949
  0
VERTEX
  8
0
 10
40.12376840
 20
-79.85608242
  0
VERTEX
  8
0
 10
39.64952332
 20
-79.79537159
  0
VERTEX
  8
0
 10
39.16727306
 20
-79.74935601
  0
VERTEX
  8
0
 10
38.67545876
 20
-79.71801469
  0
VERTEX
  8
0
 10
37.65690246
 20
-79.69927088
  0
VERTEX
  8
0
 10
36.58138335
 20
-79.73897224
  0
VERTEX
  8
0
 10
36.03325769
 20
-79.83857095
  0
VERTEX
  8
0
 10
35.50077904
 20
-79.96737122
  0
VERTEX
  8
0
 10
34.98257056
 20
-80.12263163
  0
VERTEX
  8
0
 10
34.47725538
 20
-80.30161076
  0
VERTEX
  8
0
 10
33.98345666
 20
-80.50156717
  0
VERTEX
  8
0
 10
33.49979753
 20
-80.71975944
  0
VERTEX
  8
0
 10
33.02490116
 20
-80.95344614
  0
VERTEX
  8
0
 10
32.55739068
 20
-81.19988586
  0
VERTEX
  8
0
 10
31.63901999
 20
-81.72005863
  0
VERTEX
  8
0
 10
30.73367064
 20
-82.25834634
  0
VERTEX
  8
0
 10
29.83032782
 20
-82.79281758
  0
VERTEX
  8
0
 10
28.91797669
 20
-83.30154096
  0
VERTEX
  8
0
 10
28.22754630
 20
-82.89965229
  0
VERTEX
  8
0
 10
27.51986512
 20
-82.55228523
  0
VERTEX
  8
0
 10
26.79690991
 20
-82.25709523
  0
VERTEX
  8
0
 10
26.06065743
 20
-82.01173775
  0
VERTEX
  8
0
 10
25.31308446
 20
-81.81386823
  0
VERTEX
  8
0
 10
24.55616774
 20
-81.66114214
  0
VERTEX
  8
0
 10
23.79188404
 20
-81.55121493
  0
VERTEX
  8
0
 10
23.02221012
 20
-81.48174205
  0
VERTEX
  8
0
 10
22.24912275
 20
-81.45037895
  0
VERTEX
  8
0
 10
21.47459869
 20
-81.45478109
  0
VERTEX
  8
0
 10
20.70061469
 20
-81.49260392
  0
VERTEX
  8
0
 10
19.92914752
 20
-81.56150290
  0
VERTEX
  8
0
 10
19.16217395
 20
-81.65913348
  0
VERTEX
  8
0
 10
18.40167073
 20
-81.78315111
  0
VERTEX
  8
0
 10
17.64961462
 20
-81.93121125
  0
VERTEX
  8
0
 10
16.90798239
 20
-82.10096935
  0
VERTEX
  8
0
 10
16.29376847
 20
-82.00031742
  0
VERTEX
  8
0
 10
15.68225802
 20
-81.85902452
  0
VERTEX
  8
0
 10
15.07286715
 20
-81.68704030
  0
VERTEX
  8
0
 10
14.46501200
 20
-81.49431441
  0
VERTEX
  8
0
 10
13.25157335
 20
-81.08643626
  0
VERTEX
  8
0
 10
12.64482211
 20
-80.89118330
  0
VERTEX
  8
0
 10
12.03727108
 20
-80.71498728
  0
VERTEX
  8
0
 10
11.42833640
 20
-80.56779787
  0
VERTEX
  8
0
 10
10.81743420
 20
-80.45956470
  0
VERTEX
  8
0
 10
10.20398059
 20
-80.40023744
  0
VERTEX
  8
0
 10
9.89611455
 20
-80.39202280
  0
VERTEX
  8
0
 10
9.58739171
 20
-80.39976574
  0
VERTEX
  8
0
 10
9.27773908
 20
-80.42470999
  0
VERTEX
  8
0
 10
8.96708369
 20
-80.46809925
  0
VERTEX
  8
0
 10
8.65535253
 20
-80.53117723
  0
VERTEX
  8
0
 10
8.34247264
 20
-80.61518763
  0
VERTEX
  8
0
 10
8.02837102
 20
-80.72137415
  0
VERTEX
  8
0
 10
7.71297470
 20
-80.85098052
  0
VERTEX
  8
0
 10
7.39621068
 20
-81.00525042
  0
VERTEX
  8
0
 10
7.07800599
 20
-81.18542758
  0
VERTEX
  8
0
 10
6.07980105
 20
-81.84680141
  0
VERTEX
  8
0
 10
5.10675898
 20
-82.54530034
  0
VERTEX
  8
0
 10
4.15702706
 20
-83.27721002
  0
VERTEX
  8
0
 10
3.22875260
 20
-84.03881607
  0
VERTEX
  8
0
 10
2.32008289
 20
-84.82640412
  0
VERTEX
  8
0
 10
1.42916524
 20
-85.63625982
  0
VERTEX
  8
0
 10
0.55414694
 20
-86.46466880
  0
VERTEX
  8
0
 10
-0.30682471
 20
-87.30791669
  0
VERTEX
  8
0
 10
-1.99403887
 20
-89.02407172
  0
VERTEX
  8
0
 10
-3.64729885
 20
-90.75501000
  0
VERTEX
  8
0
 10
-5.28142626
 20
-92.47101660
  0
VERTEX
  8
0
 10
-6.91124272
 20
-94.14237658
  0
VERTEX
  8
0
 10
-7.41272472
 20
-94.60097486
  0
VERTEX
  8
0
 10
-7.85651794
 20
-95.06953542
  0
VERTEX
  8
0
 10
-8.24573156
 20
-95.54754359
  0
VERTEX
  8
0
 10
-8.58347478
 20
-96.03448474
  0
VERTEX
  8
0
 10
-8.87285679
 20
-96.52984420
  0
VERTEX
  8
0
 10
-9.11698679
 20
-97.03310732
  0
VERTEX
  8
0
 10
-9.31897395
 20
-97.54375944
  0
VERTEX
  8
0
 10
-9.48192748
 20
-98.06128591
  0
VERTEX
  8
0
 10
-9.60895657
 20
-98.58517207
  0
VERTEX
  8
0
 10
-9.70317041
 20
-99.11490328
  0
VERTEX
  8
0
 10
-9.76767819
 20
-99.64996486
  0
VERTEX
  8
0
 10
-9.80558910
 20
-100.18984217
  0
VERTEX
  8
0
 10
-9.82001234
 20
-100.73402056
  0
VERTEX
  8
0
 10
-9.81405709
 20
-101.28198537
  0
VERTEX
  8
0
 10
-9.79083256
 20
-101.83322194
  0
VERTEX
  8
0
 10
-9.75344792
 20
-102.38721561
  0
VERTEX
  8
0
 10
-9.64863513
 20
-103.50141568
  0
VERTEX
  8
0
 10
-9.52449224
 20
-104.62046832
  0
VERTEX
  8
0
 10
-9.40589279
 20
-105.74025629
  0
VERTEX
  8
0
 10
-9.31771033
 20
-106.85666236
  0
VERTEX
  8
0
 10
-9.29279844
 20
-107.41231055
  0
VERTEX
  8
0
 10
-9.28481838
 20
-107.96556929
  0
VERTEX
  8
0
 10
-9.29687933
 20
-108.51592394
  0
VERTEX
  8
0
 10
-9.33209048
 20
-109.06285984
  0
VERTEX
  8
0
 10
-9.39356103
 20
-109.60586233
  0
VERTEX
  8
0
 10
-9.48440017
 20
-110.14441677
  0
VERTEX
  8
0
 10
-9.60771709
 20
-110.67800848
  0
VERTEX
  8
0
 10
-9.76662099
 20
-111.20612283
  0
VERTEX
  8
0
 10
-10.14470814
 20
-111.91491964
  0
VERTEX
  8
0
 10
-10.48140198
 20
-112.62808316
  0
VERTEX
  8
0
 10
-10.77742622
 20
-113.34549765
  0
VERTEX
  8
0
 10
-11.03350458
 20
-114.06704733
  0
VERTEX
  8
0
 10
-11.25036076
 20
-114.79261646
  0
VERTEX
  8
0
 10
-11.42871850
 20
-115.52208926
  0
VERTEX
  8
0
 10
-11.56930150
 20
-116.25534997
  0
VERTEX
  8
0
 10
-11.67283349
 20
-116.99228285
  0
VERTEX
  8
0
 10
-11.74003817
 20
-117.73277212
  0
VERTEX
  8
0
 10
-11.77163927
 20
-118.47670202
  0
VERTEX
  8
0
 10
-11.76836051
 20
-119.22395679
  0
VERTEX
  8
0
 10
-11.73092559
 20
-119.97442067
  0
VERTEX
  8
0
 10
-11.66005824
 20
-120.72797791
  0
VERTEX
  8
0
 10
-11.55648217
 20
-121.48451273
  0
VERTEX
  8
0
 10
-11.42092111
 20
-122.24390938
  0
VERTEX
  8
0
 10
-11.25409875
 20
-123.00605210
  0
VERTEX
  8
0
 10
-11.42389767
 20
-123.78556659
  0
VERTEX
  8
0
 10
-11.55905587
 20
-124.54107428
  0
VERTEX
  8
0
 10
-11.66924278
 20
-125.27996013
  0
VERTEX
  8
0
 10
-11.76412786
 20
-126.00960908
  0
VERTEX
  8
0
 10
-11.94667021
 20
-127.47073612
  0
VERTEX
  8
0
 10
-12.05366638
 20
-128.21698410
  0
VERTEX
  8
0
 10
-12.18403845
 20
-128.98353500
  0
VERTEX
  8
0
 10
-12.10014678
 20
-129.23649490
  0
VERTEX
  8
0
 10
-12.04013029
 20
-129.48955707
  0
VERTEX
  8
0
 10
-12.00213838
 20
-129.74271034
  0
VERTEX
  8
0
 10
-11.98432044
 20
-129.99594351
  0
VERTEX
  8
0
 10
-11.98482584
 20
-130.24924540
  0
VERTEX
  8
0
 10
-12.00180397
 20
-130.50260482
  0
VERTEX
  8
0
 10
-12.07777596
 20
-131.00945154
  0
VERTEX
  8
0
 10
-12.19743150
 20
-131.51639420
  0
VERTEX
  8
0
 10
-12.34596566
 20
-132.02334332
  0
VERTEX
  8
0
 10
-12.67045019
 20
-133.03690306
  0
VERTEX
  8
0
 10
-12.81679071
 20
-133.54333473
  0
VERTEX
  8
0
 10
-12.93279018
 20
-134.04941497
  0
VERTEX
  8
0
 10
-13.00364368
 20
-134.55505430
  0
VERTEX
  8
0
 10
-13.01751416
 20
-134.80768067
  0
VERTEX
  8
0
 10
-13.01454629
 20
-135.06016327
  0
VERTEX
  8
0
 10
-12.99288948
 20
-135.31249090
  0
VERTEX
  8
0
 10
-12.95069309
 20
-135.56465238
  0
VERTEX
  8
0
 10
-12.88610653
 20
-135.81663653
  0
VERTEX
  8
0
 10
-12.79727916
 20
-136.06843217
  0
VERTEX
  8
0
 10
-12.68236039
 20
-136.32002811
  0
VERTEX
  8
0
 10
-12.53949959
 20
-136.57141317
  0
VERTEX
  8
0
 10
-12.36684614
 20
-136.82257616
  0
VERTEX
  8
0
 10
-12.16254944
 20
-137.07350590
  0
VERTEX
  8
0
 10
-12.43317934
 20
-137.18656637
  0
VERTEX
  8
0
 10
-12.78586786
 20
-137.30095698
  0
VERTEX
  8
0
 10
-13.29627310
 20
-137.42997899
  0
VERTEX
  8
0
 10
-13.97399583
 20
-137.55567575
  0
VERTEX
  8
0
 10
-14.82863680
 20
-137.66009062
  0
VERTEX
  8
0
 10
-15.32530187
 20
-137.69870590
  0
VERTEX
  8
0
 10
-15.86979679
 20
-137.72526696
  0
VERTEX
  8
0
 10
-16.46332164
 20
-137.73752922
  0
VERTEX
  8
0
 10
-17.10707654
 20
-137.73324811
  0
VERTEX
  8
0
 10
-17.56129290
 20
-137.71402068
  0
VERTEX
  8
0
 10
-18.05859101
 20
-137.67574297
  0
VERTEX
  8
0
 10
-19.15197173
 20
-137.55547698
  0
VERTEX
  8
0
 10
-21.52064577
 20
-137.23418429
  0
VERTEX
  8
0
 10
-22.67409601
 20
-137.08691852
  0
VERTEX
  8
0
 10
-23.72572634
 20
-136.98441375
  0
VERTEX
  8
0
 10
-24.19432106
 20
-136.95834689
  0
VERTEX
  8
0
 10
-24.61461523
 20
-136.95355045
  0
VERTEX
  8
0
 10
-24.97899366
 20
-136.97338450
  0
VERTEX
  8
0
 10
-25.27984114
 20
-137.02120908
  0
VERTEX
  8
0
 10
-25.75836839
 20
-137.40292129
  0
VERTEX
  8
0
 10
-26.39365242
 20
-137.96659399
  0
VERTEX
  8
0
 10
-27.91199171
 20
-139.39409034
  0
VERTEX
  8
0
 10
-29.38986082
 20
-140.81223713
  0
VERTEX
  8
0
 10
-29.97455713
 20
-141.36422286
  0
VERTEX
  8
0
 10
-30.38226158
 20
-141.72957330
  0
VERTEX
  8
0
 10
-31.36620054
 20
-142.51026542
  0
VERTEX
  8
0
 10
-32.36758591
 20
-143.27190234
  0
VERTEX
  8
0
 10
-33.36071705
 20
-144.04138239
  0
VERTEX
  8
0
 10
-33.84615585
 20
-144.43746931
  0
VERTEX
  8
0
 10
-34.31989336
 20
-144.84560388
  0
VERTEX
  8
0
 10
-34.77871701
 20
-145.26914838
  0
VERTEX
  8
0
 10
-35.21941422
 20
-145.71146511
  0
VERTEX
  8
0
 10
-35.63877241
 20
-146.17591635
  0
VERTEX
  8
0
 10
-36.03357901
 20
-146.66586439
  0
VERTEX
  8
0
 10
-36.40062144
 20
-147.18467152
  0
VERTEX
  8
0
 10
-36.73668713
 20
-147.73570004
  0
VERTEX
  8
0
 10
-37.03856349
 20
-148.32231222
  0
VERTEX
  8
0
 10
-37.30303794
 20
-148.94787035
  0
VERTEX
  8
0
 10
-37.49204580
 20
-149.40411779
  0
VERTEX
  8
0
 10
-37.63244329
 20
-149.86986061
  0
VERTEX
  8
0
 10
-37.72780849
 20
-150.34368092
  0
VERTEX
  8
0
 10
-37.78171948
 20
-150.82416083
  0
VERTEX
  8
0
 10
-37.79775435
 20
-151.30988246
  0
VERTEX
  8
0
 10
-37.77949118
 20
-151.79942791
  0
VERTEX
  8
0
 10
-37.73050804
 20
-152.29137930
  0
VERTEX
  8
0
 10
-37.65438301
 20
-152.78431874
  0
VERTEX
  8
0
 10
-37.55469418
 20
-153.27682834
  0
VERTEX
  8
0
 10
-37.43501963
 20
-153.76749022
  0
VERTEX
  8
0
 10
-37.15002568
 20
-154.73759924
  0
VERTEX
  8
0
 10
-36.82802579
 20
-155.68330270
  0
VERTEX
  8
0
 10
-36.49764462
 20
-156.59325750
  0
VERTEX
  8
0
 10
-36.29845219
 20
-156.96514293
  0
VERTEX
  8
0
 10
-36.12013174
 20
-157.33512212
  0
VERTEX
  8
0
 10
-35.96181048
 20
-157.70328049
  0
VERTEX
  8
0
 10
-35.82261564
 20
-158.06970349
  0
VERTEX
  8
0
 10
-35.70167443
 20
-158.43447653
  0
VERTEX
  8
0
 10
-35.59811406
 20
-158.79768506
  0
VERTEX
  8
0
 10
-35.51106176
 20
-159.15941451
  0
VERTEX
  8
0
 10
-35.43964475
 20
-159.51975032
  0
VERTEX
  8
0
 10
-35.34022542
 20
-160.23658273
  0
VERTEX
  8
0
 10
-35.29287383
 20
-160.94886576
  0
VERTEX
  8
0
 10
-35.29060771
 20
-161.65728289
  0
VERTEX
  8
0
 10
-35.32644479
 20
-162.36251759
  0
VERTEX
  8
0
 10
-35.39340281
 20
-163.06525332
  0
VERTEX
  8
0
 10
-35.48449951
 20
-163.76617356
  0
VERTEX
  8
0
 10
-35.71117990
 20
-165.16530144
  0
VERTEX
  8
0
 10
-35.95062784
 20
-166.56536901
  0
VERTEX
  8
0
 10
-36.05768399
 20
-167.26746386
  0
VERTEX
  8
0
 10
-36.14698523
 20
-167.97184403
  0
VERTEX
  8
0
 10
-36.08152076
 20
-168.46317827
  0
VERTEX
  8
0
 10
-35.98419164
 20
-168.93471269
  0
VERTEX
  8
0
 10
-35.85636401
 20
-169.38699604
  0
VERTEX
  8
0
 10
-35.69940399
 20
-169.82057712
  0
VERTEX
  8
0
 10
-35.51467772
 20
-170.23600469
  0
VERTEX
  8
0
 10
-35.30355133
 20
-170.63382753
  0
VERTEX
  8
0
 10
-35.06739094
 20
-171.01459441
  0
VERTEX
  8
0
 10
-34.80756269
 20
-171.37885411
  0
VERTEX
  8
0
 10
-34.52543271
 20
-171.72715540
  0
VERTEX
  8
0
 10
-34.22236713
 20
-172.06004706
  0
VERTEX
  8
0
 10
-33.89973207
 20
-172.37807785
  0
VERTEX
  8
0
 10
-33.55889368
 20
-172.68179656
  0
VERTEX
  8
0
 10
-33.20121807
 20
-172.97175196
  0
VERTEX
  8
0
 10
-32.82807139
 20
-173.24849281
  0
VERTEX
  8
0
 10
-32.44081975
 20
-173.51256791
  0
VERTEX
  8
0
 10
-32.04082929
 20
-173.76452602
  0
VERTEX
  8
0
 10
-31.20809645
 20
-174.23428636
  0
VERTEX
  8
0
 10
-30.34080189
 20
-174.66216403
  0
VERTEX
  8
0
 10
-29.44987465
 20
-175.05254924
  0
VERTEX
  8
0
 10
-28.54624380
 20
-175.40983217
  0
VERTEX
  8
0
 10
-27.64083835
 20
-175.73840301
  0
VERTEX
  8
0
 10
-26.74458737
 20
-176.04265196
  0
VERTEX
  8
0
 10
-25.02326495
 20
-176.59574498
  0
VERTEX
  8
0
 10
-24.46957479
 20
-176.72940453
  0
VERTEX
  8
0
 10
-23.93617024
 20
-176.88625458
  0
VERTEX
  8
0
 10
-23.42051346
 20
-177.06409949
  0
VERTEX
  8
0
 10
-22.92006664
 20
-177.26074357
  0
VERTEX
  8
0
 10
-22.43229194
 20
-177.47399117
  0
VERTEX
  8
0
 10
-21.95465155
 20
-177.70164662
  0
VERTEX
  8
0
 10
-21.01962238
 20
-178.19139840
  0
VERTEX
  8
0
 10
-20.09467652
 20
-178.71243360
  0
VERTEX
  8
0
 10
-19.15951137
 20
-179.24718689
  0
VERTEX
  8
0
 10
-18.19382432
 20
-179.77809296
  0
VERTEX
  8
0
 10
-17.17731279
 20
-180.28758648
  0
VERTEX
  8
0
 10
-16.59899675
 20
-180.77114272
  0
VERTEX
  8
0
 10
-16.00990939
 20
-181.21391535
  0
VERTEX
  8
0
 10
-15.41054773
 20
-181.61724007
  0
VERTEX
  8
0
 10
-14.80140881
 20
-181.98245260
  0
VERTEX
  8
0
 10
-14.18298965
 20
-182.31088865
  0
VERTEX
  8
0
 10
-13.55578728
 20
-182.60388394
  0
VERTEX
  8
0
 10
-12.92029872
 20
-182.86277417
  0
VERTEX
  8
0
 10
-12.27702101
 20
-183.08889506
  0
VERTEX
  8
0
 10
-11.62645116
 20
-183.28358232
  0
VERTEX
  8
0
 10
-10.96908621
 20
-183.44817166
  0
VERTEX
  8
0
 10
-10.30542318
 20
-183.58399879
  0
VERTEX
  8
0
 10
-9.63595910
 20
-183.69239944
  0
VERTEX
  8
0
 10
-8.96119099
 20
-183.77470930
  0
VERTEX
  8
0
 10
-8.28161589
 20
-183.83226409
  0
VERTEX
  8
0
 10
-7.59773082
 20
-183.86639952
  0
VERTEX
  8
0
 10
-6.91003280
 20
-183.87845131
  0
VERTEX
  8
0
 10
-6.21901887
 20
-183.86975516
  0
VERTEX
  8
0
 10
-5.52518604
 20
-183.84164680
  0
VERTEX
  8
0
 10
-4.82903136
 20
-183.79546192
  0
VERTEX
  8
0
 10
-4.13105184
 20
-183.73253625
  0
VERTEX
  8
0
 10
-2.73160639
 20
-183.56180537
  0
VERTEX
  8
0
 10
-1.33082593
 20
-183.34013984
  0
VERTEX
  8
0
 10
0.06731334
 20
-183.07822537
  0
VERTEX
  8
0
 10
1.45883520
 20
-182.78674765
  0
VERTEX
  8
0
 10
4.20612182
 20
-182.15784526
  0
VERTEX
  8
0
 10
4.87405425
 20
-182.28687227
  0
VERTEX
  8
0
 10
5.54713650
 20
-182.39836212
  0
VERTEX
  8
0
 10
6.90337839
 20
-182.58984506
  0
VERTEX
  8
0
 10
8.26410330
 20
-182.77452356
  0
VERTEX
  8
0
 10
8.94278933
 20
-182.87750785
  0
VERTEX
  8
0
 10
9.61856705
 20
-182.99462709
  0
VERTEX
  8
0
 10
10.29009345
 20
-183.13115995
  0
VERTEX
  8
0
 10
10.95602548
 20
-183.29238512
  0
VERTEX
  8
0
 10
11.61502015
 20
-183.48358129
  0
VERTEX
  8
0
 10
12.26573441
 20
-183.71002714
  0
VERTEX
  8
0
 10
12.90682526
 20
-183.97700135
  0
VERTEX
  8
0
 10
13.53694966
 20
-184.28978261
  0
VERTEX
  8
0
 10
14.15476460
 20
-184.65364960
  0
VERTEX
  8
0
 10
14.75892706
 20
-185.07388102
  0
VERTEX
  8
0
 10
15.02987621
 20
-185.66626649
  0
VERTEX
  8
0
 10
15.33869797
 20
-186.27494012
  0
VERTEX
  8
0
 10
15.68153519
 20
-186.89567145
  0
VERTEX
  8
0
 10
16.05453075
 20
-187.52422997
  0
VERTEX
  8
0
 10
16.45382751
 20
-188.15638522
  0
VERTEX
  8
0
 10
16.87556834
 20
-188.78790670
  0
VERTEX
  8
0
 10
17.31589611
 20
-189.41456394
  0
VERTEX
  8
0
 10
17.77095368
 20
-190.03212645
  0
VERTEX
  8
0
 10
18.23688392
 20
-190.63636375
  0
VERTEX
  8
0
 10
18.70982970
 20
-191.22304536
  0
VERTEX
  8
0
 10
19.18593389
 20
-191.78794079
  0
VERTEX
  8
0
 10
19.66133935
 20
-192.32681956
  0
VERTEX
  8
0
 10
20.13218894
 20
-192.83545119
  0
VERTEX
  8
0
 10
20.59462555
 20
-193.30960520
  0
VERTEX
  8
0
 10
21.04479203
 20
-193.74505110
  0
VERTEX
  8
0
 10
21.47883125
 20
-194.13755841
  0
VERTEX
  8
0
 10
22.10413338
 20
-194.65426198
  0
VERTEX
  8
0
 10
22.75557132
 20
-195.13888129
  0
VERTEX
  8
0
 10
23.43107875
 20
-195.59183842
  0
VERTEX
  8
0
 10
24.12858936
 20
-196.01355543
  0
VERTEX
  8
0
 10
24.84603680
 20
-196.40445437
  0
VERTEX
  8
0
 10
25.58135477
 20
-196.76495731
  0
VERTEX
  8
0
 10
26.33247694
 20
-197.09548631
  0
VERTEX
  8
0
 10
27.09733698
 20
-197.39646342
  0
VERTEX
  8
0
 10
27.87386858
 20
-197.66831070
  0
VERTEX
  8
0
 10
28.66000541
 20
-197.91145023
  0
VERTEX
  8
0
 10
29.45368114
 20
-198.12630404
  0
VERTEX
  8
0
 10
30.25282945
 20
-198.31329422
  0
VERTEX
  8
0
 10
31.05538403
 20
-198.47284281
  0
VERTEX
  8
0
 10
31.85927854
 20
-198.60537188
  0
VERTEX
  8
0
 10
32.66244667
 20
-198.71130349
  0
VERTEX
  8
0
 10
33.46282209
 20
-198.79105969
  0
VERTEX
  8
0
 10
34.03985420
 20
-199.50860617
  0
VERTEX
  8
0
 10
34.66089656
 20
-200.22008956
  0
VERTEX
  8
0
 10
35.32329398
 20
-200.91945010
  0
VERTEX
  8
0
 10
36.02439126
 20
-201.60062802
  0
VERTEX
  8
0
 10
36.76153320
 20
-202.25756356
  0
VERTEX
  8
0
 10
37.53206461
 20
-202.88419695
  0
VERTEX
  8
0
 10
38.33333029
 20
-203.47446842
  0
VERTEX
  8
0
 10
39.16267504
 20
-204.02231821
  0
VERTEX
  8
0
 10
40.01744366
 20
-204.52168654
  0
VERTEX
  8
0
 10
40.45353217
 20
-204.75129649
  0
VERTEX
  8
0
 10
40.89498096
 20
-204.96651366
  0
VERTEX
  8
0
 10
41.34145811
 20
-205.16658059
  0
VERTEX
  8
0
 10
41.79263174
 20
-205.35073980
  0
VERTEX
  8
0
 10
42.24816994
 20
-205.51823382
  0
VERTEX
  8
0
 10
42.70774080
 20
-205.66830518
  0
VERTEX
  8
0
 10
43.17101244
 20
-205.80019642
  0
VERTEX
  8
0
 10
43.63765295
 20
-205.91315005
  0
VERTEX
  8
0
 10
44.10733044
 20
-206.00640862
  0
VERTEX
  8
0
 10
44.57971300
 20
-206.07921464
  0
VERTEX
  8
0
 10
45.05446873
 20
-206.13081064
  0
VERTEX
  8
0
 10
45.53126573
 20
-206.16043917
  0
VERTEX
  8
0
 10
46.00977211
 20
-206.16734274
  0
VERTEX
  8
0
 10
46.48965596
 20
-206.15076388
  0
VERTEX
  8
0
 10
46.89191251
 20
-206.30070763
  0
VERTEX
  8
0
 10
47.27976783
 20
-206.47203667
  0
VERTEX
  8
0
 10
47.65539524
 20
-206.66191943
  0
VERTEX
  8
0
 10
48.02096806
 20
-206.86752434
  0
VERTEX
  8
0
 10
48.73064331
 20
-207.31457435
  0
VERTEX
  8
0
 10
49.42618020
 20
-207.79053413
  0
VERTEX
  8
0
 10
50.12496540
 20
-208.27275115
  0
VERTEX
  8
0
 10
50.84438555
 20
-208.73857285
  0
VERTEX
  8
0
 10
51.21726705
 20
-208.95825653
  0
VERTEX
  8
0
 10
51.60182729
 20
-209.16534668
  0
VERTEX
  8
0
 10
52.00023958
 20
-209.35701172
  0
VERTEX
  8
0
 10
52.41467727
 20
-209.53042009
  0
VERTEX
  8
0
 10
53.88475517
 20
-209.64874468
  0
VERTEX
  8
0
 10
55.38053822
 20
-209.72245609
  0
VERTEX
  8
0
 10
56.89521298
 20
-209.76734464
  0
VERTEX
  8
0
 10
58.42196602
 20
-209.79920065
  0
VERTEX
  8
0
 10
59.95398388
 20
-209.83381442
  0
VERTEX
  8
0
 10
61.48445312
 20
-209.88697628
  0
VERTEX
  8
0
 10
63.00656031
 20
-209.97447654
  0
VERTEX
  8
0
 10
63.76234893
 20
-210.03603805
  0
VERTEX
  8
0
 10
64.51349200
 20
-210.11210552
  0
VERTEX
  8
0
 10
64.70394491
 20
-210.12269000
  0
VERTEX
  8
0
 10
64.89387962
 20
-210.14922928
  0
VERTEX
  8
0
 10
65.27228645
 20
-210.24437235
  0
VERTEX
  8
0
 10
65.64889667
 20
-210.38593505
  0
VERTEX
  8
0
 10
66.02389441
 20
-210.56231771
  0
VERTEX
  8
0
 10
66.76978909
 20
-210.97314414
  0
VERTEX
  8
0
 10
67.51144373
 20
-211.38405417
  0
VERTEX
  8
0
 10
67.88114141
 20
-211.56054132
  0
VERTEX
  8
0
 10
68.25033155
 20
-211.70225032
  0
VERTEX
  8
0
 10
68.61919830
 20
-211.79758149
  0
VERTEX
  8
0
 10
68.80356794
 20
-211.82423048
  0
VERTEX
  8
0
 10
68.98792580
 20
-211.83493513
  0
VERTEX
  8
0
 10
69.17229488
 20
-211.82824549
  0
VERTEX
  8
0
 10
69.35669822
 20
-211.80271158
  0
VERTEX
  8
0
 10
69.54115881
 20
-211.75688344
  0
VERTEX
  8
0
 10
69.72569970
 20
-211.68931113
  0
VERTEX
  8
0
 10
69.91034389
 20
-211.59854467
  0
VERTEX
  8
0
 10
70.09511440
 20
-211.48313411
  0
VERTEX
  8
0
 10
70.28003426
 20
-211.34162949
  0
VERTEX
  8
0
 10
70.46512648
 20
-211.17258084
  0
VERTEX
  8
0
 10
70.76574610
 20
-210.54229038
  0
VERTEX
  8
0
 10
71.05602927
 20
-209.86185057
  0
VERTEX
  8
0
 10
71.33831578
 20
-209.14277355
  0
VERTEX
  8
0
 10
71.61494541
 20
-208.39657143
  0
VERTEX
  8
0
 10
72.16059316
 20
-206.86884044
  0
VERTEX
  8
0
 10
72.71169081
 20
-205.37075461
  0
SEQEND
  0
POLYLINE
  8
Векторный_слой_3
 66
   1
 39
0.000000
 70
    1
  0
VERTEX
  8
0
 10
89.78846590
 20
-142.02806130
  0
VERTEX
  8
0
 10
90.26412433
 20
-142.43161138
  0
VERTEX
  8
0
 10
90.75598445
 20
-142.83050631
  0
VERTEX
  8
0
 10
91.76392954
 20
-143.62574758
  0
VERTEX
  8
0
 10
92.76354073
 20
-144.43661888
  0
VERTEX
  8
0
 10
93.24498348
 20
-144.85505133
  0
VERTEX
  8
0
 10
93.70605759
 20
-145.28595395
  0
VERTEX
  8
0
 10
94.14066800
 20
-145.73218095
  0
VERTEX
  8
0
 10
94.54271967
 20
-146.19658656
  0
VERTEX
  8
0
 10
94.90611754
 20
-146.68202499
  0
VERTEX
  8
0
 10
95.22476655
 20
-147.19135046
  0
VERTEX
  8
0
 10
95.36540553
 20
-147.45586279
  0
VERTEX
  8
0
 10
95.49257166
 20
-147.72741720
  0
VERTEX
  8
0
 10
95.60550304
 20
-148.00637049
  0
VERTEX
  8
0
 10
95.70343779
 20
-148.29307943
  0
VERTEX
  8
0
 10
95.78561404
 20
-148.58790079
  0
VERTEX
  8
0
 10
95.85126991
 20
-148.89119135
  0
VERTEX
  8
0
 10
95.89964350
 20
-149.20330790
  0
VERTEX
  8
0
 10
95.92997295
 20
-149.52460721
  0
VERTEX
  8
0
 10
95.79218047
 20
-149.88527962
  0
VERTEX
  8
0
 10
95.62324658
 20
-150.23103824
  0
VERTEX
  8
0
 10
95.42612656
 20
-150.56306409
  0
VERTEX
  8
0
 10
95.20377565
 20
-150.88253816
  0
VERTEX
  8
0
 10
94.95914911
 20
-151.19064146
  0
VERTEX
  8
0
 10
94.69520219
 20
-151.48855500
  0
VERTEX
  8
0
 10
94.41489015
 20
-151.77745976
  0
VERTEX
  8
0
 10
94.12116826
 20
-152.05853677
  0
VERTEX
  8
0
 10
93.50531590
 20
-152.60193151
  0
VERTEX
  8
0
 10
92.87128717
 20
-153.12818725
  0
VERTEX
  8
0
 10
92.24272412
 20
-153.64675201
  0
VERTEX
  8
0
 10
91.64326879
 20
-154.16707383
  0
VERTEX
  8
0
 10
91.36184467
 20
-154.43084615
  0
VERTEX
  8
0
 10
91.09656324
 20
-154.69860074
  0
VERTEX
  8
0
 10
90.85037977
 20
-154.97151860
  0
VERTEX
  8
0
 10
90.62624952
 20
-155.25078076
  0
VERTEX
  8
0
 10
90.42712773
 20
-155.53756819
  0
VERTEX
  8
0
 10
90.25596967
 20
-155.83306192
  0
VERTEX
  8
0
 10
90.11573059
 20
-156.13844293
  0
VERTEX
  8
0
 10
90.00936574
 20
-156.45489225
  0
VERTEX
  8
0
 10
89.93983039
 20
-156.78359086
  0
VERTEX
  8
0
 10
89.91007980
 20
-157.12571978
  0
VERTEX
  8
0
 10
89.92306920
 20
-157.48246001
  0
VERTEX
  8
0
 10
89.98175387
 20
-157.85499254
  0
VERTEX
  8
0
 10
90.08908906
 20
-158.24449839
  0
VERTEX
  8
0
 10
90.24803002
 20
-158.65215856
  0
VERTEX
  8
0
 10
90.46153202
 20
-159.07915405
  0
VERTEX
  8
0
 10
90.73255030
 20
-159.52666587
  0
VERTEX
  8
0
 10
91.05718545
 20
-160.26512711
  0
VERTEX
  8
0
 10
91.38127025
 20
-161.06161819
  0
VERTEX
  8
0
 10
91.67971287
 20
-161.89295145
  0
VERTEX
  8
0
 10
91.81147716
 20
-162.31443776
  0
VERTEX
  8
0
 10
91.92742146
 20
-162.73593923
  0
VERTEX
  8
0
 10
92.02440929
 20
-163.15455743
  0
VERTEX
  8
0
 10
92.09930417
 20
-163.56739388
  0
VERTEX
  8
0
 10
92.14896963
 20
-163.97155013
  0
VERTEX
  8
0
 10
92.17026917
 20
-164.36412772
  0
VERTEX
  8
0
 10
92.16006632
 20
-164.74222819
  0
VERTEX
  8
0
 10
92.11522460
 20
-165.10295310
  0
VERTEX
  8
0
 10
92.03260753
 20
-165.44340397
  0
VERTEX
  8
0
 10
91.90907863
 20
-165.76068235
  0
VERTEX
  8
0
 10
91.60541632
 20
-166.05873594
  0
VERTEX
  8
0
 10
91.29380707
 20
-166.31817584
  0
VERTEX
  8
0
 10
90.97469509
 20
-166.54143522
  0
VERTEX
  8
0
 10
90.64852461
 20
-166.73094724
  0
VERTEX
  8
0
 10
90.31573984
 20
-166.88914506
  0
VERTEX
  8
0
 10
89.97678500
 20
-167.01846186
  0
VERTEX
  8
0
 10
89.63210432
 20
-167.12133079
  0
VERTEX
  8
0
 10
89.28214201
 20
-167.20018502
  0
VERTEX
  8
0
 10
88.92734229
 20
-167.25745772
  0
VERTEX
  8
0
 10
88.56814938
 20
-167.29558204
  0
VERTEX
  8
0
 10
88.20500751
 20
-167.31699117
  0
VERTEX
  8
0
 10
87.83836089
 20
-167.32411824
  0
VERTEX
  8
0
 10
87.09633028
 20
-167.30525894
  0
VERTEX
  8
0
 10
86.34561131
 20
-167.25846945
  0
VERTEX
  8
0
 10
85.58975775
 20
-167.20321510
  0
VERTEX
  8
0
 10
84.83232334
 20
-167.15896119
  0
VERTEX
  8
0
 10
84.07686184
 20
-167.14517305
  0
VERTEX
  8
0
 10
83.70098149
 20
-167.15578656
  0
VERTEX
  8
0
 10
83.32692702
 20
-167.18131600
  0
VERTEX
  8
0
 10
82.95514267
 20
-167.22419455
  0
VERTEX
  8
0
 10
82.58607263
 20
-167.28685536
  0
VERTEX
  8
0
 10
82.22016115
 20
-167.37173160
  0
VERTEX
  8
0
 10
81.85785243
 20
-167.48125644
  0
VERTEX
  8
0
 10
81.49959070
 20
-167.61786303
  0
VERTEX
  8
0
 10
81.14582017
 20
-167.78398456
  0
VERTEX
  8
0
 10
80.79698507
 20
-167.98205417
  0
VERTEX
  8
0
 10
80.45352962
 20
-168.21450504
  0
VERTEX
  8
0
 10
80.26414258
 20
-168.44168634
  0
VERTEX
  8
0
 10
80.09200723
 20
-168.71253966
  0
VERTEX
  8
0
 10
79.93270946
 20
-169.01791631
  0
VERTEX
  8
0
 10
79.78183513
 20
-169.34866760
  0
VERTEX
  8
0
 10
79.48770026
 20
-170.04969933
  0
VERTEX
  8
0
 10
79.33561145
 20
-170.40168239
  0
VERTEX
  8
0
 10
79.17428956
 20
-170.74244533
  0
VERTEX
  8
0
 10
78.99932045
 20
-171.06283946
  0
VERTEX
  8
0
 10
78.80629000
 20
-171.35371608
  0
VERTEX
  8
0
 10
78.59078406
 20
-171.60592651
  0
VERTEX
  8
0
 10
78.47322337
 20
-171.71467294
  0
VERTEX
  8
0
 10
78.34838851
 20
-171.81032205
  0
VERTEX
  8
0
 10
78.21572771
 20
-171.89173028
  0
VERTEX
  8
0
 10
78.07468922
 20
-171.95775402
  0
VERTEX
  8
0
 10
77.92472125
 20
-172.00724970
  0
VERTEX
  8
0
 10
77.76527205
 20
-172.03907372
  0
VERTEX
  8
0
 10
77.59578985
 20
-172.05208250
  0
VERTEX
  8
0
 10
77.41572288
 20
-172.04513246
  0
VERTEX
  8
0
 10
77.22451937
 20
-172.01708001
  0
VERTEX
  8
0
 10
77.02162757
 20
-171.96678156
  0
VERTEX
  8
0
 10
76.13015606
 20
-171.80794838
  0
VERTEX
  8
0
 10
75.26142525
 20
-171.69208287
  0
VERTEX
  8
0
 10
74.40569684
 20
-171.62134421
  0
VERTEX
  8
0
 10
73.55323254
 20
-171.59789159
  0
VERTEX
  8
0
 10
72.69429408
 20
-171.62388422
  0
VERTEX
  8
0
 10
71.81914314
 20
-171.70148129
  0
VERTEX
  8
0
 10
70.91804146
 20
-171.83284197
  0
VERTEX
  8
0
 10
69.98125074
 20
-172.02012548
  0
VERTEX
  8
0
 10
67.74011018
 20
-175.19133680
  0
VERTEX
  8
0
 10
66.87425435
 20
-175.04495475
  0
VERTEX
  8
0
 10
66.00908649
 20
-174.85005040
  0
VERTEX
  8
0
 10
65.14501013
 20
-174.61383329
  0
VERTEX
  8
0
 10
64.28242881
 20
-174.34351294
  0
VERTEX
  8
0
 10
63.42174607
 20
-174.04629888
  0
VERTEX
  8
0
 10
62.56336544
 20
-173.72940066
  0
VERTEX
  8
0
 10
60.85512467
 20
-173.06538980
  0
VERTEX
  8
0
 10
59.16093483
 20
-172.40915663
  0
VERTEX
  8
0
 10
58.32011785
 20
-172.10198050
  0
VERTEX
  8
0
 10
57.48402422
 20
-171.81837739
  0
VERTEX
  8
0
 10
56.65305747
 20
-171.56555682
  0
VERTEX
  8
0
 10
55.82762114
 20
-171.35072832
  0
VERTEX
  8
0
 10
55.00811877
 20
-171.18110144
  0
VERTEX
  8
0
 10
54.19495390
 20
-171.06388569
  0
VERTEX
  8
0
 10
54.66408579
 20
-170.68815838
  0
VERTEX
  8
0
 10
55.14696807
 20
-170.32326717
  0
VERTEX
  8
0
 10
56.13874544
 20
-169.61292318
  0
VERTEX
  8
0
 10
57.13980933
 20
-168.90671388
  0
VERTEX
  8
0
 10
58.11968307
 20
-168.17849948
  0
VERTEX
  8
0
 10
58.59214966
 20
-167.79797167
  0
VERTEX
  8
0
 10
59.04788995
 20
-167.40214016
  0
VERTEX
  8
0
 10
59.48309436
 20
-166.98773746
  0
VERTEX
  8
0
 10
59.89395331
 20
-166.55149611
  0
VERTEX
  8
0
 10
60.27665719
 20
-166.09014862
  0
VERTEX
  8
0
 10
60.62739644
 20
-165.60042752
  0
VERTEX
  8
0
 10
60.94236147
 20
-165.07906533
  0
VERTEX
  8
0
 10
61.21774268
 20
-164.52279458
  0
VERTEX
  8
0
 10
61.54867995
 20
-164.21584305
  0
VERTEX
  8
0
 10
61.88649977
 20
-163.92970990
  0
VERTEX
  8
0
 10
62.23092915
 20
-163.66365970
  0
VERTEX
  8
0
 10
62.58169506
 20
-163.41695704
  0
VERTEX
  8
0
 10
62.93852452
 20
-163.18886649
  0
VERTEX
  8
0
 10
63.30114450
 20
-162.97865264
  0
VERTEX
  8
0
 10
63.66928201
 20
-162.78558006
  0
VERTEX
  8
0
 10
64.04266404
 20
-162.60891333
  0
VERTEX
  8
0
 10
64.42101758
 20
-162.44791703
  0
VERTEX
  8
0
 10
64.80406962
 20
-162.30185574
  0
VERTEX
  8
0
 10
65.58317720
 20
-162.05159652
  0
VERTEX
  8
0
 10
66.37780272
 20
-161.85225230
  0
VERTEX
  8
0
 10
67.18576213
 20
-161.69793971
  0
VERTEX
  8
0
 10
68.00487138
 20
-161.58277538
  0
VERTEX
  8
0
 10
68.83294642
 20
-161.50087596
  0
VERTEX
  8
0
 10
69.66780320
 20
-161.44635808
  0
VERTEX
  8
0
 10
70.50725767
 20
-161.41333837
  0
VERTEX
  8
0
 10
72.19122347
 20
-161.38826001
  0
VERTEX
  8
0
 10
73.86737140
 20
-161.37857397
  0
VERTEX
  8
0
 10
74.59390259
 20
-161.33796593
  0
VERTEX
  8
0
 10
75.82219978
 20
-161.23165928
  0
VERTEX
  8
0
 10
77.41318031
 20
-161.07233023
  0
VERTEX
  8
0
 10
79.22776147
 20
-160.87265499
  0
VERTEX
  8
0
 10
81.12686060
 20
-160.64530977
  0
VERTEX
  8
0
 10
82.97139499
 20
-160.40297077
  0
VERTEX
  8
0
 10
84.62228197
 20
-160.15831421
  0
VERTEX
  8
0
 10
85.94043884
 20
-159.92401630
  0
VERTEX
  8
0
 10
85.73107791
 20
-159.32234442
  0
VERTEX
  8
0
 10
83.11590005
 20
-159.01829515
  0
VERTEX
  8
0
 10
80.48800209
 20
-158.73658702
  0
VERTEX
  8
0
 10
77.85118447
 20
-158.49462949
  0
VERTEX
  8
0
 10
76.53061843
 20
-158.39399764
  0
VERTEX
  8
0
 10
75.20924763
 20
-158.30983199
  0
VERTEX
  8
0
 10
73.88754714
 20
-158.24430872
  0
VERTEX
  8
0
 10
72.56599200
 20
-158.19960400
  0
VERTEX
  8
0
 10
71.24505727
 20
-158.17789401
  0
VERTEX
  8
0
 10
69.92521801
 20
-158.18135494
  0
VERTEX
  8
0
 10
68.60694928
 20
-158.21216298
  0
VERTEX
  8
0
 10
67.29072611
 20
-158.27249429
  0
VERTEX
  8
0
 10
65.97702358
 20
-158.36452507
  0
VERTEX
  8
0
 10
64.66631673
 20
-158.49043149
  0
VERTEX
  8
0
 10
65.66776027
 20
-157.80781664
  0
VERTEX
  8
0
 10
66.64256981
 20
-157.07762605
  0
VERTEX
  8
0
 10
67.11676354
 20
-156.69403612
  0
VERTEX
  8
0
 10
67.58043080
 20
-156.29776779
  0
VERTEX
  8
0
 10
68.03228229
 20
-155.88855955
  0
VERTEX
  8
0
 10
68.47102868
 20
-155.46614991
  0
VERTEX
  8
0
 10
68.89538065
 20
-155.03027739
  0
VERTEX
  8
0
 10
69.30404889
 20
-154.58068049
  0
VERTEX
  8
0
 10
69.69574406
 20
-154.11709771
  0
VERTEX
  8
0
 10
70.06917686
 20
-153.63926757
  0
VERTEX
  8
0
 10
70.42305796
 20
-153.14692857
  0
VERTEX
  8
0
 10
70.75609804
 20
-152.63981922
  0
VERTEX
  8
0
 10
71.06700779
 20
-152.11767802
  0
VERTEX
  8
0
 10
71.35449788
 20
-151.58024350
  0
VERTEX
  8
0
 10
72.21580402
 20
-151.26447609
  0
VERTEX
  8
0
 10
73.06808631
 20
-150.98915918
  0
VERTEX
  8
0
 10
73.91220010
 20
-150.75096790
  0
VERTEX
  8
0
 10
74.74900072
 20
-150.54657738
  0
VERTEX
  8
0
 10
75.57934351
 20
-150.37266277
  0
VERTEX
  8
0
 10
76.40408381
 20
-150.22589918
  0
VERTEX
  8
0
 10
77.22407696
 20
-150.10296176
  0
VERTEX
  8
0
 10
78.04017830
 20
-150.00052564
  0
VERTEX
  8
0
 10
79.66412688
 20
-149.84385783
  0
VERTEX
  8
0
 10
81.28277227
 20
-149.72929682
  0
VERTEX
  8
0
 10
82.90295717
 20
-149.63024369
  0
VERTEX
  8
0
 10
84.53152429
 20
-149.52009949
  0
VERTEX
  8
0
 10
84.46602565
 20
-149.41776380
  0
VERTEX
  8
0
 10
84.36084256
 20
-149.30310959
  0
VERTEX
  8
0
 10
84.18665048
 20
-149.15792262
  0
VERTEX
  8
0
 10
83.92790955
 20
-148.99104650
  0
VERTEX
  8
0
 10
83.56907991
 20
-148.81132484
  0
VERTEX
  8
0
 10
83.09462170
 20
-148.62760124
  0
VERTEX
  8
0
 10
82.48899505
 20
-148.44871932
  0
VERTEX
  8
0
 10
81.73666012
 20
-148.28352267
  0
VERTEX
  8
0
 10
80.82207703
 20
-148.14085492
  0
VERTEX
  8
0
 10
79.72970594
 20
-148.02955967
  0
VERTEX
  8
0
 10
78.44400697
 20
-147.95848052
  0
VERTEX
  8
0
 10
76.94944028
 20
-147.93646109
  0
VERTEX
  8
0
 10
75.23046600
 20
-147.97234499
  0
VERTEX
  8
0
 10
73.27154426
 20
-148.07497582
  0
VERTEX
  8
0
 10
71.05713522
 20
-148.25319719
  0
VERTEX
  8
0
 10
71.40131052
 20
-147.92274637
  0
VERTEX
  8
0
 10
71.71773768
 20
-147.58596631
  0
VERTEX
  8
0
 10
72.00732398
 20
-147.24312356
  0
VERTEX
  8
0
 10
72.27097668
 20
-146.89448466
  0
VERTEX
  8
0
 10
72.50960304
 20
-146.54031619
  0
VERTEX
  8
0
 10
72.72411032
 20
-146.18088467
  0
VERTEX
  8
0
 10
72.91540579
 20
-145.81645666
  0
VERTEX
  8
0
 10
73.08439672
 20
-145.44729872
  0
VERTEX
  8
0
 10
73.23199037
 20
-145.07367739
  0
VERTEX
  8
0
 10
73.35909400
 20
-144.69585922
  0
VERTEX
  8
0
 10
73.46661487
 20
-144.31411077
  0
VERTEX
  8
0
 10
73.55546026
 20
-143.92869858
  0
VERTEX
  8
0
 10
73.62653742
 20
-143.53988920
  0
VERTEX
  8
0
 10
73.68075363
 20
-143.14794919
  0
VERTEX
  8
0
 10
73.71901613
 20
-142.75314509
  0
VERTEX
  8
0
 10
73.74223220
 20
-142.35574345
  0
VERTEX
  8
0
 10
73.74715411
 20
-141.55421377
  0
VERTEX
  8
0
 10
73.70277745
 20
-140.74549256
  0
VERTEX
  8
0
 10
73.61636035
 20
-139.93171220
  0
VERTEX
  8
0
 10
73.49516092
 20
-139.11500511
  0
VERTEX
  8
0
 10
73.34643726
 20
-138.29750369
  0
VERTEX
  8
0
 10
73.17744750
 20
-137.48134034
  0
VERTEX
  8
0
 10
72.80770212
 20
-135.86155744
  0
VERTEX
  8
0
 10
73.11356151
 20
-135.62515029
  0
VERTEX
  8
0
 10
73.42940948
 20
-135.40467618
  0
VERTEX
  8
0
 10
73.75473753
 20
-135.19955666
  0
VERTEX
  8
0
 10
74.08903711
 20
-135.00921330
  0
VERTEX
  8
0
 10
74.43179971
 20
-134.83306765
  0
VERTEX
  8
0
 10
74.78251679
 20
-134.67054127
  0
VERTEX
  8
0
 10
75.50578034
 20
-134.38403256
  0
VERTEX
  8
0
 10
76.25475954
 20
-134.14505962
  0
VERTEX
  8
0
 10
77.02538621
 20
-133.94899493
  0
VERTEX
  8
0
 10
77.81359214
 20
-133.79121094
  0
VERTEX
  8
0
 10
78.61530914
 20
-133.66708012
  0
VERTEX
  8
0
 10
79.42646901
 20
-133.57197494
  0
VERTEX
  8
0
 10
80.24300354
 20
-133.50126786
  0
VERTEX
  8
0
 10
81.06084454
 20
-133.45033134
  0
VERTEX
  8
0
 10
81.87592381
 20
-133.41453786
  0
VERTEX
  8
0
 10
83.48152436
 20
-133.36986982
  0
VERTEX
  8
0
 10
85.02725960
 20
-133.33024347
  0
VERTEX
  8
0
 10
85.73300230
 20
-133.48366982
  0
VERTEX
  8
0
 10
86.49455054
 20
-133.70270536
  0
VERTEX
  8
0
 10
86.88388685
 20
-133.83857410
  0
VERTEX
  8
0
 10
87.27233669
 20
-133.99294218
  0
VERTEX
  8
0
 10
87.65495411
 20
-134.16650859
  0
VERTEX
  8
0
 10
88.02679315
 20
-134.35997236
  0
VERTEX
  8
0
 10
88.38290786
 20
-134.57403248
  0
VERTEX
  8
0
 10
88.71835230
 20
-134.80938798
  0
VERTEX
  8
0
 10
89.02818051
 20
-135.06673785
  0
VERTEX
  8
0
 10
89.30744653
 20
-135.34678112
  0
VERTEX
  8
0
 10
89.55120443
 20
-135.65021679
  0
VERTEX
  8
0
 10
89.75450823
 20
-135.97774386
  0
VERTEX
  8
0
 10
89.91241201
 20
-136.33006136
  0
VERTEX
  8
0
 10
90.01996979
 20
-136.70786829
  0
VERTEX
  8
0
 10
90.01307740
 20
-137.03826964
  0
VERTEX
  8
0
 10
89.98484755
 20
-137.36770824
  0
VERTEX
  8
0
 10
89.88179883
 20
-138.02476362
  0
VERTEX
  8
0
 10
89.61130878
 20
-139.33905221
  0
VERTEX
  8
0
 10
89.51356085
 20
-140.00055117
  0
VERTEX
  8
0
 10
89.48930660
 20
-140.33332246
  0
VERTEX
  8
0
 10
89.48727326
 20
-140.66779709
  0
VERTEX
  8
0
 10
89.51181669
 20
-141.00424168
  0
VERTEX
  8
0
 10
89.56729271
 20
-141.34292284
  0
VERTEX
  8
0
 10
89.65805717
 20
-141.68410718
  0
VERTEX
  8
0
 10
89.78846590
 20
-142.02806130
  0
SEQEND
  0
POLYLINE
  8
Векторный_слой_3
 66
   1
 39
0.000000
 70
    1
  0
VERTEX
  8
0
 10
54.15337355
 20
-167.53011280
  0
VERTEX
  8
0
 10
54.15264995
 20
-167.35959435
  0
VERTEX
  8
0
 10
54.17636439
 20
-167.17343836
  0
VERTEX
  8
0
 10
54.22134935
 20
-166.97315280
  0
VERTEX
  8
0
 10
54.28443731
 20
-166.76024565
  0
VERTEX
  8
0
 10
54.45225215
 20
-166.30259847
  0
VERTEX
  8
0
 10
54.65446878
 20
-165.81256061
  0
VERTEX
  8
0
 10
54.86574706
 20
-165.30219586
  0
VERTEX
  8
0
 10
55.06074682
 20
-164.78356801
  0
VERTEX
  8
0
 10
55.21412794
 20
-164.26874085
  0
VERTEX
  8
0
 10
55.26729271
 20
-164.01652246
  0
VERTEX
  8
0
 10
55.30055026
 20
-163.76977817
  0
VERTEX
  8
0
 10
47.79275612
 20
-169.56075687
  0
VERTEX
  8
0
 10
46.48737973
 20
-169.73562855
  0
VERTEX
  8
0
 10
46.76209602
 20
-168.26049229
  0
VERTEX
  8
0
 10
47.06517058
 20
-166.78334624
  0
VERTEX
  8
0
 10
47.35308243
 20
-165.29907149
  0
VERTEX
  8
0
 10
47.47775203
 20
-164.55266119
  0
VERTEX
  8
0
 10
47.58231060
 20
-163.80254913
  0
VERTEX
  8
0
 10
47.07730274
 20
-164.14809570
  0
VERTEX
  8
0
 10
46.59204194
 20
-164.51582086
  0
VERTEX
  8
0
 10
46.12293178
 20
-164.90156928
  0
VERTEX
  8
0
 10
45.66637584
 20
-165.30118563
  0
VERTEX
  8
0
 10
44.77654089
 20
-166.12540087
  0
VERTEX
  8
0
 10
43.89376573
 20
-166.95522399
  0
VERTEX
  8
0
 10
43.44603451
 20
-167.36185019
  0
VERTEX
  8
0
 10
42.98927896
 20
-167.75741240
  0
VERTEX
  8
0
 10
42.51990267
 20
-168.13775530
  0
VERTEX
  8
0
 10
42.03430921
 20
-168.49872355
  0
VERTEX
  8
0
 10
41.52890215
 20
-168.83616183
  0
VERTEX
  8
0
 10
41.00008508
 20
-169.14591483
  0
VERTEX
  8
0
 10
40.44426158
 20
-169.42382722
  0
VERTEX
  8
0
 10
39.85783521
 20
-169.66574368
  0
VERTEX
  8
0
 10
39.81400641
 20
-169.04694764
  0
VERTEX
  8
0
 10
39.75118072
 20
-168.42908592
  0
VERTEX
  8
0
 10
39.58473693
 20
-167.19566066
  0
VERTEX
  8
0
 10
39.39090052
 20
-165.96445829
  0
VERTEX
  8
0
 10
39.20206812
 20
-164.73446923
  0
VERTEX
  8
0
 10
39.11297542
 20
-164.70298878
  0
VERTEX
  8
0
 10
39.01937371
 20
-164.69501111
  0
VERTEX
  8
0
 10
38.82418850
 20
-164.73015287
  0
VERTEX
  8
0
 10
38.44070748
 20
-164.86894626
  0
VERTEX
  8
0
 10
38.22991792
 20
-165.22760518
  0
VERTEX
  8
0
 10
38.03660358
 20
-165.60108176
  0
VERTEX
  8
0
 10
37.68846502
 20
-166.38012043
  0
VERTEX
  8
0
 10
37.04859950
 20
-167.97996741
  0
VERTEX
  8
0
 10
36.88006285
 20
-168.37059526
  0
VERTEX
  8
0
 10
36.70113032
 20
-168.75130581
  0
VERTEX
  8
0
 10
36.50831802
 20
-169.11900719
  0
VERTEX
  8
0
 10
36.29814206
 20
-169.47060754
  0
VERTEX
  8
0
 10
36.06711854
 20
-169.80301498
  0
VERTEX
  8
0
 10
35.81176359
 20
-170.11313765
  0
VERTEX
  8
0
 10
35.52859332
 20
-170.39788366
  0
VERTEX
  8
0
 10
35.21412382
 20
-170.65416117
  0
VERTEX
  8
0
 10
34.80231413
 20
-170.95007150
  0
VERTEX
  8
0
 10
34.58745368
 20
-171.07862157
  0
VERTEX
  8
0
 10
34.36492549
 20
-171.17800369
  0
VERTEX
  8
0
 10
34.13345655
 20
-171.23604447
  0
VERTEX
  8
0
 10
34.01397148
 20
-171.24575766
  0
VERTEX
  8
0
 10
33.89177386
 20
-171.24057050
  0
VERTEX
  8
0
 10
33.76670454
 20
-171.21896130
  0
VERTEX
  8
0
 10
33.63860440
 20
-171.17940838
  0
VERTEX
  8
0
 10
33.50731433
 20
-171.12039007
  0
VERTEX
  8
0
 10
33.37267518
 20
-171.04038471
  0
VERTEX
  8
0
 10
33.47755151
 20
-170.49012730
  0
VERTEX
  8
0
 10
33.55232791
 20
-169.93286009
  0
VERTEX
  8
0
 10
33.59756320
 20
-169.37017941
  0
VERTEX
  8
0
 10
33.61381621
 20
-168.80368162
  0
VERTEX
  8
0
 10
33.60164576
 20
-168.23496304
  0
VERTEX
  8
0
 10
33.56161065
 20
-167.66562003
  0
VERTEX
  8
0
 10
33.49426972
 20
-167.09724892
  0
VERTEX
  8
0
 10
33.40018177
 20
-166.53144606
  0
VERTEX
  8
0
 10
33.27990563
 20
-165.96980778
  0
VERTEX
  8
0
 10
33.13400012
 20
-165.41393043
  0
VERTEX
  8
0
 10
32.96302404
 20
-164.86541035
  0
VERTEX
  8
0
 10
32.76753624
 20
-164.32584388
  0
VERTEX
  8
0
 10
32.54809551
 20
-163.79682736
  0
VERTEX
  8
0
 10
32.30526068
 20
-163.27995713
  0
VERTEX
  8
0
 10
32.03959057
 20
-162.77682954
  0
VERTEX
  8
0
 10
31.75164399
 20
-162.28904093
  0
VERTEX
  8
0
 10
32.39337351
 20
-161.65578491
  0
VERTEX
  8
0
 10
33.04799693
 20
-161.05326511
  0
VERTEX
  8
0
 10
33.38384760
 20
-160.76854932
  0
VERTEX
  8
0
 10
33.72736624
 20
-160.49753921
  0
VERTEX
  8
0
 10
34.08003436
 20
-160.24224200
  0
VERTEX
  8
0
 10
34.44333344
 20
-160.00466490
  0
VERTEX
  8
0
 10
34.81874499
 20
-159.78681512
  0
VERTEX
  8
0
 10
35.20775050
 20
-159.59069987
  0
VERTEX
  8
0
 10
35.61183148
 20
-159.41832635
  0
VERTEX
  8
0
 10
36.03246942
 20
-159.27170179
  0
VERTEX
  8
0
 10
36.47114583
 20
-159.15283339
  0
VERTEX
  8
0
 10
36.92934219
 20
-159.06372836
  0
VERTEX
  8
0
 10
37.40854001
 20
-159.00639391
  0
VERTEX
  8
0
 10
37.91022079
 20
-158.98283725
  0
VERTEX
  8
0
 10
38.34150891
 20
-158.99005701
  0
VERTEX
  8
0
 10
38.78850229
 20
-159.04337677
  0
VERTEX
  8
0
 10
39.24763669
 20
-159.13168044
  0
VERTEX
  8
0
 10
39.71534788
 20
-159.24385196
  0
VERTEX
  8
0
 10
40.66224364
 20
-159.49533415
  0
VERTEX
  8
0
 10
41.13429973
 20
-159.61241265
  0
VERTEX
  8
0
 10
41.60067564
 20
-159.70889466
  0
VERTEX
  8
0
 10
42.05780714
 20
-159.77366408
  0
VERTEX
  8
0
 10
42.50212998
 20
-159.79560482
  0
VERTEX
  8
0
 10
42.71837433
 20
-159.78704067
  0
VERTEX
  8
0
 10
42.93007992
 20
-159.76360081
  0
VERTEX
  8
0
 10
43.13680123
 20
-159.72389575
  0
VERTEX
  8
0
 10
43.33809273
 20
-159.66653596
  0
VERTEX
  8
0
 10
43.53350888
 20
-159.59013194
  0
VERTEX
  8
0
 10
43.72260416
 20
-159.49329418
  0
VERTEX
  8
0
 10
43.90493303
 20
-159.37463317
  0
VERTEX
  8
0
 10
44.08004997
 20
-159.23275939
  0
VERTEX
  8
0
 10
44.24750944
 20
-159.06628334
  0
VERTEX
  8
0
 10
44.40686592
 20
-158.87381551
  0
VERTEX
  8
0
 10
44.55767388
 20
-158.65396638
  0
VERTEX
  8
0
 10
44.69948778
 20
-158.40534645
  0
VERTEX
  8
0
 10
44.87536642
 20
-158.12964273
  0
VERTEX
  8
0
 10
45.07831004
 20
-157.88122612
  0
VERTEX
  8
0
 10
45.30693691
 20
-157.65891859
  0
VERTEX
  8
0
 10
45.55986529
 20
-157.46154209
  0
VERTEX
  8
0
 10
45.83571345
 20
-157.28791859
  0
VERTEX
  8
0
 10
46.13309966
 20
-157.13687004
  0
VERTEX
  8
0
 10
46.45064218
 20
-157.00721841
  0
VERTEX
  8
0
 10
46.78695929
 20
-156.89778565
  0
VERTEX
  8
0
 10
47.14066924
 20
-156.80739371
  0
VERTEX
  8
0
 10
47.51039031
 20
-156.73486457
  0
VERTEX
  8
0
 10
47.89474076
 20
-156.67902018
  0
VERTEX
  8
0
 10
48.29233886
 20
-156.63868250
  0
VERTEX
  8
0
 10
49.12175108
 20
-156.59981510
  0
VERTEX
  8
0
 10
49.98757311
 20
-156.60883804
  0
VERTEX
  8
0
 10
50.87875107
 20
-156.65632700
  0
VERTEX
  8
0
 10
51.78423111
 20
-156.73285766
  0
VERTEX
  8
0
 10
53.59388197
 20
-156.93534675
  0
VERTEX
  8
0
 10
55.32809477
 20
-157.14091070
  0
VERTEX
  8
0
 10
56.13927724
 20
-157.22128493
  0
VERTEX
  8
0
 10
56.89843860
 20
-157.27415490
  0
VERTEX
  8
0
 10
57.21086753
 20
-157.22397493
  0
VERTEX
  8
0
 10
57.51023801
 20
-157.15833884
  0
VERTEX
  8
0
 10
57.79724876
 20
-157.07806880
  0
VERTEX
  8
0
 10
58.07259845
 20
-156.98398700
  0
VERTEX
  8
0
 10
58.33698580
 20
-156.87691561
  0
VERTEX
  8
0
 10
58.59110950
 20
-156.75767682
  0
VERTEX
  8
0
 10
59.07136073
 20
-156.48598575
  0
VERTEX
  8
0
 10
59.51894175
 20
-156.17549125
  0
VERTEX
  8
0
 10
59.93944214
 20
-155.83277076
  0
VERTEX
  8
0
 10
60.33845148
 20
-155.46440173
  0
VERTEX
  8
0
 10
60.72155936
 20
-155.07696161
  0
VERTEX
  8
0
 10
61.46242908
 20
-154.27117792
  0
VERTEX
  8
0
 10
62.20676800
 20
-153.46803929
  0
VERTEX
  8
0
 10
62.59421238
 20
-153.08390549
  0
VERTEX
  8
0
 10
62.99929282
 20
-152.72016531
  0
VERTEX
  8
0
 10
63.42759890
 20
-152.38339620
  0
VERTEX
  8
0
 10
63.88472021
 20
-152.08017560
  0
VERTEX
  8
0
 10
67.40335738
 20
-149.79693935
  0
VERTEX
  8
0
 10
67.17188596
 20
-150.45136851
  0
VERTEX
  8
0
 10
66.89592293
 20
-151.07238788
  0
VERTEX
  8
0
 10
66.57970789
 20
-151.66298028
  0
VERTEX
  8
0
 10
66.22748045
 20
-152.22612850
  0
VERTEX
  8
0
 10
65.84348020
 20
-152.76481537
  0
VERTEX
  8
0
 10
65.43194674
 20
-153.28202370
  0
VERTEX
  8
0
 10
64.99711968
 20
-153.78073629
  0
VERTEX
  8
0
 10
64.54323861
 20
-154.26393598
  0
VERTEX
  8
0
 10
64.07454314
 20
-154.73460555
  0
VERTEX
  8
0
 10
63.59527286
 20
-155.19572784
  0
VERTEX
  8
0
 10
62.62196629
 20
-156.10126178
  0
VERTEX
  8
0
 10
61.65723570
 20
-157.00440032
  0
VERTEX
  8
0
 10
61.18868541
 20
-157.46252833
  0
VERTEX
  8
0
 10
60.73499791
 20
-157.92900594
  0
VERTEX
  8
0
 10
60.41706265
 20
-158.59873846
  0
VERTEX
  8
0
 10
60.08206864
 20
-159.25968932
  0
VERTEX
  8
0
 10
59.73100228
 20
-159.91174990
  0
VERTEX
  8
0
 10
59.36484999
 20
-160.55481163
  0
VERTEX
  8
0
 10
58.98459818
 20
-161.18876590
  0
VERTEX
  8
0
 10
58.59123326
 20
-161.81350412
  0
VERTEX
  8
0
 10
57.76910974
 20
-163.03489803
  0
VERTEX
  8
0
 10
56.90637072
 20
-164.21812461
  0
VERTEX
  8
0
 10
56.01090748
 20
-165.36231511
  0
VERTEX
  8
0
 10
55.09061133
 20
-166.46660075
  0
VERTEX
  8
0
 10
54.15337355
 20
-167.53011280
  0
SEQEND
  0
POLYLINE
  8
Векторный_слой_3
 66
   1
 39
0.000000
 70
    1
  0
VERTEX
  8
0
 10
30.23721974
 20
-169.35187378
  0
VERTEX
  8
0
 10
29.03689427
 20
-168.88634070
  0
VERTEX
  8
0
 10
27.80839302
 20
-168.38818705
  0
VERTEX
  8
0
 10
26.56946194
 20
-167.84985473
  0
VERTEX
  8
0
 10
25.33784697
 20
-167.26378565
  0
VERTEX
  8
0
 10
24.73032864
 20
-166.95048791
  0
VERTEX
  8
0
 10
24.13129408
 20
-166.62242170
  0
VERTEX
  8
0
 10
23.54296152
 20
-166.27864225
  0
VERTEX
  8
0
 10
22.96754920
 20
-165.91820480
  0
VERTEX
  8
0
 10
22.40727538
 20
-165.54016459
  0
VERTEX
  8
0
 10
21.86435830
 20
-165.14357686
  0
VERTEX
  8
0
 10
21.34101619
 20
-164.72749684
  0
VERTEX
  8
0
 10
20.83946731
 20
-164.29097977
  0
VERTEX
  8
0
 10
20.20240316
 20
-163.99133823
  0
VERTEX
  8
0
 10
19.59502155
 20
-163.65184040
  0
VERTEX
  8
0
 10
19.01373941
 20
-163.27755132
  0
VERTEX
  8
0
 10
18.45497365
 20
-162.87353598
  0
VERTEX
  8
0
 10
17.91514121
 20
-162.44485942
  0
VERTEX
  8
0
 10
17.39065899
 20
-161.99658664
  0
VERTEX
  8
0
 10
16.37341294
 20
-161.06151250
  0
VERTEX
  8
0
 10
15.37457088
 20
-160.10883371
  0
VERTEX
  8
0
 10
14.36546818
 20
-159.17907040
  0
VERTEX
  8
0
 10
13.84811140
 20
-158.73544459
  0
VERTEX
  8
0
 10
13.31744023
 20
-158.31274270
  0
VERTEX
  8
0
 10
12.76987158
 20
-157.91602974
  0
VERTEX
  8
0
 10
12.20182239
 20
-157.55037074
  0
VERTEX
  8
0
 10
6.51421709
 20
-149.95378988
  0
VERTEX
  8
0
 10
6.64521516
 20
-149.87711849
  0
VERTEX
  8
0
 10
6.78302557
 20
-149.81737159
  0
VERTEX
  8
0
 10
6.92701190
 20
-149.77332986
  0
VERTEX
  8
0
 10
7.07653773
 20
-149.74377399
  0
VERTEX
  8
0
 10
7.38966228
 20
-149.72324255
  0
VERTEX
  8
0
 10
7.71730792
 20
-149.74602275
  0
VERTEX
  8
0
 10
8.05438335
 20
-149.80236005
  0
VERTEX
  8
0
 10
8.39579727
 20
-149.88249993
  0
VERTEX
  8
0
 10
9.07127538
 20
-150.07516931
  0
VERTEX
  8
0
 10
9.61687945
 20
-150.51424857
  0
VERTEX
  8
0
 10
10.15106410
 20
-150.99298629
  0
VERTEX
  8
0
 10
10.67752850
 20
-151.49974558
  0
VERTEX
  8
0
 10
11.19997184
 20
-152.02288958
  0
VERTEX
  8
0
 10
12.24759204
 20
-153.07178422
  0
VERTEX
  8
0
 10
12.78016725
 20
-153.57426111
  0
VERTEX
  8
0
 10
13.32351810
 20
-154.04657522
  0
VERTEX
  8
0
 10
13.88134377
 20
-154.47708968
  0
VERTEX
  8
0
 10
14.16684066
 20
-154.67303551
  0
VERTEX
  8
0
 10
14.45734344
 20
-154.85416761
  0
VERTEX
  8
0
 10
14.75331452
 20
-155.01903136
  0
VERTEX
  8
0
 10
15.05521628
 20
-155.16617215
  0
VERTEX
  8
0
 10
15.36351114
 20
-155.29413537
  0
VERTEX
  8
0
 10
15.67866148
 20
-155.40146642
  0
VERTEX
  8
0
 10
16.00112971
 20
-155.48671068
  0
VERTEX
  8
0
 10
16.33137821
 20
-155.54841355
  0
VERTEX
  8
0
 10
16.66986939
 20
-155.58512042
  0
VERTEX
  8
0
 10
17.01706564
 20
-155.59537667
  0
VERTEX
  8
0
 10
17.37342937
 20
-155.57772770
  0
VERTEX
  8
0
 10
17.73942296
 20
-155.53071891
  0
VERTEX
  8
0
 10
18.11550882
 20
-155.45289567
  0
VERTEX
  8
0
 10
18.50214934
 20
-155.34280339
  0
VERTEX
  8
0
 10
18.93663169
 20
-155.81783656
  0
VERTEX
  8
0
 10
19.33127915
 20
-156.32437049
  0
VERTEX
  8
0
 10
19.69513813
 20
-156.85408266
  0
VERTEX
  8
0
 10
20.03725504
 20
-157.39865053
  0
VERTEX
  8
0
 10
20.69244831
 20
-158.49906320
  0
VERTEX
  8
0
 10
21.02361750
 20
-159.03826293
  0
VERTEX
  8
0
 10
21.36923029
 20
-159.55902821
  0
VERTEX
  8
0
 10
21.73833309
 20
-160.05303650
  0
VERTEX
  8
0
 10
22.13997231
 20
-160.51196527
  0
VERTEX
  8
0
 10
22.35582009
 20
-160.72567404
  0
VERTEX
  8
0
 10
22.58319437
 20
-160.92749197
  0
VERTEX
  8
0
 10
22.82322597
 20
-161.11637876
  0
VERTEX
  8
0
 10
23.07704569
 20
-161.29129407
  0
VERTEX
  8
0
 10
23.34578433
 20
-161.45119761
  0
VERTEX
  8
0
 10
23.63057268
 20
-161.59504904
  0
VERTEX
  8
0
 10
23.93254156
 20
-161.72180805
  0
VERTEX
  8
0
 10
24.25282176
 20
-161.83043433
  0
VERTEX
  8
0
 10
24.59254409
 20
-161.91988756
  0
VERTEX
  8
0
 10
24.95283934
 20
-161.98912741
  0
VERTEX
  8
0
 10
25.33483832
 20
-162.03711358
  0
VERTEX
  8
0
 10
25.73967184
 20
-162.06280574
  0
VERTEX
  8
0
 10
26.07364061
 20
-162.17754467
  0
VERTEX
  8
0
 10
26.40369966
 20
-162.27797556
  0
VERTEX
  8
0
 10
26.72516381
 20
-162.37697813
  0
VERTEX
  8
0
 10
27.03334789
 20
-162.48743210
  0
VERTEX
  8
0
 10
27.32356673
 20
-162.62221719
  0
VERTEX
  8
0
 10
27.59113515
 20
-162.79421311
  0
VERTEX
  8
0
 10
27.71496135
 20
-162.89819005
  0
VERTEX
  8
0
 10
27.83136800
 20
-163.01629959
  0
VERTEX
  8
0
 10
27.93976946
 20
-163.15015170
  0
VERTEX
  8
0
 10
28.03958009
 20
-163.30135634
  0
VERTEX
  8
0
 10
28.40123200
 20
-164.08594107
  0
VERTEX
  8
0
 10
28.76918461
 20
-164.91426171
  0
VERTEX
  8
0
 10
29.18712183
 20
-165.89779207
  0
VERTEX
  8
0
 10
29.59896882
 20
-166.93492530
  0
VERTEX
  8
0
 10
29.94865071
 20
-167.92405456
  0
VERTEX
  8
0
 10
30.08265634
 20
-168.36886556
  0
VERTEX
  8
0
 10
30.18009263
 20
-168.76357300
  0
VERTEX
  8
0
 10
30.23395022
 20
-169.09547603
  0
VERTEX
  8
0
 10
30.23721974
 20
-169.35187378
  0
SEQEND
  0
POLYLINE
  8
Векторный_слой_3
 66
   1
 39
0.000000
 70
    1
  0
VERTEX
  8
0
 10
60.51484042
 20
-147.29852739
  0
VERTEX
  8
0
 10
59.73871424
 20
-146.27866982
  0
VERTEX
  8
0
 10
58.99784929
 20
-145.33052112
  0
VERTEX
  8
0
 10
58.29154897
 20
-144.45150190
  0
VERTEX
  8
0
 10
57.61911667
 20
-143.63903275
  0
VERTEX
  8
0
 10
56.97985579
 20
-142.89053427
  0
VERTEX
  8
0
 10
56.37306972
 20
-142.20342707
  0
VERTEX
  8
0
 10
55.79806187
 20
-141.57513173
  0
VERTEX
  8
0
 10
55.25413561
 20
-141.00306887
  0
VERTEX
  8
0
 10
54.74059435
 20
-140.48465908
  0
VERTEX
  8
0
 10
54.25674149
 20
-140.01732296
  0
VERTEX
  8
0
 10
53.80188041
 20
-139.59848110
  0
VERTEX
  8
0
 10
53.37531452
 20
-139.22555412
  0
VERTEX
  8
0
 10
52.97634720
 20
-138.89596261
  0
VERTEX
  8
0
 10
52.60428186
 20
-138.60712717
  0
VERTEX
  8
0
 10
52.25842188
 20
-138.35646840
  0
VERTEX
  8
0
 10
51.93807066
 20
-138.14140690
  0
VERTEX
  8
0
 10
51.37110809
 20
-137.80775810
  0
VERTEX
  8
0
 10
50.89782130
 20
-137.58554557
  0
VERTEX
  8
0
 10
50.51263745
 20
-137.45413412
  0
VERTEX
  8
0
 10
50.20998371
 20
-137.39288853
  0
VERTEX
  8
0
 10
49.98428723
 20
-137.38117361
  0
VERTEX
  8
0
 10
49.82997516
 20
-137.39835416
  0
VERTEX
  8
0
 10
49.71321292
 20
-137.43686084
  0
VERTEX
  8
0
 10
49.66750473
 20
-137.14460638
  0
VERTEX
  8
0
 10
49.66885828
 20
-136.81129888
  0
VERTEX
  8
0
 10
49.71581138
 20
-136.44455241
  0
VERTEX
  8
0
 10
49.80690183
 20
-136.05198101
  0
VERTEX
  8
0
 10
49.94066744
 20
-135.64119874
  0
VERTEX
  8
0
 10
50.11564602
 20
-135.21981964
  0
VERTEX
  8
0
 10
50.33037538
 20
-134.79545777
  0
VERTEX
  8
0
 10
50.58339333
 20
-134.37572718
  0
VERTEX
  8
0
 10
50.87323767
 20
-133.96824192
  0
VERTEX
  8
0
 10
51.19844621
 20
-133.58061605
  0
VERTEX
  8
0
 10
51.55755677
 20
-133.22046361
  0
VERTEX
  8
0
 10
51.94910714
 20
-132.89539866
  0
VERTEX
  8
0
 10
52.37163513
 20
-132.61303525
  0
VERTEX
  8
0
 10
52.59405881
 20
-132.49024602
  0
VERTEX
  8
0
 10
52.82367857
 20
-132.38098744
  0
VERTEX
  8
0
 10
53.06031163
 20
-132.28621127
  0
VERTEX
  8
0
 10
53.30377524
 20
-132.20686927
  0
VERTEX
  8
0
 10
53.55388661
 20
-132.14391319
  0
VERTEX
  8
0
 10
53.81046296
 20
-132.09829479
  0
VERTEX
  8
0
 10
54.08162339
 20
-132.20607558
  0
VERTEX
  8
0
 10
54.34974188
 20
-132.29036349
  0
VERTEX
  8
0
 10
54.61481953
 20
-132.35214856
  0
VERTEX
  8
0
 10
54.87685742
 20
-132.39242081
  0
VERTEX
  8
0
 10
55.13585664
 20
-132.41217030
  0
VERTEX
  8
0
 10
55.39181827
 20
-132.41238705
  0
VERTEX
  8
0
 10
55.64474339
 20
-132.39406109
  0
VERTEX
  8
0
 10
55.89463310
 20
-132.35818248
  0
VERTEX
  8
0
 10
56.14148846
 20
-132.30574123
  0
VERTEX
  8
0
 10
56.38531057
 20
-132.23772740
  0
VERTEX
  8
0
 10
56.86385937
 20
-132.05894210
  0
VERTEX
  8
0
 10
57.33028816
 20
-131.82974687
  0
VERTEX
  8
0
 10
57.78460562
 20
-131.55806200
  0
VERTEX
  8
0
 10
58.22682043
 20
-131.25180779
  0
VERTEX
  8
0
 10
58.65694126
 20
-130.91890451
  0
VERTEX
  8
0
 10
59.07497677
 20
-130.56727248
  0
VERTEX
  8
0
 10
59.48093566
 20
-130.20483196
  0
VERTEX
  8
0
 10
60.25665821
 20
-129.47920667
  0
VERTEX
  8
0
 10
60.98417830
 20
-128.80539096
  0
VERTEX
  8
0
 10
61.25242270
 20
-128.67697427
  0
VERTEX
  8
0
 10
61.52391121
 20
-128.56989856
  0
VERTEX
  8
0
 10
61.79704796
 20
-128.48473921
  0
VERTEX
  8
0
 10
62.07023709
 20
-128.42207156
  0
VERTEX
  8
0
 10
62.34188272
 20
-128.38247100
  0
VERTEX
  8
0
 10
62.61038899
 20
-128.36651289
  0
VERTEX
  8
0
 10
62.87416002
 20
-128.37477259
  0
VERTEX
  8
0
 10
63.13159995
 20
-128.40782548
  0
VERTEX
  8
0
 10
63.38111290
 20
-128.46624691
  0
VERTEX
  8
0
 10
63.62110301
 20
-128.55061226
  0
VERTEX
  8
0
 10
63.84997442
 20
-128.66149689
  0
VERTEX
  8
0
 10
64.06613124
 20
-128.79947616
  0
VERTEX
  8
0
 10
64.26797762
 20
-128.96512545
  0
VERTEX
  8
0
 10
64.45391768
 20
-129.15902012
  0
VERTEX
  8
0
 10
64.62235555
 20
-129.38173553
  0
VERTEX
  8
0
 10
64.77169537
 20
-129.63384706
  0
VERTEX
  8
0
 10
65.14358933
 20
-130.12800092
  0
VERTEX
  8
0
 10
65.52197513
 20
-130.69833310
  0
VERTEX
  8
0
 10
65.89950412
 20
-131.33882126
  0
VERTEX
  8
0
 10
66.26882763
 20
-132.04344303
  0
VERTEX
  8
0
 10
66.62259700
 20
-132.80617609
  0
VERTEX
  8
0
 10
66.95346357
 20
-133.62099807
  0
VERTEX
  8
0
 10
67.25407867
 20
-134.48188663
  0
VERTEX
  8
0
 10
67.51709364
 20
-135.38281941
  0
VERTEX
  8
0
 10
67.73515982
 20
-136.31777408
  0
VERTEX
  8
0
 10
67.82504066
 20
-136.79612764
  0
VERTEX
  8
0
 10
67.90092855
 20
-137.28072828
  0
VERTEX
  8
0
 10
67.96190492
 20
-137.77082323
  0
VERTEX
  8
0
 10
68.00705117
 20
-138.26565967
  0
VERTEX
  8
0
 10
68.03544872
 20
-138.76448482
  0
VERTEX
  8
0
 10
68.04617900
 20
-139.26654589
  0
VERTEX
  8
0
 10
68.03832342
 20
-139.77109008
  0
VERTEX
  8
0
 10
68.01096340
 20
-140.27736460
  0
VERTEX
  8
0
 10
67.96318035
 20
-140.78461665
  0
VERTEX
  8
0
 10
67.89405570
 20
-141.29209345
  0
VERTEX
  8
0
 10
67.80267085
 20
-141.79904219
  0
VERTEX
  8
0
 10
67.68810723
 20
-142.30471009
  0
VERTEX
  8
0
 10
67.54944625
 20
-142.80834434
  0
VERTEX
  8
0
 10
67.38576933
 20
-143.30919216
  0
VERTEX
  8
0
 10
63.23669816
 20
-137.37454276
  0
VERTEX
  8
0
 10
63.41693975
 20
-138.48007786
  0
VERTEX
  8
0
 10
63.63248576
 20
-139.58762140
  0
VERTEX
  8
0
 10
63.85190240
 20
-140.69508858
  0
VERTEX
  8
0
 10
64.04375591
 20
-141.80039458
  0
VERTEX
  8
0
 10
64.11952344
 20
-142.35158564
  0
VERTEX
  8
0
 10
64.17661252
 20
-142.90145460
  0
VERTEX
  8
0
 10
64.21109392
 20
-143.44974086
  0
VERTEX
  8
0
 10
64.21903844
 20
-143.99618383
  0
VERTEX
  8
0
 10
64.19651684
 20
-144.54052290
  0
VERTEX
  8
0
 10
64.13959991
 20
-145.08249747
  0
VERTEX
  8
0
 10
64.04435843
 20
-145.62184694
  0
VERTEX
  8
0
 10
63.90686316
 20
-146.15831071
  0
VERTEX
  8
0
 10
62.89535998
 20
-144.01741994
  0
VERTEX
  8
0
 10
62.39758093
 20
-142.98325715
  0
VERTEX
  8
0
 10
61.88232459
 20
-141.98157228
  0
VERTEX
  8
0
 10
61.61280049
 20
-141.49485192
  0
VERTEX
  8
0
 10
61.33249672
 20
-141.01858247
  0
VERTEX
  8
0
 10
61.03927651
 20
-140.55354107
  0
VERTEX
  8
0
 10
60.73100308
 20
-140.10050486
  0
VERTEX
  8
0
 10
60.40553964
 20
-139.66025099
  0
VERTEX
  8
0
 10
60.06074943
 20
-139.23355660
  0
VERTEX
  8
0
 10
59.69449565
 20
-138.82119883
  0
VERTEX
  8
0
 10
59.30464153
 20
-138.42395482
  0
VERTEX
  8
0
 10
59.19666619
 20
-139.00148814
  0
VERTEX
  8
0
 10
59.14645170
 20
-139.57162689
  0
VERTEX
  8
0
 10
59.14686679
 20
-140.13530211
  0
VERTEX
  8
0
 10
59.19078024
 20
-140.69344485
  0
VERTEX
  8
0
 10
59.27106079
 20
-141.24698617
  0
VERTEX
  8
0
 10
59.38057721
 20
-141.79685712
  0
VERTEX
  8
0
 10
59.51219825
 20
-142.34398875
  0
VERTEX
  8
0
 10
59.65879267
 20
-142.88931211
  0
VERTEX
  8
0
 10
59.96837666
 20
-143.97825822
  0
VERTEX
  8
0
 10
60.11710376
 20
-144.52374307
  0
VERTEX
  8
0
 10
60.25227925
 20
-145.07114386
  0
VERTEX
  8
0
 10
60.36677191
 20
-145.62139164
  0
VERTEX
  8
0
 10
60.45345049
 20
-146.17541745
  0
VERTEX
  8
0
 10
60.50518374
 20
-146.73415235
  0
VERTEX
  8
0
 10
60.51484042
 20
-147.29852739
  0
SEQEND
  0
POLYLINE
  8
Векторный_слой_3
 66
   1
 39
0.000000
 70
    1
  0
VERTEX
  8
0
 10
20.76499250
 20
-113.09138627
  0
VERTEX
  8
0
 10
21.16233497
 20
-113.05004441
  0
VERTEX
  8
0
 10
21.64486125
 20
-113.01551151
  0
VERTEX
  8
0
 10
22.30404485
 20
-112.98697681
  0
VERTEX
  8
0
 10
23.13045124
 20
-112.97586991
  0
VERTEX
  8
0
 10
24.11464588
 20
-112.99362044
  0
VERTEX
  8
0
 10
25.24719422
 20
-113.05165803
  0
VERTEX
  8
0
 10
26.51866175
 20
-113.16141230
  0
VERTEX
  8
0
 10
27.91961392
 20
-113.33431287
  0
VERTEX
  8
0
 10
28.66569846
 20
-113.44801477
  0
VERTEX
  8
0
 10
29.44061620
 20
-113.58178936
  0
VERTEX
  8
0
 10
30.24318784
 20
-113.73706533
  0
VERTEX
  8
0
 10
31.07223405
 20
-113.91527140
  0
VERTEX
  8
0
 10
31.92657552
 20
-114.11783625
  0
VERTEX
  8
0
 10
32.80503294
 20
-114.34618860
  0
VERTEX
  8
0
 10
33.70642698
 20
-114.60175714
  0
VERTEX
  8
0
 10
34.62957833
 20
-114.88597059
  0
VERTEX
  8
0
 10
35.57330767
 20
-115.20025764
  0
VERTEX
  8
0
 10
36.53643569
 20
-115.54604700
  0
VERTEX
  8
0
 10
37.51778306
 20
-115.92476736
  0
VERTEX
  8
0
 10
38.51617048
 20
-116.33784744
  0
VERTEX
  8
0
 10
39.53041862
 20
-116.78671593
  0
VERTEX
  8
0
 10
40.55934817
 20
-117.27280154
  0
VERTEX
  8
0
 10
40.11012564
 20
-116.49751111
  0
VERTEX
  8
0
 10
39.37428407
 20
-116.10750557
  0
VERTEX
  8
0
 10
38.65363112
 20
-115.70407882
  0
VERTEX
  8
0
 10
37.24805015
 20
-114.86565157
  0
VERTEX
  8
0
 10
35.87370083
 20
-113.99960909
  0
VERTEX
  8
0
 10
34.51090123
 20
-113.12333112
  0
VERTEX
  8
0
 10
33.13996945
 20
-112.25419738
  0
VERTEX
  8
0
 10
31.74122357
 20
-111.40958761
  0
VERTEX
  8
0
 10
31.02526974
 20
-111.00191037
  0
VERTEX
  8
0
 10
30.29498167
 20
-110.60688153
  0
VERTEX
  8
0
 10
29.54789912
 20
-110.22667354
  0
VERTEX
  8
0
 10
28.78156185
 20
-109.86345888
  0
VERTEX
  8
0
 10
29.32239927
 20
-109.83638574
  0
VERTEX
  8
0
 10
29.86009916
 20
-109.83686354
  0
VERTEX
  8
0
 10
30.39475925
 20
-109.86365115
  0
VERTEX
  8
0
 10
30.92647726
 20
-109.91550743
  0
VERTEX
  8
0
 10
31.45535090
 20
-109.99119125
  0
VERTEX
  8
0
 10
31.98147791
 20
-110.08946147
  0
VERTEX
  8
0
 10
32.50495601
 20
-110.20907696
  0
VERTEX
  8
0
 10
33.02588291
 20
-110.34879658
  0
VERTEX
  8
0
 10
33.54435635
 20
-110.50737919
  0
VERTEX
  8
0
 10
34.06047405
 20
-110.68358366
  0
VERTEX
  8
0
 10
34.57433372
 20
-110.87616885
  0
VERTEX
  8
0
 10
35.08603310
 20
-111.08389363
  0
VERTEX
  8
0
 10
36.10334186
 20
-111.53979742
  0
VERTEX
  8
0
 10
37.11318211
 20
-112.04136593
  0
VERTEX
  8
0
 10
38.11633563
 20
-112.57867009
  0
VERTEX
  8
0
 10
39.11358421
 20
-113.14178081
  0
VERTEX
  8
0
 10
41.09349371
 20
-114.30570560
  0
VERTEX
  8
0
 10
43.05916487
 20
-115.45370763
  0
VERTEX
  8
0
 10
44.03861555
 20
-115.99691489
  0
VERTEX
  8
0
 10
45.01685200
 20
-116.50635422
  0
VERTEX
  8
0
 10
45.50736887
 20
-116.75737849
  0
VERTEX
  8
0
 10
46.03648718
 20
-117.05965692
  0
VERTEX
  8
0
 10
47.16507146
 20
-117.71625535
  0
VERTEX
  8
0
 10
47.74180912
 20
-118.01971486
  0
VERTEX
  8
0
 10
48.31169158
 20
-118.27270760
  0
VERTEX
  8
0
 10
48.59051081
 20
-118.37233198
  0
VERTEX
  8
0
 10
48.86335468
 20
-118.44980333
  0
VERTEX
  8
0
 10
49.12880268
 20
-118.50194286
  0
VERTEX
  8
0
 10
49.38543428
 20
-118.52557180
  0
VERTEX
  8
0
 10
49.17846485
 20
-118.18242153
  0
VERTEX
  8
0
 10
48.94513049
 20
-117.82791559
  0
VERTEX
  8
0
 10
48.40783415
 20
-117.09043011
  0
VERTEX
  8
0
 10
47.79047960
 20
-116.32430220
  0
VERTEX
  8
0
 10
47.11000118
 20
-115.54071870
  0
VERTEX
  8
0
 10
46.38333323
 20
-114.75086645
  0
VERTEX
  8
0
 10
45.62741007
 20
-113.96593228
  0
VERTEX
  8
0
 10
44.85916604
 20
-113.19710303
  0
VERTEX
  8
0
 10
44.09553549
 20
-112.45556554
  0
VERTEX
  8
0
 10
42.64985215
 20
-111.09911318
  0
VERTEX
  8
0
 10
41.42583474
 20
-109.98606989
  0
VERTEX
  8
0
 10
40.55895795
 20
-109.20593036
  0
VERTEX
  8
0
 10
40.18469647
 20
-108.84818930
  0
VERTEX
  8
0
 10
40.51401298
 20
-108.78260251
  0
VERTEX
  8
0
 10
40.84622873
 20
-108.73447946
  0
VERTEX
  8
0
 10
41.18117986
 20
-108.70348628
  0
VERTEX
  8
0
 10
41.51870250
 20
-108.68928910
  0
VERTEX
  8
0
 10
41.85863279
 20
-108.69155407
  0
VERTEX
  8
0
 10
42.20080686
 20
-108.70994731
  0
VERTEX
  8
0
 10
42.54506086
 20
-108.74413498
  0
VERTEX
  8
0
 10
42.89123091
 20
-108.79378320
  0
VERTEX
  8
0
 10
43.58866375
 20
-108.93812587
  0
VERTEX
  8
0
 10
44.29179446
 20
-109.14030440
  0
VERTEX
  8
0
 10
44.99931214
 20
-109.39764790
  0
VERTEX
  8
0
 10
45.70990588
 20
-109.70748547
  0
VERTEX
  8
0
 10
46.42226478
 20
-110.06714620
  0
VERTEX
  8
0
 10
47.13507792
 20
-110.47395920
  0
VERTEX
  8
0
 10
47.84703442
 20
-110.92525356
  0
VERTEX
  8
0
 10
48.55682335
 20
-111.41835838
  0
VERTEX
  8
0
 10
49.26313380
 20
-111.95060276
  0
VERTEX
  8
0
 10
49.96465489
 20
-112.51931580
  0
VERTEX
  8
0
 10
50.66007569
 20
-113.12182659
  0
VERTEX
  8
0
 10
51.34808530
 20
-113.75546424
  0
VERTEX
  8
0
 10
52.02737282
 20
-114.41755784
  0
VERTEX
  8
0
 10
52.69662733
 20
-115.10543649
  0
VERTEX
  8
0
 10
53.35453794
 20
-115.81642929
  0
VERTEX
  8
0
 10
53.99979373
 20
-116.54786534
  0
VERTEX
  8
0
 10
54.63108379
 20
-117.29707373
  0
VERTEX
  8
0
 10
55.24709724
 20
-118.06138357
  0
VERTEX
  8
0
 10
55.84652314
 20
-118.83812395
  0
VERTEX
  8
0
 10
56.42805061
 20
-119.62462397
  0
VERTEX
  8
0
 10
56.99036873
 20
-120.41821273
  0
VERTEX
  8
0
 10
57.53216659
 20
-121.21621933
  0
VERTEX
  8
0
 10
58.05213330
 20
-122.01597287
  0
VERTEX
  8
0
 10
58.54895793
 20
-122.81480244
  0
VERTEX
  8
0
 10
59.02132960
 20
-123.61003714
  0
VERTEX
  8
0
 10
59.46793738
 20
-124.39900607
  0
VERTEX
  8
0
 10
59.88747038
 20
-125.17903833
  0
VERTEX
  8
0
 10
60.27861768
 20
-125.94746302
  0
VERTEX
  8
0
 10
60.05595690
 20
-126.36092967
  0
VERTEX
  8
0
 10
59.67122967
 20
-126.46191866
  0
VERTEX
  8
0
 10
59.29165774
 20
-126.57848859
  0
VERTEX
  8
0
 10
58.91754159
 20
-126.70994777
  0
VERTEX
  8
0
 10
58.54918173
 20
-126.85560446
  0
VERTEX
  8
0
 10
57.83093290
 20
-127.18674355
  0
VERTEX
  8
0
 10
57.13931527
 20
-127.56637211
  0
VERTEX
  8
0
 10
56.47673284
 20
-127.98895642
  0
VERTEX
  8
0
 10
55.84558964
 20
-128.44896273
  0
VERTEX
  8
0
 10
55.24828968
 20
-128.94085732
  0
VERTEX
  8
0
 10
54.68723698
 20
-129.45910644
  0
VERTEX
  8
0
 10
54.01017684
 20
-129.36412406
  0
VERTEX
  8
0
 10
53.32439205
 20
-129.32598233
  0
VERTEX
  8
0
 10
52.63292992
 20
-129.34168291
  0
VERTEX
  8
0
 10
51.93883776
 20
-129.40822744
  0
VERTEX
  8
0
 10
51.24516288
 20
-129.52261760
  0
VERTEX
  8
0
 10
50.55495258
 20
-129.68185503
  0
VERTEX
  8
0
 10
49.87125418
 20
-129.88294140
  0
VERTEX
  8
0
 10
49.19711498
 20
-130.12287835
  0
VERTEX
  8
0
 10
48.53558230
 20
-130.39866756
  0
VERTEX
  8
0
 10
47.88970344
 20
-130.70731067
  0
VERTEX
  8
0
 10
47.26252571
 20
-131.04580934
  0
VERTEX
  8
0
 10
46.65709643
 20
-131.41116523
  0
VERTEX
  8
0
 10
46.07646289
 20
-131.80038000
  0
VERTEX
  8
0
 10
45.52367241
 20
-132.21045530
  0
VERTEX
  8
0
 10
45.00177229
 20
-132.63839279
  0
VERTEX
  8
0
 10
44.51380986
 20
-133.08119413
  0
VERTEX
  8
0
 10
44.10079112
 20
-132.83816486
  0
VERTEX
  8
0
 10
43.71026399
 20
-132.56731538
  0
VERTEX
  8
0
 10
43.34038749
 20
-132.27114489
  0
VERTEX
  8
0
 10
42.98932067
 20
-131.95215260
  0
VERTEX
  8
0
 10
42.65522255
 20
-131.61283770
  0
VERTEX
  8
0
 10
42.33625217
 20
-131.25569939
  0
VERTEX
  8
0
 10
42.03056856
 20
-130.88323687
  0
VERTEX
  8
0
 10
41.73633076
 20
-130.49794934
  0
VERTEX
  8
0
 10
41.17482869
 20
-129.69889607
  0
VERTEX
  8
0
 10
40.63701824
 20
-128.87853315
  0
VERTEX
  8
0
 10
40.10817167
 20
-128.05685420
  0
VERTEX
  8
0
 10
39.57356125
 20
-127.25385281
  0
VERTEX
  8
0
 10
38.89312680
 20
-126.97241400
  0
VERTEX
  8
0
 10
38.20909936
 20
-126.72770930
  0
VERTEX
  8
0
 10
37.52164914
 20
-126.51754907
  0
VERTEX
  8
0
 10
36.83094635
 20
-126.33974365
  0
VERTEX
  8
0
 10
36.13716120
 20
-126.19210339
  0
VERTEX
  8
0
 10
35.44046390
 20
-126.07243864
  0
VERTEX
  8
0
 10
34.74102466
 20
-125.97855974
  0
VERTEX
  8
0
 10
34.03901370
 20
-125.90827704
  0
VERTEX
  8
0
 10
33.33460123
 20
-125.85940089
  0
VERTEX
  8
0
 10
32.62795746
 20
-125.82974164
  0
VERTEX
  8
0
 10
31.91925259
 20
-125.81710964
  0
VERTEX
  8
0
 10
31.20865684
 20
-125.81931523
  0
VERTEX
  8
0
 10
29.78247354
 20
-125.85948057
  0
VERTEX
  8
0
 10
28.35076926
 20
-125.93272046
  0
VERTEX
  8
0
 10
27.63927400
 20
-125.30870574
  0
VERTEX
  8
0
 10
26.89196421
 20
-124.69595452
  0
VERTEX
  8
0
 10
26.11141751
 20
-124.10027768
  0
VERTEX
  8
0
 10
25.30021152
 20
-123.52748613
  0
VERTEX
  8
0
 10
24.46092386
 20
-122.98339074
  0
VERTEX
  8
0
 10
23.59613213
 20
-122.47380242
  0
VERTEX
  8
0
 10
22.70841396
 20
-122.00453205
  0
VERTEX
  8
0
 10
21.80034697
 20
-121.58139053
  0
VERTEX
  8
0
 10
20.87450876
 20
-121.21018874
  0
VERTEX
  8
0
 10
20.40573096
 20
-121.04588116
  0
VERTEX
  8
0
 10
19.93347696
 20
-120.89673759
  0
VERTEX
  8
0
 10
19.45806897
 20
-120.76348441
  0
VERTEX
  8
0
 10
18.97982918
 20
-120.64684797
  0
VERTEX
  8
0
 10
18.49907981
 20
-120.54755463
  0
VERTEX
  8
0
 10
18.01614304
 20
-120.46633076
  0
VERTEX
  8
0
 10
17.53134110
 20
-120.40390271
  0
VERTEX
  8
0
 10
17.04499616
 20
-120.36099685
  0
VERTEX
  8
0
 10
16.55743045
 20
-120.33833954
  0
VERTEX
  8
0
 10
16.06896615
 20
-120.33665715
  0
VERTEX
  8
0
 10
15.57992548
 20
-120.35667602
  0
VERTEX
  8
0
 10
15.09063064
 20
-120.39912253
  0
VERTEX
  8
0
 10
14.60140382
 20
-120.46472304
  0
VERTEX
  8
0
 10
14.11256722
 20
-120.55420391
  0
VERTEX
  8
0
 10
13.31031249
 20
-120.77904327
  0
VERTEX
  8
0
 10
12.47821266
 20
-120.98691755
  0
VERTEX
  8
0
 10
10.76734995
 20
-121.39100178
  0
VERTEX
  8
0
 10
9.91002315
 20
-121.60682724
  0
VERTEX
  8
0
 10
9.06572346
 20
-121.84491859
  0
VERTEX
  8
0
 10
8.24516892
 20
-122.11508357
  0
VERTEX
  8
0
 10
7.84714548
 20
-122.26525859
  0
VERTEX
  8
0
 10
7.45907758
 20
-122.42712992
  0
VERTEX
  8
0
 10
7.77869322
 20
-121.90594750
  0
VERTEX
  8
0
 10
8.15084793
 20
-121.36506356
  0
VERTEX
  8
0
 10
8.57242281
 20
-120.81185842
  0
VERTEX
  8
0
 10
9.04029898
 20
-120.25371240
  0
VERTEX
  8
0
 10
9.55135754
 20
-119.69800583
  0
VERTEX
  8
0
 10
10.10247960
 20
-119.15211900
  0
VERTEX
  8
0
 10
10.69054627
 20
-118.62343225
  0
VERTEX
  8
0
 10
11.31243865
 20
-118.11932589
  0
VERTEX
  8
0
 10
11.96503786
 20
-117.64718023
  0
VERTEX
  8
0
 10
12.64522499
 20
-117.21437559
  0
VERTEX
  8
0
 10
13.34988116
 20
-116.82829230
  0
VERTEX
  8
0
 10
13.71041048
 20
-116.65507750
  0
VERTEX
  8
0
 10
14.07588748
 20
-116.49631066
  0
VERTEX
  8
0
 10
14.44592229
 20
-116.35291431
  0
VERTEX
  8
0
 10
14.82012505
 20
-116.22581100
  0
VERTEX
  8
0
 10
15.19810590
 20
-116.11592326
  0
VERTEX
  8
0
 10
15.57947497
 20
-116.02417363
  0
VERTEX
  8
0
 10
15.96384242
 20
-115.95148465
  0
VERTEX
  8
0
 10
16.35081837
 20
-115.89877886
  0
VERTEX
  8
0
 10
16.74001296
 20
-115.86697881
  0
VERTEX
  8
0
 10
17.13103633
 20
-115.85700702
  0
VERTEX
  8
0
 10
17.66281486
 20
-115.92257604
  0
VERTEX
  8
0
 10
18.19332766
 20
-116.01068613
  0
VERTEX
  8
0
 10
18.72260865
 20
-116.11974992
  0
VERTEX
  8
0
 10
19.25069177
 20
-116.24818001
  0
VERTEX
  8
0
 10
19.77761093
 20
-116.39438901
  0
VERTEX
  8
0
 10
20.30340006
 20
-116.55678953
  0
VERTEX
  8
0
 10
21.35172394
 20
-116.92381558
  0
VERTEX
  8
0
 10
22.39593483
 20
-117.33655903
  0
VERTEX
  8
0
 10
23.43630412
 20
-117.78232076
  0
VERTEX
  8
0
 10
25.50660357
 20
-118.72210258
  0
VERTEX
  8
0
 10
26.53707654
 20
-119.19072443
  0
VERTEX
  8
0
 10
27.56479355
 20
-119.64156807
  0
VERTEX
  8
0
 10
28.59002600
 20
-120.06193438
  0
VERTEX
  8
0
 10
29.61304531
 20
-120.43912424
  0
VERTEX
  8
0
 10
30.12380985
 20
-120.60755953
  0
VERTEX
  8
0
 10
30.63412289
 20
-120.76043853
  0
VERTEX
  8
0
 10
31.14401834
 20
-120.89617386
  0
VERTEX
  8
0
 10
31.65353013
 20
-121.01317813
  0
VERTEX
  8
0
 10
32.16269219
 20
-121.10986394
  0
VERTEX
  8
0
 10
32.67153845
 20
-121.18464391
  0
VERTEX
  8
0
 10
33.18010283
 20
-121.23593065
  0
VERTEX
  8
0
 10
33.68841926
 20
-121.26213676
  0
VERTEX
  8
0
 10
33.50190771
 20
-121.08995276
  0
VERTEX
  8
0
 10
32.93356336
 20
-120.59883850
  0
VERTEX
  8
0
 10
31.97017163
 20
-119.82695057
  0
VERTEX
  8
0
 10
31.33620344
 20
-119.34764040
  0
VERTEX
  8
0
 10
30.59851796
 20
-118.81244554
  0
VERTEX
  8
0
 10
29.75546334
 20
-118.22613555
  0
VERTEX
  8
0
 10
28.80538777
 20
-117.59348001
  0
VERTEX
  8
0
 10
27.74663944
 20
-116.91924849
  0
VERTEX
  8
0
 10
26.57756652
 20
-116.20821056
  0
VERTEX
  8
0
 10
25.29651718
 20
-115.46513580
  0
VERTEX
  8
0
 10
23.90183961
 20
-114.69479379
  0
VERTEX
  8
0
 10
22.39188199
 20
-113.90195409
  0
VERTEX
  8
0
 10
20.76499250
 20
-113.09138627
  0
SEQEND
  0
POLYLINE
  8
Векторный_слой_3
 66
   1
 39
0.000000
 70
    1
  0
VERTEX
  8
0
 10
45.09220782
 20
-106.23503138
  0
VERTEX
  8
0
 10
45.67444762
 20
-106.16838295
  0
VERTEX
  8
0
 10
46.29027107
 20
-106.14367379
  0
VERTEX
  8
0
 10
46.93398165
 20
-106.16126586
  0
VERTEX
  8
0
 10
47.59988288
 20
-106.22152113
  0
VERTEX
  8
0
 10
48.28227826
 20
-106.32480157
  0
VERTEX
  8
0
 10
48.97547129
 20
-106.47146914
  0
VERTEX
  8
0
 10
49.67376547
 20
-106.66188581
  0
VERTEX
  8
0
 10
50.37146431
 20
-106.89641354
  0
VERTEX
  8
0
 10
51.06287131
 20
-107.17541430
  0
VERTEX
  8
0
 10
51.74228998
 20
-107.49925006
  0
VERTEX
  8
0
 10
52.40402382
 20
-107.86828278
  0
VERTEX
  8
0
 10
53.04237632
 20
-108.28287442
  0
VERTEX
  8
0
 10
53.65165100
 20
-108.74338696
  0
VERTEX
  8
0
 10
53.94360400
 20
-108.99097668
  0
VERTEX
  8
0
 10
54.22615136
 20
-109.25018235
  0
VERTEX
  8
0
 10
54.49858101
 20
-109.52104924
  0
VERTEX
  8
0
 10
54.76018090
 20
-109.80362257
  0
VERTEX
  8
0
 10
55.01023895
 20
-110.09794761
  0
VERTEX
  8
0
 10
55.24804312
 20
-110.40406958
  0
VERTEX
  8
0
 10
55.97724991
 20
-111.37508415
  0
VERTEX
  8
0
 10
56.35699152
 20
-111.83787505
  0
VERTEX
  8
0
 10
56.75886995
 20
-112.26803132
  0
VERTEX
  8
0
 10
56.97093343
 20
-112.46677216
  0
VERTEX
  8
0
 10
57.19191869
 20
-112.65243518
  0
VERTEX
  8
0
 10
57.42295489
 20
-112.82338066
  0
VERTEX
  8
0
 10
57.66517124
 20
-112.97796887
  0
VERTEX
  8
0
 10
57.91969691
 20
-113.11456009
  0
VERTEX
  8
0
 10
58.18766110
 20
-113.23151459
  0
VERTEX
  8
0
 10
58.47019299
 20
-113.32719266
  0
VERTEX
  8
0
 10
58.76842178
 20
-113.39995458
  0
VERTEX
  8
0
 10
59.25115931
 20
-113.35532444
  0
VERTEX
  8
0
 10
59.73520441
 20
-113.28983001
  0
VERTEX
  8
0
 10
60.70519546
 20
-113.11853458
  0
VERTEX
  8
0
 10
61.67435114
 20
-112.93064091
  0
VERTEX
  8
0
 10
62.63862768
 20
-112.77072163
  0
VERTEX
  8
0
 10
63.11767259
 20
-112.71518133
  0
VERTEX
  8
0
 10
63.59398131
 20
-112.68334936
  0
VERTEX
  8
0
 10
64.06704835
 20
-112.68079730
  0
VERTEX
  8
0
 10
64.53636826
 20
-112.71309673
  0
VERTEX
  8
0
 10
65.00143554
 20
-112.78581922
  0
VERTEX
  8
0
 10
65.46174475
 20
-112.90453636
  0
VERTEX
  8
0
 10
65.91679039
 20
-113.07481973
  0
VERTEX
  8
0
 10
66.36606701
 20
-113.30224089
  0
VERTEX
  8
0
 10
66.71775212
 20
-113.74428166
  0
VERTEX
  8
0
 10
67.02969900
 20
-114.22171790
  0
VERTEX
  8
0
 10
67.30794142
 20
-114.72648697
  0
VERTEX
  8
0
 10
67.55851317
 20
-115.25052625
  0
VERTEX
  8
0
 10
67.78744803
 20
-115.78577312
  0
VERTEX
  8
0
 10
68.00077980
 20
-116.32416494
  0
VERTEX
  8
0
 10
68.40476919
 20
-117.37813298
  0
VERTEX
  8
0
 10
68.44672620
 20
-117.58810354
  0
VERTEX
  8
0
 10
68.46798940
 20
-117.80526483
  0
VERTEX
  8
0
 10
68.47068941
 20
-118.02881963
  0
VERTEX
  8
0
 10
68.45695684
 20
-118.25797071
  0
VERTEX
  8
0
 10
68.38871638
 20
-118.72987285
  0
VERTEX
  8
0
 10
68.28031290
 20
-119.21459348
  0
VERTEX
  8
0
 10
68.01119643
 20
-120.19697915
  0
VERTEX
  8
0
 10
67.88457320
 20
-120.68188867
  0
VERTEX
  8
0
 10
67.78596649
 20
-121.15410562
  0
VERTEX
  8
0
 10
67.73242116
 20
-121.60725224
  0
VERTEX
  8
0
 10
67.72787305
 20
-121.82468112
  0
VERTEX
  8
0
 10
67.74098212
 20
-122.03495076
  0
VERTEX
  8
0
 10
67.77387897
 20
-122.23726393
  0
VERTEX
  8
0
 10
67.82869423
 20
-122.43082342
  0
VERTEX
  8
0
 10
67.90755849
 20
-122.61483200
  0
VERTEX
  8
0
 10
68.01260238
 20
-122.78849245
  0
VERTEX
  8
0
 10
68.14595649
 20
-122.95100756
  0
VERTEX
  8
0
 10
68.30975145
 20
-123.10158010
  0
VERTEX
  8
0
 10
68.50611786
 20
-123.23941285
  0
VERTEX
  8
0
 10
68.73718632
 20
-123.36370859
  0
VERTEX
  8
0
 10
69.00508746
 20
-123.47367010
  0
VERTEX
  8
0
 10
69.31195189
 20
-123.56850015
  0
VERTEX
  8
0
 10
69.65991020
 20
-123.64740154
  0
VERTEX
  8
0
 10
70.05109301
 20
-123.70957704
  0
VERTEX
  8
0
 10
70.33671881
 20
-123.72298997
  0
VERTEX
  8
0
 10
70.59421653
 20
-123.79103595
  0
VERTEX
  8
0
 10
70.82409716
 20
-123.90850543
  0
VERTEX
  8
0
 10
71.02687164
 20
-124.07018887
  0
VERTEX
  8
0
 10
71.20305094
 20
-124.27087670
  0
VERTEX
  8
0
 10
71.35314603
 20
-124.50535938
  0
VERTEX
  8
0
 10
71.47766786
 20
-124.76842735
  0
VERTEX
  8
0
 10
71.57712740
 20
-125.05487108
  0
VERTEX
  8
0
 10
71.65203561
 20
-125.35948099
  0
VERTEX
  8
0
 10
71.70290345
 20
-125.67704756
  0
VERTEX
  8
0
 10
71.73024189
 20
-126.00236121
  0
VERTEX
  8
0
 10
71.73456188
 20
-126.33021241
  0
VERTEX
  8
0
 10
71.71637438
 20
-126.65539160
  0
VERTEX
  8
0
 10
71.67619037
 20
-126.97268923
  0
VERTEX
  8
0
 10
71.61452080
 20
-127.27689575
  0
VERTEX
  8
0
 10
71.53187663
 20
-127.56280160
  0
VERTEX
  8
0
 10
71.36669776
 20
-127.97417493
  0
VERTEX
  8
0
 10
71.17501088
 20
-128.33825903
  0
VERTEX
  8
0
 10
70.96194406
 20
-128.65791689
  0
VERTEX
  8
0
 10
70.73262537
 20
-128.93601150
  0
VERTEX
  8
0
 10
70.49218288
 20
-129.17540587
  0
VERTEX
  8
0
 10
70.24574465
 20
-129.37896298
  0
VERTEX
  8
0
 10
69.99843875
 20
-129.54954584
  0
VERTEX
  8
0
 10
69.75539325
 20
-129.69001743
  0
VERTEX
  8
0
 10
69.52173623
 20
-129.80324076
  0
VERTEX
  8
0
 10
69.30259574
 20
-129.89207881
  0
VERTEX
  8
0
 10
68.92837665
 20
-130.00805108
  0
VERTEX
  8
0
 10
68.67376052
 20
-130.06083820
  0
VERTEX
  8
0
 10
68.57977192
 20
-130.07334414
  0
VERTEX
  8
0
 10
67.62261312
 20
-128.91078442
  0
VERTEX
  8
0
 10
66.64244252
 20
-127.67563022
  0
VERTEX
  8
0
 10
65.67648612
 20
-126.38361697
  0
VERTEX
  8
0
 10
65.21047137
 20
-125.72120552
  0
VERTEX
  8
0
 10
64.76196992
 20
-125.05048009
  0
VERTEX
  8
0
 10
64.39097585
 20
-124.12876217
  0
VERTEX
  8
0
 10
63.97901198
 20
-123.23367940
  0
VERTEX
  8
0
 10
63.52792372
 20
-122.36425314
  0
VERTEX
  8
0
 10
63.03955647
 20
-121.51950478
  0
VERTEX
  8
0
 10
62.51575565
 20
-120.69845568
  0
VERTEX
  8
0
 10
61.95836665
 20
-119.90012722
  0
VERTEX
  8
0
 10
61.36923490
 20
-119.12354077
  0
VERTEX
  8
0
 10
60.75020580
 20
-118.36771770
  0
VERTEX
  8
0
 10
60.10312476
 20
-117.63167940
  0
VERTEX
  8
0
 10
59.42983719
 20
-116.91444723
  0
VERTEX
  8
0
 10
58.73218849
 20
-116.21504257
  0
VERTEX
  8
0
 10
58.01202408
 20
-115.53248679
  0
VERTEX
  8
0
 10
57.27118936
 20
-114.86580126
  0
VERTEX
  8
0
 10
56.51152974
 20
-114.21400737
  0
VERTEX
  8
0
 10
55.73489064
 20
-113.57612647
  0
VERTEX
  8
0
 10
54.94311745
 20
-112.95117996
  0
VERTEX
  8
0
 10
54.74907747
 20
-112.77837748
  0
VERTEX
  8
0
 10
54.50082895
 20
-112.52599898
  0
VERTEX
  8
0
 10
53.83998313
 20
-111.82249829
  0
VERTEX
  8
0
 10
52.95713362
 20
-110.92064667
  0
VERTEX
  8
0
 10
52.43138049
 20
-110.42032949
  0
VERTEX
  8
0
 10
51.84883405
 20
-109.90041287
  0
VERTEX
  8
0
 10
51.20906350
 20
-109.37089290
  0
VERTEX
  8
0
 10
50.51163805
 20
-108.84176568
  0
VERTEX
  8
0
 10
49.75612690
 20
-108.32302730
  0
VERTEX
  8
0
 10
48.94209926
 20
-107.82467385
  0
VERTEX
  8
0
 10
48.51300713
 20
-107.58626526
  0
VERTEX
  8
0
 10
48.06912433
 20
-107.35670144
  0
VERTEX
  8
0
 10
47.61039700
 20
-107.13723191
  0
VERTEX
  8
0
 10
47.13677130
 20
-106.92910616
  0
VERTEX
  8
0
 10
46.64819339
 20
-106.73357373
  0
VERTEX
  8
0
 10
46.14460940
 20
-106.55188411
  0
VERTEX
  8
0
 10
45.62596549
 20
-106.38528682
  0
VERTEX
  8
0
 10
45.09220782
 20
-106.23503138
  0
SEQEND
  0
POLYLINE
  8
Векторный_слой_3
 66
   1
 39
0.000000
 70
    1
  0
VERTEX
  8
0
 10
40.51195089
 20
-82.20013923
  0
VERTEX
  8
0
 10
42.28944025
 20
-82.90446597
  0
VERTEX
  8
0
 10
43.96606375
 20
-83.54097934
  0
VERTEX
  8
0
 10
45.64753364
 20
-84.13416095
  0
VERTEX
  8
0
 10
47.43956217
 20
-84.70849237
  0
VERTEX
  8
0
 10
47.67252558
 20
-84.71009677
  0
VERTEX
  8
0
 10
47.88230746
 20
-84.66559458
  0
VERTEX
  8
0
 10
48.07270614
 20
-84.58216845
  0
VERTEX
  8
0
 10
48.24751998
 20
-84.46700100
  0
VERTEX
  8
0
 10
48.41054733
 20
-84.32727487
  0
VERTEX
  8
0
 10
48.56558655
 20
-84.17017270
  0
VERTEX
  8
0
 10
48.86689399
 20
-83.83257076
  0
VERTEX
  8
0
 10
49.65438813
 20
-82.96703296
  0
VERTEX
  8
0
 10
50.03006297
 20
-82.58489262
  0
VERTEX
  8
0
 10
50.39993891
 20
-82.24252166
  0
VERTEX
  8
0
 10
50.76870290
 20
-81.94443287
  0
VERTEX
  8
0
 10
51.14104188
 20
-81.69513900
  0
VERTEX
  8
0
 10
51.52164282
 20
-81.49915283
  0
VERTEX
  8
0
 10
51.71650618
 20
-81.42256037
  0
VERTEX
  8
0
 10
51.91519264
 20
-81.36098712
  0
VERTEX
  8
0
 10
52.11828805
 20
-81.31499718
  0
VERTEX
  8
0
 10
52.32637829
 20
-81.28515464
  0
VERTEX
  8
0
 10
52.54004923
 20
-81.27202360
  0
VERTEX
  8
0
 10
52.75988673
 20
-81.27616816
  0
VERTEX
  8
0
 10
52.98647667
 20
-81.29815241
  0
VERTEX
  8
0
 10
53.22040490
 20
-81.33854044
  0
VERTEX
  8
0
 10
53.46225730
 20
-81.39789636
  0
VERTEX
  8
0
 10
53.71261974
 20
-81.47678425
  0
VERTEX
  8
0
 10
53.97207809
 20
-81.57576822
  0
VERTEX
  8
0
 10
54.24121821
 20
-81.69541237
  0
VERTEX
  8
0
 10
54.81088724
 20
-81.99893755
  0
VERTEX
  8
0
 10
55.42631378
 20
-82.39187256
  0
VERTEX
  8
0
 10
56.09218479
 20
-82.87873018
  0
VERTEX
  8
0
 10
57.40058832
 20
-83.89517585
  0
VERTEX
  8
0
 10
58.73094816
 20
-84.90836206
  0
VERTEX
  8
0
 10
59.40722813
 20
-85.39782094
  0
VERTEX
  8
0
 10
60.09243688
 20
-85.86737064
  0
VERTEX
  8
0
 10
60.78772099
 20
-86.31064639
  0
VERTEX
  8
0
 10
61.49422703
 20
-86.72128342
  0
VERTEX
  8
0
 10
62.21310157
 20
-87.09291695
  0
VERTEX
  8
0
 10
62.94549118
 20
-87.41918222
  0
VERTEX
  8
0
 10
63.69254244
 20
-87.69371446
  0
VERTEX
  8
0
 10
64.07192448
 20
-87.80959169
  0
VERTEX
  8
0
 10
64.45540190
 20
-87.91014888
  0
VERTEX
  8
0
 10
64.84311802
 20
-87.99459043
  0
VERTEX
  8
0
 10
65.23521615
 20
-88.06212073
  0
VERTEX
  8
0
 10
65.63183962
 20
-88.11194420
  0
VERTEX
  8
0
 10
66.03313175
 20
-88.14326523
  0
VERTEX
  8
0
 10
66.43923586
 20
-88.15528823
  0
VERTEX
  8
0
 10
66.85029527
 20
-88.14721761
  0
VERTEX
  8
0
 10
67.26645331
 20
-88.11825776
  0
VERTEX
  8
0
 10
67.68785329
 20
-88.06761310
  0
VERTEX
  8
0
 10
68.15569124
 20
-87.91169586
  0
VERTEX
  8
0
 10
68.62824791
 20
-87.80549920
  0
VERTEX
  8
0
 10
69.10444252
 20
-87.74688545
  0
VERTEX
  8
0
 10
69.58319429
 20
-87.73371696
  0
VERTEX
  8
0
 10
70.06342245
 20
-87.76385603
  0
VERTEX
  8
0
 10
70.54404623
 20
-87.83516502
  0
VERTEX
  8
0
 10
71.02398485
 20
-87.94550625
  0
VERTEX
  8
0
 10
71.50215752
 20
-88.09274205
  0
VERTEX
  8
0
 10
71.97748349
 20
-88.27473475
  0
VERTEX
  8
0
 10
72.44888198
 20
-88.48934669
  0
VERTEX
  8
0
 10
72.91527220
 20
-88.73444020
  0
VERTEX
  8
0
 10
73.37557340
 20
-89.00787761
  0
VERTEX
  8
0
 10
73.82870478
 20
-89.30752125
  0
VERTEX
  8
0
 10
74.27358558
 20
-89.63123345
  0
VERTEX
  8
0
 10
74.70913502
 20
-89.97687654
  0
VERTEX
  8
0
 10
75.13427232
 20
-90.34231287
  0
VERTEX
  8
0
 10
75.54791672
 20
-90.72540475
  0
VERTEX
  8
0
 10
75.94898744
 20
-91.12401452
  0
VERTEX
  8
0
 10
76.33640369
 20
-91.53600452
  0
VERTEX
  8
0
 10
76.70908472
 20
-91.95923706
  0
VERTEX
  8
0
 10
77.06594974
 20
-92.39157450
  0
VERTEX
  8
0
 10
77.40591797
 20
-92.83087915
  0
VERTEX
  8
0
 10
77.72790865
 20
-93.27501335
  0
VERTEX
  8
0
 10
78.03084100
 20
-93.72183943
  0
VERTEX
  8
0
 10
78.31363424
 20
-94.16921972
  0
VERTEX
  8
0
 10
78.57520760
 20
-94.61501656
  0
VERTEX
  8
0
 10
78.81448030
 20
-95.05709228
  0
VERTEX
  8
0
 10
79.03037158
 20
-95.49330920
  0
VERTEX
  8
0
 10
79.22180064
 20
-95.92152966
  0
VERTEX
  8
0
 10
79.38768673
 20
-96.33961599
  0
VERTEX
  8
0
 10
79.52694906
 20
-96.74543053
  0
VERTEX
  8
0
 10
79.63850687
 20
-97.13683560
  0
VERTEX
  8
0
 10
80.24781496
 20
-97.46235280
  0
VERTEX
  8
0
 10
80.87046829
 20
-97.75866475
  0
VERTEX
  8
0
 10
81.50357764
 20
-98.03113591
  0
VERTEX
  8
0
 10
82.14425378
 20
-98.28513070
  0
VERTEX
  8
0
 10
83.43674957
 20
-98.75914893
  0
VERTEX
  8
0
 10
84.72484187
 20
-99.22363496
  0
VERTEX
  8
0
 10
85.36001366
 20
-99.46571449
  0
VERTEX
  8
0
 10
85.98541691
 20
-99.72150428
  0
VERTEX
  8
0
 10
86.59816240
 20
-99.99636876
  0
VERTEX
  8
0
 10
87.19536091
 20
-100.29567238
  0
VERTEX
  8
0
 10
87.77412320
 20
-100.62477957
  0
VERTEX
  8
0
 10
88.33156007
 20
-100.98905476
  0
VERTEX
  8
0
 10
88.86478229
 20
-101.39386240
  0
VERTEX
  8
0
 10
89.37090063
 20
-101.84456693
  0
VERTEX
  8
0
 10
89.81344698
 20
-102.23647101
  0
VERTEX
  8
0
 10
90.22208898
 20
-102.64331747
  0
VERTEX
  8
0
 10
90.59792526
 20
-103.06435991
  0
VERTEX
  8
0
 10
90.94205448
 20
-103.49885196
  0
VERTEX
  8
0
 10
91.25557526
 20
-103.94604724
  0
VERTEX
  8
0
 10
91.53958626
 20
-104.40519937
  0
VERTEX
  8
0
 10
91.79518611
 20
-104.87556198
  0
VERTEX
  8
0
 10
92.02347346
 20
-105.35638868
  0
VERTEX
  8
0
 10
92.22554695
 20
-105.84693310
  0
VERTEX
  8
0
 10
92.40250522
 20
-106.34644886
  0
VERTEX
  8
0
 10
92.55544691
 20
-106.85418958
  0
VERTEX
  8
0
 10
92.68547067
 20
-107.36940889
  0
VERTEX
  8
0
 10
92.79367513
 20
-107.89136040
  0
VERTEX
  8
0
 10
92.88115894
 20
-108.41929774
  0
VERTEX
  8
0
 10
92.94902075
 20
-108.95247453
  0
VERTEX
  8
0
 10
92.99835918
 20
-109.49014439
  0
VERTEX
  8
0
 10
93.03027289
 20
-110.03156094
  0
VERTEX
  8
0
 10
93.04586052
 20
-110.57597781
  0
VERTEX
  8
0
 10
93.03245209
 20
-111.67082697
  0
VERTEX
  8
0
 10
92.96692303
 20
-112.76872086
  0
VERTEX
  8
0
 10
92.85806247
 20
-113.86368844
  0
VERTEX
  8
0
 10
92.71465956
 20
-114.94975869
  0
VERTEX
  8
0
 10
92.54550342
 20
-116.02096059
  0
VERTEX
  8
0
 10
92.35938319
 20
-117.07132311
  0
VERTEX
  8
0
 10
92.16508801
 20
-118.09487523
  0
VERTEX
  8
0
 10
92.21882129
 20
-118.39637811
  0
VERTEX
  8
0
 10
92.29374350
 20
-118.68388078
  0
VERTEX
  8
0
 10
92.38825013
 20
-118.95846279
  0
VERTEX
  8
0
 10
92.50073666
 20
-119.22120371
  0
VERTEX
  8
0
 10
92.62959860
 20
-119.47318312
  0
VERTEX
  8
0
 10
92.77323143
 20
-119.71548058
  0
VERTEX
  8
0
 10
93.09839174
 20
-120.17534793
  0
VERTEX
  8
0
 10
93.46338153
 20
-120.60944230
  0
VERTEX
  8
0
 10
93.85536474
 20
-121.02640024
  0
VERTEX
  8
0
 10
94.66896714
 20
-121.84345304
  0
VERTEX
  8
0
 10
94.96682822
 20
-122.16261647
  0
VERTEX
  8
0
 10
95.24242583
 20
-122.49032861
  0
VERTEX
  8
0
 10
95.49543003
 20
-122.82691996
  0
VERTEX
  8
0
 10
95.72551084
 20
-123.17272102
  0
VERTEX
  8
0
 10
95.93233832
 20
-123.52806229
  0
VERTEX
  8
0
 10
96.11558251
 20
-123.89327428
  0
VERTEX
  8
0
 10
96.27491346
 20
-124.26868748
  0
VERTEX
  8
0
 10
96.41000120
 20
-124.65463241
  0
VERTEX
  8
0
 10
96.52051579
 20
-125.05143957
  0
VERTEX
  8
0
 10
96.60612726
 20
-125.45943946
  0
VERTEX
  8
0
 10
96.66650565
 20
-125.87896258
  0
VERTEX
  8
0
 10
96.70132103
 20
-126.31033943
  0
VERTEX
  8
0
 10
96.71024342
 20
-126.75390053
  0
VERTEX
  8
0
 10
96.69294287
 20
-127.20997636
  0
VERTEX
  8
0
 10
96.64908942
 20
-127.67889745
  0
VERTEX
  8
0
 10
96.57835313
 20
-128.16099428
  0
VERTEX
  8
0
 10
96.27975981
 20
-128.48569770
  0
VERTEX
  8
0
 10
95.96937814
 20
-128.78949338
  0
VERTEX
  8
0
 10
95.64863932
 20
-129.07715081
  0
VERTEX
  8
0
 10
95.31897456
 20
-129.35343947
  0
VERTEX
  8
0
 10
93.93968011
 20
-130.44029586
  0
VERTEX
  8
0
 10
92.82548043
 20
-130.18067463
  0
VERTEX
  8
0
 10
91.70458413
 20
-129.95788589
  0
VERTEX
  8
0
 10
90.57761088
 20
-129.77169100
  0
VERTEX
  8
0
 10
89.44518034
 20
-129.62185137
  0
VERTEX
  8
0
 10
88.30791218
 20
-129.50812837
  0
VERTEX
  8
0
 10
87.16642608
 20
-129.43028339
  0
VERTEX
  8
0
 10
86.02134169
 20
-129.38807782
  0
VERTEX
  8
0
 10
84.87327869
 20
-129.38127304
  0
VERTEX
  8
0
 10
83.72285674
 20
-129.40963045
  0
VERTEX
  8
0
 10
82.57069551
 20
-129.47291142
  0
VERTEX
  8
0
 10
81.41741467
 20
-129.57087735
  0
VERTEX
  8
0
 10
80.26363388
 20
-129.70328962
  0
VERTEX
  8
0
 10
79.10997281
 20
-129.86990962
  0
VERTEX
  8
0
 10
77.95705113
 20
-130.07049874
  0
VERTEX
  8
0
 10
76.80548851
 20
-130.30481836
  0
VERTEX
  8
0
 10
75.65590462
 20
-130.57262986
  0
VERTEX
  8
0
 10
75.71259673
 20
-130.03740267
  0
VERTEX
  8
0
 10
75.81552896
 20
-129.49247312
  0
VERTEX
  8
0
 10
75.95482020
 20
-128.93936745
  0
VERTEX
  8
0
 10
76.12058937
 20
-128.37961188
  0
VERTEX
  8
0
 10
76.49203707
 20
-127.24625607
  0
VERTEX
  8
0
 10
76.67795340
 20
-126.67570829
  0
VERTEX
  8
0
 10
76.85082325
 20
-126.10461559
  0
VERTEX
  8
0
 10
77.59031302
 20
-125.38283931
  0
VERTEX
  8
0
 10
78.35510486
 20
-124.69208570
  0
VERTEX
  8
0
 10
79.14063352
 20
-124.02483767
  0
VERTEX
  8
0
 10
79.94233378
 20
-123.37357812
  0
VERTEX
  8
0
 10
81.57598812
 20
-122.08895607
  0
VERTEX
  8
0
 10
82.39881173
 20
-121.44055938
  0
VERTEX
  8
0
 10
83.21954598
 20
-120.77808277
  0
VERTEX
  8
0
 10
83.06186163
 20
-120.34869541
  0
VERTEX
  8
0
 10
82.61877368
 20
-120.48603143
  0
VERTEX
  8
0
 10
82.16293041
 20
-120.60271151
  0
VERTEX
  8
0
 10
81.69612073
 20
-120.70191273
  0
VERTEX
  8
0
 10
81.22013358
 20
-120.78681220
  0
VERTEX
  8
0
 10
80.24778247
 20
-120.92641424
  0
VERTEX
  8
0
 10
79.26018844
 20
-121.04693440
  0
VERTEX
  8
0
 10
78.27166281
 20
-121.17378944
  0
VERTEX
  8
0
 10
77.29651692
 20
-121.33239613
  0
VERTEX
  8
0
 10
76.81843368
 20
-121.43154908
  0
VERTEX
  8
0
 10
76.34906212
 20
-121.54817124
  0
VERTEX
  8
0
 10
75.89019117
 20
-121.68543968
  0
VERTEX
  8
0
 10
75.44360973
 20
-121.84653152
  0
VERTEX
  8
0
 10
75.16551580
 20
-121.17541453
  0
VERTEX
  8
0
 10
74.89096142
 20
-120.45603836
  0
VERTEX
  8
0
 10
74.63030407
 20
-119.70305986
  0
VERTEX
  8
0
 10
74.39390123
 20
-118.93113589
  0
VERTEX
  8
0
 10
74.19211037
 20
-118.15492333
  0
VERTEX
  8
0
 10
74.03528898
 20
-117.38907903
  0
VERTEX
  8
0
 10
73.93379454
 20
-116.64825985
  0
VERTEX
  8
0
 10
73.90703163
 20
-116.29181495
  0
VERTEX
  8
0
 10
73.89798451
 20
-115.94712266
  0
VERTEX
  8
0
 10
74.60388949
 20
-115.31372897
  0
VERTEX
  8
0
 10
75.32986732
 20
-114.70611515
  0
VERTEX
  8
0
 10
76.07296740
 20
-114.12062301
  0
VERTEX
  8
0
 10
76.83023917
 20
-113.55359435
  0
VERTEX
  8
0
 10
77.59873204
 20
-113.00137096
  0
VERTEX
  8
0
 10
78.37549542
 20
-112.46029465
  0
VERTEX
  8
0
 10
79.94203139
 20
-111.39695044
  0
VERTEX
  8
0
 10
81.50624241
 20
-110.33429611
  0
VERTEX
  8
0
 10
82.28009960
 20
-109.79408216
  0
VERTEX
  8
0
 10
83.04452381
 20
-109.24306607
  0
VERTEX
  8
0
 10
83.79656444
 20
-108.67758964
  0
VERTEX
  8
0
 10
84.53327092
 20
-108.09399469
  0
VERTEX
  8
0
 10
85.25169266
 20
-107.48862299
  0
VERTEX
  8
0
 10
85.94887908
 20
-106.85781637
  0
VERTEX
  8
0
 10
85.95770821
 20
-106.78564232
  0
VERTEX
  8
0
 10
85.94297934
 20
-106.72386607
  0
VERTEX
  8
0
 10
85.90985030
 20
-106.67133962
  0
VERTEX
  8
0
 10
85.86347894
 20
-106.62691496
  0
VERTEX
  8
0
 10
85.75164060
 20
-106.55777910
  0
VERTEX
  8
0
 10
85.64872701
 20
-106.50727455
  0
VERTEX
  8
0
 10
81.79396714
 20
-108.22456363
  0
VERTEX
  8
0
 10
79.88976566
 20
-109.10057768
  0
VERTEX
  8
0
 10
78.00617358
 20
-109.99707117
  0
VERTEX
  8
0
 10
76.14705874
 20
-110.92071893
  0
VERTEX
  8
0
 10
74.31628897
 20
-111.87819578
  0
VERTEX
  8
0
 10
72.51773209
 20
-112.87617654
  0
VERTEX
  8
0
 10
71.63174219
 20
-113.39244178
  0
VERTEX
  8
0
 10
70.75525596
 20
-113.92133605
  0
VERTEX
  8
0
 10
69.79846367
 20
-112.65285629
  0
VERTEX
  8
0
 10
69.29982175
 20
-112.02780423
  0
VERTEX
  8
0
 10
68.78955956
 20
-111.41663398
  0
VERTEX
  8
0
 10
68.26908481
 20
-110.82516300
  0
VERTEX
  8
0
 10
67.73980517
 20
-110.25920876
  0
VERTEX
  8
0
 10
67.20312834
 20
-109.72458871
  0
VERTEX
  8
0
 10
66.66046201
 20
-109.22712031
  0
VERTEX
  8
0
 10
67.92034709
 20
-107.95769210
  0
VERTEX
  8
0
 10
69.21515159
 20
-106.71717377
  0
VERTEX
  8
0
 10
70.53375574
 20
-105.50075181
  0
VERTEX
  8
0
 10
71.86503979
 20
-104.30361275
  0
VERTEX
  8
0
 10
74.52116857
 20
-101.94792931
  0
VERTEX
  8
0
 10
75.82377379
 20
-100.77975796
  0
VERTEX
  8
0
 10
77.09457988
 20
-99.61161553
  0
VERTEX
  8
0
 10
76.56318011
 20
-99.09209393
  0
VERTEX
  8
0
 10
75.57508783
 20
-99.63959263
  0
VERTEX
  8
0
 10
74.50343464
 20
-100.25881029
  0
VERTEX
  8
0
 10
72.19074952
 20
-101.65332321
  0
VERTEX
  8
0
 10
69.78773268
 20
-103.15747419
  0
VERTEX
  8
0
 10
67.45699203
 20
-104.65310470
  0
VERTEX
  8
0
 10
65.36113551
 20
-106.02205622
  0
VERTEX
  8
0
 10
63.66277104
 20
-107.14617023
  0
VERTEX
  8
0
 10
62.10894995
 20
-108.18725167
  0
VERTEX
  8
0
 10
61.93206488
 20
-107.71843164
  0
VERTEX
  8
0
 10
61.79565687
 20
-107.25802370
  0
VERTEX
  8
0
 10
61.69783068
 20
-106.80559702
  0
VERTEX
  8
0
 10
61.63669111
 20
-106.36072081
  0
VERTEX
  8
0
 10
61.61034293
 20
-105.92296427
  0
VERTEX
  8
0
 10
61.61689092
 20
-105.49189658
  0
VERTEX
  8
0
 10
61.65443986
 20
-105.06708694
  0
VERTEX
  8
0
 10
61.72109452
 20
-104.64810455
  0
VERTEX
  8
0
 10
61.81495970
 20
-104.23451860
  0
VERTEX
  8
0
 10
61.93414017
 20
-103.82589828
  0
VERTEX
  8
0
 10
62.07674070
 20
-103.42181279
  0
VERTEX
  8
0
 10
62.24086609
 20
-103.02183133
  0
VERTEX
  8
0
 10
62.42462110
 20
-102.62552309
  0
VERTEX
  8
0
 10
62.62611051
 20
-102.23245726
  0
VERTEX
  8
0
 10
63.07471168
 20
-101.45432963
  0
VERTEX
  8
0
 10
63.57150783
 20
-100.68400198
  0
VERTEX
  8
0
 10
64.10133720
 20
-99.91802789
  0
VERTEX
  8
0
 10
65.19944852
 20
-98.38535459
  0
VERTEX
  8
0
 10
65.73740695
 20
-97.61176250
  0
VERTEX
  8
0
 10
66.24775154
 20
-96.82873819
  0
VERTEX
  8
0
 10
66.71532052
 20
-96.03283522
  0
VERTEX
  8
0
 10
66.92832611
 20
-95.62897723
  0
VERTEX
  8
0
 10
67.12495213
 20
-95.22060715
  0
VERTEX
  8
0
 10
67.17633769
 20
-95.07502542
  0
VERTEX
  8
0
 10
67.22551291
 20
-94.87947029
  0
VERTEX
  8
0
 10
67.31151048
 20
-94.42398213
  0
VERTEX
  8
0
 10
67.39404103
 20
-93.85429012
  0
VERTEX
  8
0
 10
66.26822227
 20
-94.31476089
  0
VERTEX
  8
0
 10
65.51430255
 20
-95.19459777
  0
VERTEX
  8
0
 10
64.76678966
 20
-96.08630518
  0
VERTEX
  8
0
 10
64.01472728
 20
-96.97426977
  0
VERTEX
  8
0
 10
63.24715909
 20
-97.84287815
  0
VERTEX
  8
0
 10
62.45312877
 20
-98.67651696
  0
VERTEX
  8
0
 10
62.04276647
 20
-99.07534359
  0
VERTEX
  8
0
 10
61.62168001
 20
-99.45957282
  0
VERTEX
  8
0
 10
61.18849987
 20
-99.82725297
  0
VERTEX
  8
0
 10
60.74185649
 20
-100.17643237
  0
VERTEX
  8
0
 10
60.28038035
 20
-100.50515934
  0
VERTEX
  8
0
 10
59.80270190
 20
-100.81148223
  0
VERTEX
  8
0
 10
55.94053014
 20
-95.23134976
  0
VERTEX
  8
0
 10
55.91489801
 20
-94.69095380
  0
VERTEX
  8
0
 10
55.91012713
 20
-94.15150369
  0
VERTEX
  8
0
 10
55.94423038
 20
-93.07407942
  0
VERTEX
  8
0
 10
56.00496247
 20
-91.99635363
  0
VERTEX
  8
0
 10
56.05444597
 20
-90.91560301
  0
VERTEX
  8
0
 10
56.06313280
 20
-90.37324234
  0
VERTEX
  8
0
 10
56.05480346
 20
-89.82910423
  0
VERTEX
  8
0
 10
56.02472326
 20
-89.28284824
  0
VERTEX
  8
0
 10
55.96815752
 20
-88.73413397
  0
VERTEX
  8
0
 10
55.88037157
 20
-88.18262101
  0
VERTEX
  8
0
 10
55.75663074
 20
-87.62796893
  0
VERTEX
  8
0
 10
55.59220033
 20
-87.06983732
  0
VERTEX
  8
0
 10
55.38234568
 20
-86.50788578
  0
VERTEX
  8
0
 10
54.59315245
 20
-86.69404614
  0
VERTEX
  8
0
 10
54.42474815
 20
-87.21884427
  0
VERTEX
  8
0
 10
54.28206092
 20
-87.76592716
  0
VERTEX
  8
0
 10
54.15781547
 20
-88.33002103
  0
VERTEX
  8
0
 10
54.04473653
 20
-88.90585211
  0
VERTEX
  8
0
 10
53.82297704
 20
-90.07163080
  0
VERTEX
  8
0
 10
53.69974594
 20
-90.65103087
  0
VERTEX
  8
0
 10
53.55858023
 20
-91.22107306
  0
VERTEX
  8
0
 10
53.39220462
 20
-91.77648360
  0
VERTEX
  8
0
 10
53.19334385
 20
-92.31198872
  0
VERTEX
  8
0
 10
52.95472263
 20
-92.82231465
  0
VERTEX
  8
0
 10
52.81822832
 20
-93.06638736
  0
VERTEX
  8
0
 10
52.66906567
 20
-93.30218761
  0
VERTEX
  8
0
 10
52.50632527
 20
-93.52905617
  0
VERTEX
  8
0
 10
52.32909771
 20
-93.74633383
  0
VERTEX
  8
0
 10
52.13647358
 20
-93.95336136
  0
VERTEX
  8
0
 10
51.92754346
 20
-94.14947955
  0
VERTEX
  8
0
 10
51.70139796
 20
-94.33402916
  0
VERTEX
  8
0
 10
51.45712765
 20
-94.50635098
  0
VERTEX
  8
0
 10
51.19382313
 20
-94.66578579
  0
VERTEX
  8
0
 10
50.91057499
 20
-94.81167436
  0
VERTEX
  8
0
 10
50.46736254
 20
-94.81254127
  0
VERTEX
  8
0
 10
50.04091664
 20
-94.78338626
  0
VERTEX
  8
0
 10
49.63028689
 20
-94.72598771
  0
VERTEX
  8
0
 10
49.23452292
 20
-94.64212403
  0
VERTEX
  8
0
 10
48.85267434
 20
-94.53357360
  0
VERTEX
  8
0
 10
48.48379078
 20
-94.40211483
  0
VERTEX
  8
0
 10
48.12692184
 20
-94.24952611
  0
VERTEX
  8
0
 10
47.78111715
 20
-94.07758584
  0
VERTEX
  8
0
 10
47.44542633
 20
-93.88807240
  0
VERTEX
  8
0
 10
47.11889899
 20
-93.68276420
  0
VERTEX
  8
0
 10
46.48953324
 20
-93.23187708
  0
VERTEX
  8
0
 10
45.88541683
 20
-92.73915163
  0
VERTEX
  8
0
 10
45.29894671
 20
-92.21881503
  0
VERTEX
  8
0
 10
44.14853313
 20
-91.15221699
  0
VERTEX
  8
0
 10
43.56938355
 20
-90.63440988
  0
VERTEX
  8
0
 10
42.97746803
 20
-90.14590025
  0
VERTEX
  8
0
 10
42.36518352
 20
-89.70091527
  0
VERTEX
  8
0
 10
42.04902694
 20
-89.49919050
  0
VERTEX
  8
0
 10
41.72492696
 20
-89.31368209
  0
VERTEX
  8
0
 10
41.39193321
 20
-89.14616841
  0
VERTEX
  8
0
 10
41.04909530
 20
-88.99842788
  0
VERTEX
  8
0
 10
40.69546284
 20
-88.87223887
  0
VERTEX
  8
0
 10
40.33008547
 20
-88.76937980
  0
VERTEX
  8
0
 10
39.27602394
 20
-88.39975201
  0
VERTEX
  8
0
 10
38.20313232
 20
-88.08444149
  0
VERTEX
  8
0
 10
37.11443640
 20
-87.82111406
  0
VERTEX
  8
0
 10
36.01296201
 20
-87.60743557
  0
VERTEX
  8
0
 10
34.90173493
 20
-87.44107184
  0
VERTEX
  8
0
 10
33.78378098
 20
-87.31968873
  0
VERTEX
  8
0
 10
32.66212597
 20
-87.24095206
  0
VERTEX
  8
0
 10
31.53979569
 20
-87.20252767
  0
VERTEX
  8
0
 10
31.92529254
 20
-86.66338818
  0
VERTEX
  8
0
 10
32.33640974
 20
-86.12804088
  0
VERTEX
  8
0
 10
32.77266471
 20
-85.60214433
  0
VERTEX
  8
0
 10
33.23357489
 20
-85.09135705
  0
VERTEX
  8
0
 10
33.71865772
 20
-84.60133757
  0
VERTEX
  8
0
 10
34.22743063
 20
-84.13774444
  0
VERTEX
  8
0
 10
34.75941108
 20
-83.70623618
  0
VERTEX
  8
0
 10
35.31411648
 20
-83.31247133
  0
VERTEX
  8
0
 10
35.89106428
 20
-82.96210841
  0
VERTEX
  8
0
 10
36.48977193
 20
-82.66080598
  0
VERTEX
  8
0
 10
36.79713489
 20
-82.53032073
  0
VERTEX
  8
0
 10
37.10975684
 20
-82.41422255
  0
VERTEX
  8
0
 10
37.42757748
 20
-82.31321876
  0
VERTEX
  8
0
 10
37.75053648
 20
-82.22801667
  0
VERTEX
  8
0
 10
38.07857351
 20
-82.15932360
  0
VERTEX
  8
0
 10
38.41162826
 20
-82.10784686
  0
VERTEX
  8
0
 10
38.74964041
 20
-82.07429378
  0
VERTEX
  8
0
 10
39.09254963
 20
-82.05937166
  0
VERTEX
  8
0
 10
39.44029561
 20
-82.06378784
  0
VERTEX
  8
0
 10
39.79281803
 20
-82.08824961
  0
VERTEX
  8
0
 10
40.15005656
 20
-82.13346430
  0
VERTEX
  8
0
 10
40.51195089
 20
-82.20013923
  0
SEQEND
  0
POLYLINE
  8
Векторный_слой_3
 66
   1
 39
0.000000
 70
    1
  0
VERTEX
  8
0
 10
32.54216318
 20
-91.09813781
  0
VERTEX
  8
0
 10
33.32159266
 20
-91.10549993
  0
VERTEX
  8
0
 10
34.10429989
 20
-91.13510935
  0
VERTEX
  8
0
 10
34.88710028
 20
-91.19064018
  0
VERTEX
  8
0
 10
35.66680922
 20
-91.27576647
  0
VERTEX
  8
0
 10
36.44024211
 20
-91.39416233
  0
VERTEX
  8
0
 10
37.20421436
 20
-91.54950183
  0
VERTEX
  8
0
 10
37.95554136
 20
-91.74545905
  0
VERTEX
  8
0
 10
38.69103852
 20
-91.98570808
  0
VERTEX
  8
0
 10
39.40752123
 20
-92.27392299
  0
VERTEX
  8
0
 10
40.10180489
 20
-92.61377788
  0
VERTEX
  8
0
 10
40.43962689
 20
-92.80421846
  0
VERTEX
  8
0
 10
40.77070491
 20
-93.00894681
  0
VERTEX
  8
0
 10
41.09464086
 20
-93.22842220
  0
VERTEX
  8
0
 10
41.41103668
 20
-93.46310388
  0
VERTEX
  8
0
 10
41.71949428
 20
-93.71345111
  0
VERTEX
  8
0
 10
42.01961560
 20
-93.97992316
  0
VERTEX
  8
0
 10
42.31100256
 20
-94.26297929
  0
VERTEX
  8
0
 10
42.59325708
 20
-94.56307874
  0
VERTEX
  8
0
 10
42.86598109
 20
-94.88068080
  0
VERTEX
  8
0
 10
43.12877651
 20
-95.21624470
  0
VERTEX
  8
0
 10
43.38124527
 20
-95.57022973
  0
VERTEX
  8
0
 10
43.62298930
 20
-95.94309513
  0
VERTEX
  8
0
 10
43.97948165
 20
-96.20708867
  0
VERTEX
  8
0
 10
44.34635142
 20
-96.43548890
  0
VERTEX
  8
0
 10
44.72272782
 20
-96.63078371
  0
VERTEX
  8
0
 10
45.10774006
 20
-96.79546100
  0
VERTEX
  8
0
 10
45.50051736
 20
-96.93200865
  0
VERTEX
  8
0
 10
45.90018893
 20
-97.04291456
  0
VERTEX
  8
0
 10
46.30588399
 20
-97.13066662
  0
VERTEX
  8
0
 10
46.71673175
 20
-97.19775272
  0
VERTEX
  8
0
 10
47.13186143
 20
-97.24666075
  0
VERTEX
  8
0
 10
47.55040224
 20
-97.27987860
  0
VERTEX
  8
0
 10
48.39423412
 20
-97.30919536
  0
VERTEX
  8
0
 10
49.24126112
 20
-97.30560611
  0
VERTEX
  8
0
 10
50.08451694
 20
-97.28901399
  0
VERTEX
  8
0
 10
50.91703532
 20
-97.27932214
  0
VERTEX
  8
0
 10
51.73184998
 20
-97.29643369
  0
VERTEX
  8
0
 10
52.13044145
 20
-97.32126048
  0
VERTEX
  8
0
 10
52.52199463
 20
-97.36025178
  0
VERTEX
  8
0
 10
52.90563874
 20
-97.41589550
  0
VERTEX
  8
0
 10
53.28050299
 20
-97.49067954
  0
VERTEX
  8
0
 10
53.64571660
 20
-97.58709177
  0
VERTEX
  8
0
 10
54.00040879
 20
-97.70762010
  0
VERTEX
  8
0
 10
54.34370876
 20
-97.85475240
  0
VERTEX
  8
0
 10
54.67474574
 20
-98.03097659
  0
VERTEX
  8
0
 10
54.99264894
 20
-98.23878054
  0
VERTEX
  8
0
 10
55.29654757
 20
-98.48065216
  0
VERTEX
  8
0
 10
55.58557085
 20
-98.75907932
  0
VERTEX
  8
0
 10
55.85884799
 20
-99.07654993
  0
VERTEX
  8
0
 10
56.41790966
 20
-99.81433824
  0
VERTEX
  8
0
 10
56.65923307
 20
-100.16066293
  0
VERTEX
  8
0
 10
56.87697847
 20
-100.49799755
  0
VERTEX
  8
0
 10
57.07256605
 20
-100.83088429
  0
VERTEX
  8
0
 10
57.24741602
 20
-101.16386532
  0
VERTEX
  8
0
 10
57.40294857
 20
-101.50148283
  0
VERTEX
  8
0
 10
57.54058391
 20
-101.84827900
  0
VERTEX
  8
0
 10
57.66174224
 20
-102.20879601
  0
VERTEX
  8
0
 10
57.76784376
 20
-102.58757603
  0
VERTEX
  8
0
 10
57.86030867
 20
-102.98916125
  0
VERTEX
  8
0
 10
57.94055716
 20
-103.41809386
  0
VERTEX
  8
0
 10
58.07008573
 20
-104.37616993
  0
VERTEX
  8
0
 10
58.16779108
 20
-105.49814170
  0
VERTEX
  8
0
 10
58.18092000
 20
-105.83749852
  0
VERTEX
  8
0
 10
58.17148612
 20
-106.19768679
  0
VERTEX
  8
0
 10
58.13029183
 20
-106.57646468
  0
VERTEX
  8
0
 10
58.04813955
 20
-106.97159036
  0
VERTEX
  8
0
 10
57.91583171
 20
-107.38082200
  0
VERTEX
  8
0
 10
57.72417071
 20
-107.80191774
  0
VERTEX
  8
0
 10
57.46395898
 20
-108.23263577
  0
VERTEX
  8
0
 10
57.30527234
 20
-108.45090257
  0
VERTEX
  8
0
 10
57.12599892
 20
-108.67073424
  0
VERTEX
  8
0
 10
51.44815277
 20
-104.93526077
  0
VERTEX
  8
0
 10
50.82057390
 20
-104.71743349
  0
VERTEX
  8
0
 10
50.19073846
 20
-104.52029333
  0
VERTEX
  8
0
 10
49.55878201
 20
-104.34291099
  0
VERTEX
  8
0
 10
48.92484012
 20
-104.18435719
  0
VERTEX
  8
0
 10
48.28904835
 20
-104.04370263
  0
VERTEX
  8
0
 10
47.65154225
 20
-103.92001801
  0
VERTEX
  8
0
 10
47.01245739
 20
-103.81237405
  0
VERTEX
  8
0
 10
46.37192931
 20
-103.71984145
  0
VERTEX
  8
0
 10
45.08708580
 20
-103.57639314
  0
VERTEX
  8
0
 10
43.79809618
 20
-103.48223875
  0
VERTEX
  8
0
 10
42.50604493
 20
-103.42994393
  0
VERTEX
  8
0
 10
41.21201655
 20
-103.41207432
  0
VERTEX
  8
0
 10
41.22276755
 20
-102.84270734
  0
VERTEX
  8
0
 10
41.21895073
 20
-101.44406089
  0
VERTEX
  8
0
 10
41.19467167
 20
-100.57881467
  0
VERTEX
  8
0
 10
41.14646138
 20
-99.68031674
  0
VERTEX
  8
0
 10
41.06755677
 20
-98.80658982
  0
VERTEX
  8
0
 10
40.95119475
 20
-98.01565664
  0
VERTEX
  8
0
 10
40.20443220
 20
-98.67044113
  0
VERTEX
  8
0
 10
39.41114454
 20
-99.33063271
  0
VERTEX
  8
0
 10
38.59343981
 20
-100.00184869
  0
VERTEX
  8
0
 10
37.77342603
 20
-100.68970638
  0
VERTEX
  8
0
 10
36.97321122
 20
-101.39982307
  0
VERTEX
  8
0
 10
36.58743719
 20
-101.76498395
  0
VERTEX
  8
0
 10
36.21490341
 20
-102.13781608
  0
VERTEX
  8
0
 10
35.85837339
 20
-102.51902160
  0
VERTEX
  8
0
 10
35.52061062
 20
-102.90930269
  0
VERTEX
  8
0
 10
35.20437862
 20
-103.30936151
  0
VERTEX
  8
0
 10
34.91244088
 20
-103.71990023
  0
VERTEX
  8
0
 10
34.04512104
 20
-100.70823769
  0
VERTEX
  8
0
 10
33.28491022
 20
-98.15875863
  0
VERTEX
  8
0
 10
32.91764930
 20
-96.97751105
  0
VERTEX
  8
0
 10
32.59494459
 20
-95.99360245
  0
VERTEX
  8
0
 10
32.31349203
 20
-96.50061275
  0
VERTEX
  8
0
 10
32.04563562
 20
-97.01625444
  0
VERTEX
  8
0
 10
31.79182288
 20
-97.53984736
  0
VERTEX
  8
0
 10
31.55250134
 20
-98.07071136
  0
VERTEX
  8
0
 10
31.32811855
 20
-98.60816631
  0
VERTEX
  8
0
 10
31.11912203
 20
-99.15153206
  0
VERTEX
  8
0
 10
30.92595932
 20
-99.70012846
  0
VERTEX
  8
0
 10
30.74907796
 20
-100.25327536
  0
VERTEX
  8
0
 10
30.58892548
 20
-100.81029262
  0
VERTEX
  8
0
 10
30.44594941
 20
-101.37050009
  0
VERTEX
  8
0
 10
30.32059728
 20
-101.93321763
  0
VERTEX
  8
0
 10
30.21331664
 20
-102.49776509
  0
VERTEX
  8
0
 10
30.12455502
 20
-103.06346232
  0
VERTEX
  8
0
 10
30.05475996
 20
-103.62962919
  0
VERTEX
  8
0
 10
30.00437897
 20
-104.19558553
  0
VERTEX
  8
0
 10
29.97385961
 20
-104.76065121
  0
VERTEX
  8
0
 10
29.13584729
 20
-104.07199623
  0
VERTEX
  8
0
 10
28.27965775
 20
-103.34970834
  0
VERTEX
  8
0
 10
27.40520814
 20
-102.61080249
  0
VERTEX
  8
0
 10
26.51241560
 20
-101.87229366
  0
VERTEX
  8
0
 10
25.60119725
 20
-101.15119678
  0
VERTEX
  8
0
 10
24.67147025
 20
-100.46452682
  0
VERTEX
  8
0
 10
24.19964010
 20
-100.13941910
  0
VERTEX
  8
0
 10
23.72315171
 20
-99.82929872
  0
VERTEX
  8
0
 10
23.24199473
 20
-99.53629255
  0
VERTEX
  8
0
 10
22.75615879
 20
-99.26252745
  0
VERTEX
  8
0
 10
22.88115905
 20
-99.72728445
  0
VERTEX
  8
0
 10
23.03146365
 20
-100.17971426
  0
VERTEX
  8
0
 10
23.20454120
 20
-100.62109297
  0
VERTEX
  8
0
 10
23.39786028
 20
-101.05269668
  0
VERTEX
  8
0
 10
23.60888950
 20
-101.47580148
  0
VERTEX
  8
0
 10
23.83509743
 20
-101.89168347
  0
VERTEX
  8
0
 10
24.32292383
 20
-102.70688338
  0
VERTEX
  8
0
 10
24.84108823
 20
-103.50850517
  0
VERTEX
  8
0
 10
25.36933936
 20
-104.30675760
  0
VERTEX
  8
0
 10
25.88742597
 20
-105.11184943
  0
VERTEX
  8
0
 10
26.37509681
 20
-105.93398941
  0
VERTEX
  8
0
 10
24.96437184
 20
-106.46548386
  0
VERTEX
  8
0
 10
23.58395159
 20
-107.03799735
  0
VERTEX
  8
0
 10
22.23340057
 20
-107.64980882
  0
VERTEX
  8
0
 10
20.91228334
 20
-108.29919717
  0
VERTEX
  8
0
 10
19.62016443
 20
-108.98444132
  0
VERTEX
  8
0
 10
18.35660839
 20
-109.70382017
  0
VERTEX
  8
0
 10
17.12117974
 20
-110.45561266
  0
VERTEX
  8
0
 10
15.91344304
 20
-111.23809768
  0
VERTEX
  8
0
 10
14.73296283
 20
-112.04955416
  0
VERTEX
  8
0
 10
13.57930363
 20
-112.88826101
  0
VERTEX
  8
0
 10
12.45203000
 20
-113.75249715
  0
VERTEX
  8
0
 10
11.35070647
 20
-114.64054148
  0
VERTEX
  8
0
 10
10.27489759
 20
-115.55067293
  0
VERTEX
  8
0
 10
9.22416788
 20
-116.48117041
  0
VERTEX
  8
0
 10
8.19808190
 20
-117.43031283
  0
VERTEX
  8
0
 10
7.19620419
 20
-118.39637911
  0
VERTEX
  8
0
 10
7.22422513
 20
-117.98862051
  0
VERTEX
  8
0
 10
7.23107528
 20
-117.57328762
  0
VERTEX
  8
0
 10
7.21904974
 20
-117.15113453
  0
VERTEX
  8
0
 10
7.19044365
 20
-116.72291533
  0
VERTEX
  8
0
 10
7.09267027
 20
-115.85129490
  0
VERTEX
  8
0
 10
6.95611611
 20
-114.96445902
  0
VERTEX
  8
0
 10
6.64010931
 20
-113.16927157
  0
VERTEX
  8
0
 10
6.49737861
 20
-112.27298534
  0
VERTEX
  8
0
 10
6.38931101
 20
-111.38561434
  0
VERTEX
  8
0
 10
6.35401367
 20
-110.94715726
  0
VERTEX
  8
0
 10
6.33426747
 20
-110.51319124
  0
VERTEX
  8
0
 10
6.33236753
 20
-110.08447037
  0
VERTEX
  8
0
 10
6.35060897
 20
-109.66174872
  0
VERTEX
  8
0
 10
6.39128691
 20
-109.24578039
  0
VERTEX
  8
0
 10
6.45669647
 20
-108.83731945
  0
VERTEX
  8
0
 10
6.54913277
 20
-108.43711998
  0
VERTEX
  8
0
 10
6.67089094
 20
-108.04593609
  0
VERTEX
  8
0
 10
6.82426609
 20
-107.66452184
  0
VERTEX
  8
0
 10
7.01155335
 20
-107.29363132
  0
VERTEX
  8
0
 10
7.23504784
 20
-106.93401862
  0
VERTEX
  8
0
 10
7.49704468
 20
-106.58643781
  0
VERTEX
  8
0
 10
7.79983898
 20
-106.25164299
  0
VERTEX
  8
0
 10
8.14572588
 20
-105.93038824
  0
VERTEX
  8
0
 10
8.53700049
 20
-105.62342764
  0
VERTEX
  8
0
 10
8.97595794
 20
-105.33151528
  0
VERTEX
  8
0
 10
9.46778359
 20
-105.04205944
  0
VERTEX
  8
0
 10
9.94061781
 20
-104.72975385
  0
VERTEX
  8
0
 10
10.38212901
 20
-104.38654529
  0
VERTEX
  8
0
 10
10.58728487
 20
-104.20083575
  0
VERTEX
  8
0
 10
10.77998563
 20
-104.00438051
  0
VERTEX
  8
0
 10
10.95868986
 20
-103.79617291
  0
VERTEX
  8
0
 10
11.12185609
 20
-103.57520630
  0
VERTEX
  8
0
 10
11.26794290
 20
-103.34047401
  0
VERTEX
  8
0
 10
11.39540882
 20
-103.09096940
  0
VERTEX
  8
0
 10
11.50271241
 20
-102.82568581
  0
VERTEX
  8
0
 10
11.58831223
 20
-102.54361658
  0
VERTEX
  8
0
 10
11.65066683
 20
-102.24375507
  0
VERTEX
  8
0
 10
11.68823476
 20
-101.92509462
  0
VERTEX
  8
0
 10
11.52605997
 20
-98.32637900
  0
VERTEX
  8
0
 10
11.92023069
 20
-98.12262784
  0
VERTEX
  8
0
 10
12.31647483
 20
-97.93581615
  0
VERTEX
  8
0
 10
12.71471310
 20
-97.76519724
  0
VERTEX
  8
0
 10
13.11486619
 20
-97.61002444
  0
VERTEX
  8
0
 10
13.92059970
 20
-97.34303043
  0
VERTEX
  8
0
 10
14.73304100
 20
-97.12886068
  0
VERTEX
  8
0
 10
15.55155574
 20
-96.96154174
  0
VERTEX
  8
0
 10
16.37550955
 20
-96.83510018
  0
VERTEX
  8
0
 10
17.20426808
 20
-96.74356254
  0
VERTEX
  8
0
 10
18.03719698
 20
-96.68095540
  0
VERTEX
  8
0
 10
18.87366188
 20
-96.64130530
  0
VERTEX
  8
0
 10
19.71302844
 20
-96.61863881
  0
VERTEX
  8
0
 10
21.39792910
 20
-96.60036287
  0
VERTEX
  8
0
 10
23.08682409
 20
-96.57834004
  0
VERTEX
  8
0
 10
23.93118358
 20
-96.55098994
  0
VERTEX
  8
0
 10
24.77463858
 20
-96.50478279
  0
VERTEX
  8
0
 10
25.22002928
 20
-96.12159388
  0
VERTEX
  8
0
 10
25.65142429
 20
-95.71060238
  0
VERTEX
  8
0
 10
26.07296782
 20
-95.27905952
  0
VERTEX
  8
0
 10
26.48880408
 20
-94.83421653
  0
VERTEX
  8
0
 10
27.31993159
 20
-93.93363506
  0
VERTEX
  8
0
 10
27.74351127
 20
-93.49239904
  0
VERTEX
  8
0
 10
28.17796050
 20
-93.06686781
  0
VERTEX
  8
0
 10
28.62742349
 20
-92.66429259
  0
VERTEX
  8
0
 10
29.09604446
 20
-92.29192462
  0
VERTEX
  8
0
 10
29.58796759
 20
-91.95701513
  0
VERTEX
  8
0
 10
30.10733712
 20
-91.66681534
  0
VERTEX
  8
0
 10
30.37860934
 20
-91.54074759
  0
VERTEX
  8
0
 10
30.65829723
 20
-91.42857648
  0
VERTEX
  8
0
 10
30.94691882
 20
-91.33120841
  0
VERTEX
  8
0
 10
31.24499214
 20
-91.24954979
  0
VERTEX
  8
0
 10
31.55303521
 20
-91.18450701
  0
VERTEX
  8
0
 10
31.87156605
 20
-91.13698649
  0
VERTEX
  8
0
 10
32.20110270
 20
-91.10789462
  0
VERTEX
  8
0
 10
32.54216318
 20
-91.09813781
  0
SEQEND
  0
POLYLINE
  8
Векторный_слой_3
 66
   1
 39
0.000000
 70
    1
  0
VERTEX
  8
0
 10
-8.50190890
 20
-116.26531202
  0
VERTEX
  8
0
 10
-8.23198150
 20
-115.96297564
  0
VERTEX
  8
0
 10
-7.99158818
 20
-115.64351141
  0
VERTEX
  8
0
 10
-7.77711386
 20
-115.30880352
  0
VERTEX
  8
0
 10
-7.58494346
 20
-114.96073614
  0
VERTEX
  8
0
 10
-7.41146190
 20
-114.60119347
  0
VERTEX
  8
0
 10
-7.25305409
 20
-114.23205967
  0
VERTEX
  8
0
 10
-6.96699944
 20
-113.47255544
  0
VERTEX
  8
0
 10
-6.69785885
 20
-112.69729690
  0
VERTEX
  8
0
 10
-6.41671166
 20
-111.92135750
  0
VERTEX
  8
0
 10
-6.26259790
 20
-111.53784294
  0
VERTEX
  8
0
 10
-6.09463725
 20
-111.15981070
  0
VERTEX
  8
0
 10
-5.90921462
 20
-110.78914496
  0
VERTEX
  8
0
 10
-5.70271494
 20
-110.42772992
  0
VERTEX
  8
0
 10
-5.53044733
 20
-109.90532735
  0
VERTEX
  8
0
 10
-5.39231710
 20
-109.37805988
  0
VERTEX
  8
0
 10
-5.28789454
 20
-108.84700794
  0
VERTEX
  8
0
 10
-5.21674993
 20
-108.31325200
  0
VERTEX
  8
0
 10
-5.17845357
 20
-107.77787248
  0
VERTEX
  8
0
 10
-5.17257575
 20
-107.24194985
  0
VERTEX
  8
0
 10
-5.19868675
 20
-106.70656454
  0
VERTEX
  8
0
 10
-5.25635687
 20
-106.17279701
  0
VERTEX
  8
0
 10
-5.34515640
 20
-105.64172769
  0
VERTEX
  8
0
 10
-5.46465562
 20
-105.11443705
  0
VERTEX
  8
0
 10
-5.61442482
 20
-104.59200551
  0
VERTEX
  8
0
 10
-5.79403431
 20
-104.07551354
  0
VERTEX
  8
0
 10
-6.00305435
 20
-103.56604156
  0
VERTEX
  8
0
 10
-6.24105526
 20
-103.06467005
  0
VERTEX
  8
0
 10
-6.50760731
 20
-102.57247942
  0
VERTEX
  8
0
 10
-6.80228079
 20
-102.09055015
  0
VERTEX
  8
0
 10
-6.88607686
 20
-101.58650288
  0
VERTEX
  8
0
 10
-6.95066039
 20
-101.08772414
  0
VERTEX
  8
0
 10
-6.99669263
 20
-100.59330086
  0
VERTEX
  8
0
 10
-7.02483486
 20
-100.10231997
  0
VERTEX
  8
0
 10
-7.03574833
 20
-99.61386839
  0
VERTEX
  8
0
 10
-7.03009428
 20
-99.12703306
  0
VERTEX
  8
0
 10
-7.00853399
 20
-98.64090090
  0
VERTEX
  8
0
 10
-6.97172871
 20
-98.15455885
  0
VERTEX
  8
0
 10
-6.46232419
 20
-97.42760943
  0
VERTEX
  8
0
 10
-5.95326843
 20
-96.73878534
  0
VERTEX
  8
0
 10
-5.44017229
 20
-96.08297363
  0
VERTEX
  8
0
 10
-4.91864662
 20
-95.45506132
  0
VERTEX
  8
0
 10
-4.38430225
 20
-94.84993546
  0
VERTEX
  8
0
 10
-3.83275004
 20
-94.26248309
  0
VERTEX
  8
0
 10
-3.25960083
 20
-93.68759124
  0
VERTEX
  8
0
 10
-2.66046547
 20
-93.12014696
  0
VERTEX
  8
0
 10
-1.48101290
 20
-93.48862065
  0
VERTEX
  8
0
 10
-0.93630465
 20
-92.84848080
  0
VERTEX
  8
0
 10
-0.40393409
 20
-92.19693992
  0
VERTEX
  8
0
 10
0.63614836
 20
-90.87261620
  0
VERTEX
  8
0
 10
1.66394328
 20
-89.54157167
  0
VERTEX
  8
0
 10
2.70415953
 20
-88.22972853
  0
VERTEX
  8
0
 10
3.23664716
 20
-87.58910817
  0
VERTEX
  8
0
 10
3.78150593
 20
-86.96300897
  0
VERTEX
  8
0
 10
4.34182446
 20
-86.35467122
  0
VERTEX
  8
0
 10
4.92069134
 20
-85.76733519
  0
VERTEX
  8
0
 10
5.52119519
 20
-85.20424114
  0
VERTEX
  8
0
 10
6.14642459
 20
-84.66862936
  0
VERTEX
  8
0
 10
6.79946817
 20
-84.16374012
  0
VERTEX
  8
0
 10
7.48341453
 20
-83.69281369
  0
VERTEX
  8
0
 10
9.48798009
 20
-83.60761229
  0
VERTEX
  8
0
 10
11.41940583
 20
-83.52336578
  0
VERTEX
  8
0
 10
11.82899563
 20
-83.72875616
  0
VERTEX
  8
0
 10
12.23691934
 20
-83.90598932
  0
VERTEX
  8
0
 10
12.64371231
 20
-84.05885080
  0
VERTEX
  8
0
 10
13.04990991
 20
-84.19112612
  0
VERTEX
  8
0
 10
13.86266044
 20
-84.40906039
  0
VERTEX
  8
0
 10
14.67945381
 20
-84.59007636
  0
VERTEX
  8
0
 10
15.50457291
 20
-84.76445824
  0
VERTEX
  8
0
 10
16.34230063
 20
-84.96249024
  0
VERTEX
  8
0
 10
16.76723112
 20
-85.07983886
  0
VERTEX
  8
0
 10
17.19691984
 20
-85.21445658
  0
VERTEX
  8
0
 10
17.63190216
 20
-85.37012895
  0
VERTEX
  8
0
 10
18.07271345
 20
-85.55064148
  0
VERTEX
  8
0
 10
18.43261147
 20
-85.55566939
  0
VERTEX
  8
0
 10
18.78824249
 20
-85.53238822
  0
VERTEX
  8
0
 10
19.14013131
 20
-85.48577794
  0
VERTEX
  8
0
 10
19.48880275
 20
-85.42081854
  0
VERTEX
  8
0
 10
20.17859267
 20
-85.25577232
  0
VERTEX
  8
0
 10
20.86181070
 20
-85.07708945
  0
VERTEX
  8
0
 10
21.54265529
 20
-84.92460981
  0
VERTEX
  8
0
 10
21.88349956
 20
-84.87064617
  0
VERTEX
  8
0
 10
22.22532489
 20
-84.83817329
  0
VERTEX
  8
0
 10
22.56865608
 20
-84.83217116
  0
VERTEX
  8
0
 10
22.91401794
 20
-84.85761977
  0
VERTEX
  8
0
 10
23.26193527
 20
-84.91949910
  0
VERTEX
  8
0
 10
23.61293289
 20
-85.02278914
  0
VERTEX
  8
0
 10
23.94214488
 20
-85.18388964
  0
VERTEX
  8
0
 10
24.25698798
 20
-85.35881145
  0
VERTEX
  8
0
 10
24.55738126
 20
-85.54744125
  0
VERTEX
  8
0
 10
24.84324375
 20
-85.74966572
  0
VERTEX
  8
0
 10
25.11449451
 20
-85.96537152
  0
VERTEX
  8
0
 10
25.37105259
 20
-86.19444533
  0
VERTEX
  8
0
 10
25.61283705
 20
-86.43677383
  0
VERTEX
  8
0
 10
25.83976693
 20
-86.69224369
  0
VERTEX
  8
0
 10
26.05176128
 20
-86.96074158
  0
VERTEX
  8
0
 10
26.24873917
 20
-87.24215418
  0
VERTEX
  8
0
 10
26.43061963
 20
-87.53636816
  0
VERTEX
  8
0
 10
26.59732172
 20
-87.84327019
  0
VERTEX
  8
0
 10
26.74876450
 20
-88.16274695
  0
VERTEX
  8
0
 10
26.88486700
 20
-88.49468512
  0
VERTEX
  8
0
 10
27.00554829
 20
-88.83897136
  0
VERTEX
  8
0
 10
27.11072742
 20
-89.19549235
  0
VERTEX
  8
0
 10
26.62872188
 20
-89.71099708
  0
VERTEX
  8
0
 10
26.15856880
 20
-90.24419382
  0
VERTEX
  8
0
 10
25.21743443
 20
-91.31667928
  0
VERTEX
  8
0
 10
24.72826033
 20
-91.83247598
  0
VERTEX
  8
0
 10
24.21455307
 20
-92.31898065
  0
VERTEX
  8
0
 10
23.94565689
 20
-92.54757784
  0
VERTEX
  8
0
 10
23.66721626
 20
-92.76444726
  0
VERTEX
  8
0
 10
23.37809415
 20
-92.96812067
  0
VERTEX
  8
0
 10
23.07715349
 20
-93.15712981
  0
VERTEX
  8
0
 10
22.22445990
 20
-93.28320642
  0
VERTEX
  8
0
 10
21.38665288
 20
-93.35295793
  0
VERTEX
  8
0
 10
20.56153340
 20
-93.37561984
  0
VERTEX
  8
0
 10
19.74690245
 20
-93.36042766
  0
VERTEX
  8
0
 10
18.94056101
 20
-93.31661689
  0
VERTEX
  8
0
 10
18.14031008
 20
-93.25342302
  0
VERTEX
  8
0
 10
16.54928365
 20
-93.10582799
  0
VERTEX
  8
0
 10
15.75411012
 20
-93.03989784
  0
VERTEX
  8
0
 10
14.95623102
 20
-92.99152660
  0
VERTEX
  8
0
 10
14.15344734
 20
-92.96994977
  0
VERTEX
  8
0
 10
13.34356007
 20
-92.98440284
  0
VERTEX
  8
0
 10
12.52437019
 20
-93.04412132
  0
VERTEX
  8
0
 10
11.69367868
 20
-93.15834072
  0
VERTEX
  8
0
 10
11.27333262
 20
-93.23877435
  0
VERTEX
  8
0
 10
10.84928652
 20
-93.33629652
  0
VERTEX
  8
0
 10
10.42126551
 20
-93.45206167
  0
VERTEX
  8
0
 10
9.98899471
 20
-93.58722423
  0
VERTEX
  8
0
 10
9.21100252
 20
-95.13507634
  0
VERTEX
  8
0
 10
8.90944631
 20
-95.15816848
  0
VERTEX
  8
0
 10
8.61201346
 20
-95.15508864
  0
VERTEX
  8
0
 10
8.31826242
 20
-95.12916154
  0
VERTEX
  8
0
 10
8.02775165
 20
-95.08371186
  0
VERTEX
  8
0
 10
7.45468475
 20
-94.94754353
  0
VERTEX
  8
0
 10
6.88928042
 20
-94.77318123
  0
VERTEX
  8
0
 10
6.32800632
 20
-94.58722251
  0
VERTEX
  8
0
 10
5.76733011
 20
-94.41626491
  0
VERTEX
  8
0
 10
5.20371947
 20
-94.28690600
  0
VERTEX
  8
0
 10
4.91970988
 20
-94.24613778
  0
VERTEX
  8
0
 10
4.63364205
 20
-94.22574332
  0
VERTEX
  8
0
 10
4.65797806
 20
-94.49339330
  0
VERTEX
  8
0
 10
4.70617401
 20
-94.76291481
  0
VERTEX
  8
0
 10
4.77585649
 20
-95.03404675
  0
VERTEX
  8
0
 10
4.86465210
 20
-95.30652802
  0
VERTEX
  8
0
 10
5.09008899
 20
-95.85449415
  0
VERTEX
  8
0
 10
5.36349738
 20
-96.40472439
  0
VERTEX
  8
0
 10
5.97827937
 20
-97.50362193
  0
VERTEX
  8
0
 10
6.28167834
 20
-98.04811161
  0
VERTEX
  8
0
 10
6.55709953
 20
-98.58651016
  0
VERTEX
  8
0
 10
6.78555563
 20
-99.11672875
  0
VERTEX
  8
0
 10
6.87623824
 20
-99.37811781
  0
VERTEX
  8
0
 10
6.94805933
 20
-99.63667858
  0
VERTEX
  8
0
 10
6.99864549
 20
-99.89214995
  0
VERTEX
  8
0
 10
7.02562331
 20
-100.14427084
  0
VERTEX
  8
0
 10
7.02661936
 20
-100.39278012
  0
VERTEX
  8
0
 10
6.99926024
 20
-100.63741671
  0
VERTEX
  8
0
 10
6.94117253
 20
-100.87791949
  0
VERTEX
  8
0
 10
6.84998282
 20
-101.11402738
  0
VERTEX
  8
0
 10
6.72331769
 20
-101.34547926
  0
VERTEX
  8
0
 10
6.55880372
 20
-101.57201404
  0
VERTEX
  8
0
 10
6.35406751
 20
-101.79337062
  0
VERTEX
  8
0
 10
6.10673564
 20
-102.00928789
  0
VERTEX
  8
0
 10
5.81443469
 20
-102.21950475
  0
VERTEX
  8
0
 10
5.47479125
 20
-102.42376011
  0
VERTEX
  8
0
 10
4.59442598
 20
-101.37533858
  0
VERTEX
  8
0
 10
3.77816332
 20
-100.48088051
  0
VERTEX
  8
0
 10
3.02499533
 20
-99.72847481
  0
VERTEX
  8
0
 10
2.33391407
 20
-99.10621039
  0
VERTEX
  8
0
 10
1.70391161
 20
-98.60217617
  0
VERTEX
  8
0
 10
1.13398000
 20
-98.20446106
  0
VERTEX
  8
0
 10
0.62311130
 20
-97.90115397
  0
VERTEX
  8
0
 10
0.17029758
 20
-97.68034382
  0
VERTEX
  8
0
 10
-0.22546910
 20
-97.53011952
  0
VERTEX
  8
0
 10
-0.56519670
 20
-97.43856999
  0
VERTEX
  8
0
 10
-0.84989313
 20
-97.39378413
  0
VERTEX
  8
0
 10
-1.08056635
 20
-97.38385087
  0
VERTEX
  8
0
 10
-1.25822429
 20
-97.39685911
  0
VERTEX
  8
0
 10
-1.38387490
 20
-97.42089777
  0
VERTEX
  8
0
 10
-1.48318586
 20
-97.45442200
  0
VERTEX
  8
0
 10
-0.74916384
 20
-98.81285487
  0
VERTEX
  8
0
 10
-0.01156150
 20
-100.13129839
  0
VERTEX
  8
0
 10
0.73313510
 20
-101.42021933
  0
VERTEX
  8
0
 10
1.48843986
 20
-102.69008449
  0
VERTEX
  8
0
 10
3.04492956
 20
-105.21451457
  0
VERTEX
  8
0
 10
4.68601895
 20
-107.78832288
  0
VERTEX
  8
0
 10
4.41692426
 20
-108.34293946
  0
VERTEX
  8
0
 10
4.17073881
 20
-108.90194870
  0
VERTEX
  8
0
 10
3.94883543
 20
-109.46502926
  0
VERTEX
  8
0
 10
3.75258694
 20
-110.03185978
  0
VERTEX
  8
0
 10
3.58336616
 20
-110.60211893
  0
VERTEX
  8
0
 10
3.44254590
 20
-111.17548536
  0
VERTEX
  8
0
 10
3.33149898
 20
-111.75163772
  0
VERTEX
  8
0
 10
3.25159822
 20
-112.33025468
  0
VERTEX
  8
0
 10
3.20421643
 20
-112.91101488
  0
VERTEX
  8
0
 10
3.19072644
 20
-113.49359699
  0
VERTEX
  8
0
 10
3.21250106
 20
-114.07767965
  0
VERTEX
  8
0
 10
3.27091310
 20
-114.66294153
  0
VERTEX
  8
0
 10
3.36733540
 20
-115.24906127
  0
VERTEX
  8
0
 10
3.50314075
 20
-115.83571754
  0
VERTEX
  8
0
 10
3.67970199
 20
-116.42258899
  0
VERTEX
  8
0
 10
3.89839193
 20
-117.00935428
  0
VERTEX
  8
0
 10
3.82709174
 20
-117.56896345
  0
VERTEX
  8
0
 10
3.75002423
 20
-118.51896962
  0
VERTEX
  8
0
 10
3.67522222
 20
-119.75018157
  0
VERTEX
  8
0
 10
3.61071853
 20
-121.15340809
  0
VERTEX
  8
0
 10
3.56454596
 20
-122.61945793
  0
VERTEX
  8
0
 10
3.54473735
 20
-124.03913989
  0
VERTEX
  8
0
 10
3.55932550
 20
-125.30326273
  0
VERTEX
  8
0
 10
3.58202862
 20
-125.84286723
  0
VERTEX
  8
0
 10
3.61634323
 20
-126.30263524
  0
VERTEX
  8
0
 10
3.58250475
 20
-126.54576787
  0
VERTEX
  8
0
 10
3.52046240
 20
-126.77924980
  0
VERTEX
  8
0
 10
3.43234874
 20
-126.99884902
  0
VERTEX
  8
0
 10
3.32029634
 20
-127.20033351
  0
VERTEX
  8
0
 10
3.18643778
 20
-127.37947129
  0
VERTEX
  8
0
 10
3.03290562
 20
-127.53203034
  0
VERTEX
  8
0
 10
2.86183244
 20
-127.65377866
  0
VERTEX
  8
0
 10
2.67535080
 20
-127.74048424
  0
VERTEX
  8
0
 10
2.57923365
 20
-127.74873934
  0
VERTEX
  8
0
 10
2.41398444
 20
-127.73292837
  0
VERTEX
  8
0
 10
1.90844805
 20
-127.63807548
  0
VERTEX
  8
0
 10
1.22345812
 20
-127.47386017
  0
VERTEX
  8
0
 10
0.42373114
 20
-127.25821700
  0
VERTEX
  8
0
 10
-0.42601639
 20
-127.00908055
  0
VERTEX
  8
0
 10
-1.26106798
 20
-126.74438538
  0
VERTEX
  8
0
 10
-2.01670715
 20
-126.48206607
  0
VERTEX
  8
0
 10
-2.62821740
 20
-126.24005720
  0
VERTEX
  8
0
 10
-3.70671424
 20
-125.66796088
  0
VERTEX
  8
0
 10
-4.77182876
 20
-125.13778515
  0
VERTEX
  8
0
 10
-5.29085611
 20
-124.90439527
  0
VERTEX
  8
0
 10
-5.79632400
 20
-124.70065884
  0
VERTEX
  8
0
 10
-6.28482783
 20
-124.53296699
  0
VERTEX
  8
0
 10
-6.75296296
 20
-124.40771081
  0
VERTEX
  8
0
 10
-6.58490904
 20
-124.13992499
  0
VERTEX
  8
0
 10
-6.44131973
 20
-123.87138748
  0
VERTEX
  8
0
 10
-6.32118541
 20
-123.60225949
  0
VERTEX
  8
0
 10
-6.22349643
 20
-123.33270222
  0
VERTEX
  8
0
 10
-6.14724317
 20
-123.06287687
  0
VERTEX
  8
0
 10
-6.09141599
 20
-122.79294466
  0
VERTEX
  8
0
 10
-6.05500526
 20
-122.52306680
  0
VERTEX
  8
0
 10
-6.03700135
 20
-122.25340448
  0
VERTEX
  8
0
 10
-6.03639463
 20
-121.98411892
  0
VERTEX
  8
0
 10
-6.05217546
 20
-121.71537132
  0
VERTEX
  8
0
 10
-6.12886126
 20
-121.18013484
  0
VERTEX
  8
0
 10
-6.25898169
 20
-120.64898470
  0
VERTEX
  8
0
 10
-6.43445968
 20
-120.12321055
  0
VERTEX
  8
0
 10
-6.64721818
 20
-119.60410206
  0
VERTEX
  8
0
 10
-6.88918013
 20
-119.09294887
  0
VERTEX
  8
0
 10
-7.15226846
 20
-118.59104066
  0
VERTEX
  8
0
 10
-7.42840613
 20
-118.09966706
  0
VERTEX
  8
0
 10
-7.98752122
 20
-117.15368236
  0
VERTEX
  8
0
 10
-8.50190890
 20
-116.26531202
  0
SEQEND
  0
POLYLINE
  8
Векторный_слой_3
 66
   1
 39
0.000000
 70
    1
  0
VERTEX
  8
0
 10
-8.68994937
 20
-127.36490894
  0
VERTEX
  8
0
 10
-8.40619535
 20
-127.35768972
  0
VERTEX
  8
0
 10
-7.61122576
 20
-127.37057197
  0
VERTEX
  8
0
 10
-7.04842223
 20
-127.40074172
  0
VERTEX
  8
0
 10
-6.38947932
 20
-127.45536552
  0
VERTEX
  8
0
 10
-5.64495188
 20
-127.54091960
  0
VERTEX
  8
0
 10
-4.82539475
 20
-127.66388019
  0
VERTEX
  8
0
 10
-3.94136275
 20
-127.83072353
  0
VERTEX
  8
0
 10
-3.00341074
 20
-128.04792583
  0
VERTEX
  8
0
 10
-2.02209355
 20
-128.32196333
  0
VERTEX
  8
0
 10
-1.00796602
 20
-128.65931226
  0
VERTEX
  8
0
 10
-0.49189676
 20
-128.85375234
  0
VERTEX
  8
0
 10
0.02841701
 20
-129.06644885
  0
VERTEX
  8
0
 10
0.55165595
 20
-129.29821134
  0
VERTEX
  8
0
 10
1.07650070
 20
-129.54984933
  0
VERTEX
  8
0
 10
1.60163191
 20
-129.82217235
  0
VERTEX
  8
0
 10
2.12573022
 20
-130.11598992
  0
VERTEX
  8
0
 10
2.64747627
 20
-130.43211158
  0
VERTEX
  8
0
 10
3.16555072
 20
-130.77134686
  0
VERTEX
  8
0
 10
3.79320981
 20
-130.54885298
  0
VERTEX
  8
0
 10
4.40672018
 20
-130.30914538
  0
VERTEX
  8
0
 10
5.00566652
 20
-130.05165653
  0
VERTEX
  8
0
 10
5.58963347
 20
-129.77581894
  0
VERTEX
  8
0
 10
6.15820572
 20
-129.48106509
  0
VERTEX
  8
0
 10
6.71096793
 20
-129.16682748
  0
VERTEX
  8
0
 10
7.24750476
 20
-128.83253860
  0
VERTEX
  8
0
 10
7.76740089
 20
-128.47763095
  0
VERTEX
  8
0
 10
8.27024097
 20
-128.10153701
  0
VERTEX
  8
0
 10
8.75560969
 20
-127.70368929
  0
VERTEX
  8
0
 10
9.22309170
 20
-127.28352027
  0
VERTEX
  8
0
 10
9.67227168
 20
-126.84046244
  0
VERTEX
  8
0
 10
10.10273429
 20
-126.37394830
  0
VERTEX
  8
0
 10
10.51406419
 20
-125.88341035
  0
VERTEX
  8
0
 10
10.90584607
 20
-125.36828107
  0
VERTEX
  8
0
 10
11.27766457
 20
-124.82799296
  0
VERTEX
  8
0
 10
11.47364685
 20
-124.62410657
  0
VERTEX
  8
0
 10
11.67781085
 20
-124.43602805
  0
VERTEX
  8
0
 10
11.88974141
 20
-124.26322047
  0
VERTEX
  8
0
 10
12.10902333
 20
-124.10514695
  0
VERTEX
  8
0
 10
12.33524143
 20
-123.96127057
  0
VERTEX
  8
0
 10
12.56798054
 20
-123.83105441
  0
VERTEX
  8
0
 10
13.05136102
 20
-123.60945517
  0
VERTEX
  8
0
 10
13.55584333
 20
-123.43605395
  0
VERTEX
  8
0
 10
14.07810598
 20
-123.30655550
  0
VERTEX
  8
0
 10
14.61482754
 20
-123.21666456
  0
VERTEX
  8
0
 10
15.16268653
 20
-123.16208586
  0
VERTEX
  8
0
 10
15.71836149
 20
-123.13852413
  0
VERTEX
  8
0
 10
16.27853097
 20
-123.14168413
  0
VERTEX
  8
0
 10
16.83987351
 20
-123.16727058
  0
VERTEX
  8
0
 10
17.39906764
 20
-123.21098822
  0
VERTEX
  8
0
 10
18.49772485
 20
-123.33563602
  0
VERTEX
  8
0
 10
19.54793091
 20
-123.48126543
  0
VERTEX
  8
0
 10
20.47056495
 20
-124.08428971
  0
VERTEX
  8
0
 10
21.36617357
 20
-124.69931537
  0
VERTEX
  8
0
 10
22.24029979
 20
-125.32886167
  0
VERTEX
  8
0
 10
23.09848664
 20
-125.97544787
  0
VERTEX
  8
0
 10
23.94627713
 20
-126.64159322
  0
VERTEX
  8
0
 10
24.78921429
 20
-127.32981699
  0
VERTEX
  8
0
 10
25.63284114
 20
-128.04263843
  0
VERTEX
  8
0
 10
26.48270070
 20
-128.78257681
  0
VERTEX
  8
0
 10
26.70414183
 20
-128.86939935
  0
VERTEX
  8
0
 10
26.92875354
 20
-128.93315082
  0
VERTEX
  8
0
 10
27.15621729
 20
-128.97614559
  0
VERTEX
  8
0
 10
27.38621457
 20
-129.00069804
  0
VERTEX
  8
0
 10
27.85253559
 20
-129.00373353
  0
VERTEX
  8
0
 10
28.32516835
 20
-128.96077231
  0
VERTEX
  8
0
 10
29.27917624
 20
-128.81091988
  0
VERTEX
  8
0
 10
29.75545490
 20
-128.74105875
  0
VERTEX
  8
0
 10
30.22785242
 20
-128.69926104
  0
VERTEX
  8
0
 10
31.30609566
 20
-128.70934551
  0
VERTEX
  8
0
 10
31.85369068
 20
-128.73306012
  0
VERTEX
  8
0
 10
32.40441183
 20
-128.77177112
  0
VERTEX
  8
0
 10
32.95636703
 20
-128.82738960
  0
VERTEX
  8
0
 10
33.50766418
 20
-128.90182665
  0
VERTEX
  8
0
 10
34.05641118
 20
-128.99699338
  0
VERTEX
  8
0
 10
34.60071594
 20
-129.11480088
  0
VERTEX
  8
0
 10
35.13868636
 20
-129.25716026
  0
VERTEX
  8
0
 10
35.66843034
 20
-129.42598259
  0
VERTEX
  8
0
 10
36.18805580
 20
-129.62317899
  0
VERTEX
  8
0
 10
36.69567064
 20
-129.85066056
  0
VERTEX
  8
0
 10
37.18938276
 20
-130.11033838
  0
VERTEX
  8
0
 10
37.66730007
 20
-130.40412355
  0
VERTEX
  8
0
 10
38.12753048
 20
-130.73392718
  0
VERTEX
  8
0
 10
38.56818187
 20
-131.10166035
  0
VERTEX
  8
0
 10
39.17682001
 20
-131.92729997
  0
VERTEX
  8
0
 10
39.76503006
 20
-132.77696169
  0
VERTEX
  8
0
 10
40.93296423
 20
-134.49686276
  0
VERTEX
  8
0
 10
41.53908748
 20
-135.34135776
  0
VERTEX
  8
0
 10
42.17758095
 20
-136.15838619
  0
VERTEX
  8
0
 10
42.51309138
 20
-136.55257788
  0
VERTEX
  8
0
 10
42.86164421
 20
-136.93507586
  0
VERTEX
  8
0
 10
43.22488938
 20
-137.30427111
  0
VERTEX
  8
0
 10
43.60447683
 20
-137.65855460
  0
VERTEX
  8
0
 10
44.78029558
 20
-138.04970045
  0
VERTEX
  8
0
 10
45.96710184
 20
-138.42122050
  0
VERTEX
  8
0
 10
47.15671350
 20
-138.79780427
  0
VERTEX
  8
0
 10
48.34094846
 20
-139.20414128
  0
VERTEX
  8
0
 10
48.92849276
 20
-139.42618274
  0
VERTEX
  8
0
 10
49.51162460
 20
-139.66492107
  0
VERTEX
  8
0
 10
50.08932121
 20
-139.92344248
  0
VERTEX
  8
0
 10
50.66055983
 20
-140.20483316
  0
VERTEX
  8
0
 10
51.22431769
 20
-140.51217928
  0
VERTEX
  8
0
 10
51.77957204
 20
-140.84856705
  0
VERTEX
  8
0
 10
52.32530010
 20
-141.21708266
  0
VERTEX
  8
0
 10
52.86047912
 20
-141.62081229
  0
VERTEX
  8
0
 10
53.16787984
 20
-141.84986941
  0
VERTEX
  8
0
 10
53.46330377
 20
-142.08979465
  0
VERTEX
  8
0
 10
53.74715850
 20
-142.34014679
  0
VERTEX
  8
0
 10
54.01985165
 20
-142.60048462
  0
VERTEX
  8
0
 10
54.53338361
 20
-143.14935254
  0
VERTEX
  8
0
 10
55.00716052
 20
-143.73286872
  0
VERTEX
  8
0
 10
55.44444322
 20
-144.34750349
  0
VERTEX
  8
0
 10
55.84849258
 20
-144.98972718
  0
VERTEX
  8
0
 10
56.22256944
 20
-145.65601011
  0
VERTEX
  8
0
 10
56.56993467
 20
-146.34282260
  0
VERTEX
  8
0
 10
56.89384912
 20
-147.04663499
  0
VERTEX
  8
0
 10
57.19757365
 20
-147.76391758
  0
VERTEX
  8
0
 10
57.48436911
 20
-148.49114072
  0
VERTEX
  8
0
 10
57.75749637
 20
-149.22477472
  0
VERTEX
  8
0
 10
58.27578966
 20
-150.69715662
  0
VERTEX
  8
0
 10
58.77854039
 20
-152.15282587
  0
VERTEX
  8
0
 10
58.70243242
 20
-152.34275945
  0
VERTEX
  8
0
 10
58.60367522
 20
-152.50684519
  0
VERTEX
  8
0
 10
58.48433403
 20
-152.64748340
  0
VERTEX
  8
0
 10
58.34647407
 20
-152.76707444
  0
VERTEX
  8
0
 10
58.19216058
 20
-152.86801864
  0
VERTEX
  8
0
 10
58.02345881
 20
-152.95271633
  0
VERTEX
  8
0
 10
57.84243400
 20
-153.02356786
  0
VERTEX
  8
0
 10
57.65115137
 20
-153.08297357
  0
VERTEX
  8
0
 10
57.24607364
 20
-153.17704885
  0
VERTEX
  8
0
 10
56.82474753
 20
-153.25414487
  0
VERTEX
  8
0
 10
56.40369493
 20
-153.33346434
  0
VERTEX
  8
0
 10
55.99943776
 20
-153.43420995
  0
VERTEX
  8
0
 10
55.18527810
 20
-153.53588082
  0
VERTEX
  8
0
 10
54.35732387
 20
-153.60150262
  0
VERTEX
  8
0
 10
53.51828243
 20
-153.64045799
  0
VERTEX
  8
0
 10
52.67086112
 20
-153.66212956
  0
VERTEX
  8
0
 10
50.96170834
 20
-153.69115189
  0
VERTEX
  8
0
 10
50.10539157
 20
-153.71726794
  0
VERTEX
  8
0
 10
49.25152436
 20
-153.76363076
  0
VERTEX
  8
0
 10
48.40281404
 20
-153.83962299
  0
VERTEX
  8
0
 10
47.56196799
 20
-153.95462729
  0
VERTEX
  8
0
 10
46.73169355
 20
-154.11802628
  0
VERTEX
  8
0
 10
46.32136673
 20
-154.22080587
  0
VERTEX
  8
0
 10
45.91469807
 20
-154.33920262
  0
VERTEX
  8
0
 10
45.51202599
 20
-154.47438936
  0
VERTEX
  8
0
 10
45.11368891
 20
-154.62753894
  0
VERTEX
  8
0
 10
44.72002524
 20
-154.79982417
  0
VERTEX
  8
0
 10
44.33137341
 20
-154.99241788
  0
VERTEX
  8
0
 10
43.94807184
 20
-155.20649291
  0
VERTEX
  8
0
 10
43.57045895
 20
-155.44322209
  0
VERTEX
  8
0
 10
43.19887315
 20
-155.70377825
  0
VERTEX
  8
0
 10
42.83365286
 20
-155.98933421
  0
VERTEX
  8
0
 10
42.16315924
 20
-156.06106730
  0
VERTEX
  8
0
 10
41.49304153
 20
-156.09246672
  0
VERTEX
  8
0
 10
40.82325231
 20
-156.09078053
  0
VERTEX
  8
0
 10
40.15374417
 20
-156.06325676
  0
VERTEX
  8
0
 10
38.81538153
 20
-155.95968865
  0
VERTEX
  8
0
 10
37.47757435
 20
-155.83974673
  0
VERTEX
  8
0
 10
36.80876055
 20
-155.79175571
  0
VERTEX
  8
0
 10
36.13994339
 20
-155.76141535
  0
VERTEX
  8
0
 10
35.47107547
 20
-155.75597372
  0
VERTEX
  8
0
 10
34.80210939
 20
-155.78267884
  0
VERTEX
  8
0
 10
34.13299774
 20
-155.84877877
  0
VERTEX
  8
0
 10
33.46369310
 20
-155.96152155
  0
VERTEX
  8
0
 10
32.79414809
 20
-156.12815521
  0
VERTEX
  8
0
 10
32.45927062
 20
-156.23394614
  0
VERTEX
  8
0
 10
32.12431528
 20
-156.35592780
  0
VERTEX
  8
0
 10
33.11329520
 20
-155.09821468
  0
VERTEX
  8
0
 10
34.11602461
 20
-153.87742169
  0
VERTEX
  8
0
 10
35.13179956
 20
-152.68117344
  0
VERTEX
  8
0
 10
36.15991614
 20
-151.49709452
  0
VERTEX
  8
0
 10
38.25035842
 20
-149.11594311
  0
VERTEX
  8
0
 10
39.31127626
 20
-147.89411983
  0
VERTEX
  8
0
 10
40.38171998
 20
-146.63496430
  0
VERTEX
  8
0
 10
40.22403563
 20
-146.20557693
  0
VERTEX
  8
0
 10
39.55905943
 20
-146.57712641
  0
VERTEX
  8
0
 10
38.83784833
 20
-147.03097891
  0
VERTEX
  8
0
 10
38.07332738
 20
-147.55323089
  0
VERTEX
  8
0
 10
37.27842164
 20
-148.12997877
  0
VERTEX
  8
0
 10
36.46605616
 20
-148.74731900
  0
VERTEX
  8
0
 10
35.64915598
 20
-149.39134801
  0
VERTEX
  8
0
 10
34.05345173
 20
-150.70385816
  0
VERTEX
  8
0
 10
32.59470931
 20
-151.95628072
  0
VERTEX
  8
0
 10
31.37632911
 20
-153.03738721
  0
VERTEX
  8
0
 10
30.50171154
 20
-153.83594913
  0
VERTEX
  8
0
 10
30.07425699
 20
-154.24073802
  0
VERTEX
  8
0
 10
29.77348402
 20
-154.53322834
  0
VERTEX
  8
0
 10
29.46601591
 20
-154.79685719
  0
VERTEX
  8
0
 10
29.14729917
 20
-155.01398314
  0
VERTEX
  8
0
 10
28.98229959
 20
-155.09959458
  0
VERTEX
  8
0
 10
28.81278029
 20
-155.16696474
  0
VERTEX
  8
0
 10
28.63817207
 20
-155.21388847
  0
VERTEX
  8
0
 10
28.45790576
 20
-155.23816057
  0
VERTEX
  8
0
 10
28.27141217
 20
-155.23757586
  0
VERTEX
  8
0
 10
28.07812210
 20
-155.20992917
  0
VERTEX
  8
0
 10
27.87746637
 20
-155.15301531
  0
VERTEX
  8
0
 10
27.66887579
 20
-155.06462910
  0
VERTEX
  8
0
 10
27.45178117
 20
-154.94256537
  0
VERTEX
  8
0
 10
27.22561333
 20
-154.78461894
  0
VERTEX
  8
0
 10
28.05606659
 20
-152.88592880
  0
VERTEX
  8
0
 10
28.85653975
 20
-151.01727890
  0
VERTEX
  8
0
 10
30.41788796
 20
-147.34446462
  0
VERTEX
  8
0
 10
31.20393412
 20
-145.52748268
  0
VERTEX
  8
0
 10
32.01034238
 20
-143.71490583
  0
VERTEX
  8
0
 10
32.84969829
 20
-141.90032528
  0
VERTEX
  8
0
 10
33.73458741
 20
-140.07733225
  0
VERTEX
  8
0
 10
33.67238517
 20
-140.03470600
  0
VERTEX
  8
0
 10
33.60334940
 20
-140.01036179
  0
VERTEX
  8
0
 10
33.52767438
 20
-140.00383935
  0
VERTEX
  8
0
 10
33.44555436
 20
-140.01467846
  0
VERTEX
  8
0
 10
33.26275634
 20
-140.08660034
  0
VERTEX
  8
0
 10
33.05650941
 20
-140.22244548
  0
VERTEX
  8
0
 10
32.82836765
 20
-140.41853195
  0
VERTEX
  8
0
 10
32.57988511
 20
-140.67117783
  0
VERTEX
  8
0
 10
32.31261586
 20
-140.97670117
  0
VERTEX
  8
0
 10
32.02811398
 20
-141.33142004
  0
VERTEX
  8
0
 10
31.41362857
 20
-142.17371665
  0
VERTEX
  8
0
 10
30.74886141
 20
-143.16861218
  0
VERTEX
  8
0
 10
30.04624503
 20
-144.28665117
  0
VERTEX
  8
0
 10
29.31821198
 20
-145.49837814
  0
VERTEX
  8
0
 10
28.57719479
 20
-146.77433762
  0
VERTEX
  8
0
 10
27.83562599
 20
-148.08507415
  0
VERTEX
  8
0
 10
26.40056373
 20
-150.69305648
  0
VERTEX
  8
0
 10
24.07085153
 20
-155.03030501
  0
VERTEX
  8
0
 10
21.94659995
 20
-152.47512978
  0
VERTEX
  8
0
 10
22.21434468
 20
-151.17807551
  0
VERTEX
  8
0
 10
22.44027120
 20
-149.94793888
  0
VERTEX
  8
0
 10
22.62656452
 20
-148.78303177
  0
VERTEX
  8
0
 10
22.77540962
 20
-147.68166610
  0
VERTEX
  8
0
 10
22.88899151
 20
-146.64215375
  0
VERTEX
  8
0
 10
22.96949520
 20
-145.66280663
  0
VERTEX
  8
0
 10
23.01910568
 20
-144.74193664
  0
VERTEX
  8
0
 10
23.04000795
 20
-143.87785567
  0
VERTEX
  8
0
 10
23.03438703
 20
-143.06887563
  0
VERTEX
  8
0
 10
23.00442790
 20
-142.31330841
  0
VERTEX
  8
0
 10
22.95231557
 20
-141.60946592
  0
VERTEX
  8
0
 10
22.88023505
 20
-140.95566005
  0
VERTEX
  8
0
 10
22.79037132
 20
-140.35020270
  0
VERTEX
  8
0
 10
22.68490940
 20
-139.79140577
  0
VERTEX
  8
0
 10
22.56603428
 20
-139.27758116
  0
VERTEX
  8
0
 10
22.43593097
 20
-138.80704077
  0
VERTEX
  8
0
 10
22.29678447
 20
-138.37809650
  0
VERTEX
  8
0
 10
22.15077977
 20
-137.98906025
  0
VERTEX
  8
0
 10
22.00010188
 20
-137.63824391
  0
VERTEX
  8
0
 10
21.84693581
 20
-137.32395939
  0
VERTEX
  8
0
 10
21.69346655
 20
-137.04451858
  0
VERTEX
  8
0
 10
21.54187910
 20
-136.79823339
  0
VERTEX
  8
0
 10
21.25308964
 20
-136.39837744
  0
VERTEX
  8
0
 10
20.99804746
 20
-136.11088674
  0
VERTEX
  8
0
 10
20.79423255
 20
-135.92225647
  0
VERTEX
  8
0
 10
20.61020461
 20
-135.78755803
  0
VERTEX
  8
0
 10
20.46171464
 20
-136.40355428
  0
VERTEX
  8
0
 10
20.33409874
 20
-137.02724982
  0
VERTEX
  8
0
 10
20.22408937
 20
-137.65782045
  0
VERTEX
  8
0
 10
20.12841900
 20
-138.29444193
  0
VERTEX
  8
0
 10
19.96702508
 20
-139.58254060
  0
VERTEX
  8
0
 10
19.82377664
 20
-140.88495208
  0
VERTEX
  8
0
 10
19.67253336
 20
-142.19508264
  0
VERTEX
  8
0
 10
19.48715492
 20
-143.50633852
  0
VERTEX
  8
0
 10
19.37349616
 20
-144.16032791
  0
VERTEX
  8
0
 10
19.24150098
 20
-144.81212598
  0
VERTEX
  8
0
 10
19.08790186
 20
-145.46090851
  0
VERTEX
  8
0
 10
18.90943124
 20
-146.10585127
  0
VERTEX
  8
0
 10
18.68194998
 20
-146.88194635
  0
VERTEX
  8
0
 10
18.38758099
 20
-147.82004051
  0
VERTEX
  8
0
 10
18.22430313
 20
-148.28228298
  0
VERTEX
  8
0
 10
18.05509080
 20
-148.70396009
  0
VERTEX
  8
0
 10
17.88353982
 20
-149.05805013
  0
VERTEX
  8
0
 10
17.71324599
 20
-149.31753139
  0
VERTEX
  8
0
 10
17.17188016
 20
-149.10189463
  0
VERTEX
  8
0
 10
16.66091045
 20
-148.86331591
  0
VERTEX
  8
0
 10
16.17896212
 20
-148.60283846
  0
VERTEX
  8
0
 10
15.72466039
 20
-148.32150552
  0
VERTEX
  8
0
 10
15.29663049
 20
-148.02036033
  0
VERTEX
  8
0
 10
14.89349767
 20
-147.70044613
  0
VERTEX
  8
0
 10
14.51388714
 20
-147.36280616
  0
VERTEX
  8
0
 10
14.15642415
 20
-147.00848365
  0
VERTEX
  8
0
 10
13.81973393
 20
-146.63852185
  0
VERTEX
  8
0
 10
13.50244171
 20
-146.25396399
  0
VERTEX
  8
0
 10
13.20317273
 20
-145.85585331
  0
VERTEX
  8
0
 10
12.92055222
 20
-145.44523306
  0
VERTEX
  8
0
 10
12.65320542
 20
-145.02314646
  0
VERTEX
  8
0
 10
12.39975755
 20
-144.59063676
  0
VERTEX
  8
0
 10
11.92905957
 20
-143.69852102
  0
VERTEX
  8
0
 10
11.49746014
 20
-142.77723174
  0
VERTEX
  8
0
 10
11.09396113
 20
-141.83511482
  0
VERTEX
  8
0
 10
10.32727188
 20
-139.92178172
  0
VERTEX
  8
0
 10
9.94208537
 20
-138.96725737
  0
VERTEX
  8
0
 10
9.54100675
 20
-138.02528902
  0
VERTEX
  8
0
 10
9.11303792
 20
-137.10422258
  0
VERTEX
  8
0
 10
8.64718072
 20
-136.21240397
  0
VERTEX
  8
0
 10
8.54448522
 20
-136.26881584
  0
VERTEX
  8
0
 10
8.45661737
 20
-136.36401722
  0
VERTEX
  8
0
 10
8.38281724
 20
-136.49587893
  0
VERTEX
  8
0
 10
8.32232490
 20
-136.66227178
  0
VERTEX
  8
0
 10
8.27438043
 20
-136.86106660
  0
VERTEX
  8
0
 10
8.23822389
 20
-137.09013421
  0
VERTEX
  8
0
 10
8.19823492
 20
-137.63057106
  0
VERTEX
  8
0
 10
8.19627856
 20
-138.26654891
  0
VERTEX
  8
0
 10
8.22627541
 20
-138.98103430
  0
VERTEX
  8
0
 10
8.28214603
 20
-139.75699380
  0
VERTEX
  8
0
 10
8.35781100
 20
-140.57739396
  0
VERTEX
  8
0
 10
8.54420635
 20
-142.28338253
  0
VERTEX
  8
0
 10
8.73682608
 20
-143.96273248
  0
VERTEX
  8
0
 10
8.88703482
 20
-145.47917628
  0
VERTEX
  8
0
 10
8.93103653
 20
-146.13372478
  0
VERTEX
  8
0
 10
8.94619723
 20
-146.69644642
  0
VERTEX
  8
0
 10
8.50060499
 20
-146.48910710
  0
VERTEX
  8
0
 10
8.05321358
 20
-146.29991269
  0
VERTEX
  8
0
 10
7.60428819
 20
-146.12727622
  0
VERTEX
  8
0
 10
7.15409403
 20
-145.96961072
  0
VERTEX
  8
0
 10
6.25096012
 20
-145.69284468
  0
VERTEX
  8
0
 10
5.34593339
 20
-145.45691878
  0
VERTEX
  8
0
 10
4.44113539
 20
-145.24913719
  0
VERTEX
  8
0
 10
3.53868765
 20
-145.05680411
  0
VERTEX
  8
0
 10
2.64071172
 20
-144.86722372
  0
VERTEX
  8
0
 10
1.74932913
 20
-144.66770021
  0
VERTEX
  8
0
 10
0.86666142
 20
-144.44553777
  0
VERTEX
  8
0
 10
-0.00516986
 20
-144.18804058
  0
VERTEX
  8
0
 10
-0.86404318
 20
-143.88251283
  0
VERTEX
  8
0
 10
-1.28795762
 20
-143.70777006
  0
VERTEX
  8
0
 10
-1.70783699
 20
-143.51625872
  0
VERTEX
  8
0
 10
-2.12341610
 20
-143.30639183
  0
VERTEX
  8
0
 10
-2.53442976
 20
-143.07658242
  0
VERTEX
  8
0
 10
-2.94061277
 20
-142.82524351
  0
VERTEX
  8
0
 10
-3.34169994
 20
-142.55078812
  0
VERTEX
  8
0
 10
-3.73742608
 20
-142.25162929
  0
VERTEX
  8
0
 10
-4.12752600
 20
-141.92618002
  0
VERTEX
  8
0
 10
-4.51173450
 20
-141.57285335
  0
VERTEX
  8
0
 10
-4.88978639
 20
-141.19006230
  0
VERTEX
  8
0
 10
-5.21698086
 20
-140.85241012
  0
VERTEX
  8
0
 10
-5.53701225
 20
-140.55574056
  0
VERTEX
  8
0
 10
-5.85508971
 20
-140.28865396
  0
VERTEX
  8
0
 10
-6.17642242
 20
-140.03975067
  0
VERTEX
  8
0
 10
-6.84969017
 20
-139.55089539
  0
VERTEX
  8
0
 10
-7.59848882
 20
-138.99797746
  0
VERTEX
  8
0
 10
-8.21099629
 20
-138.28764339
  0
VERTEX
  8
0
 10
-8.50580143
 20
-137.91733367
  0
VERTEX
  8
0
 10
-8.78280848
 20
-137.53486395
  0
VERTEX
  8
0
 10
-9.03439315
 20
-137.13868560
  0
VERTEX
  8
0
 10
-9.25293116
 20
-136.72724997
  0
VERTEX
  8
0
 10
-9.43079823
 20
-136.29900842
  0
VERTEX
  8
0
 10
-9.56037010
 20
-135.85241230
  0
VERTEX
  8
0
 10
-8.13027583
 20
-132.57779387
  0
VERTEX
  8
0
 10
-8.29668301
 20
-132.26166444
  0
VERTEX
  8
0
 10
-8.44060750
 20
-131.94255241
  0
VERTEX
  8
0
 10
-8.56311194
 20
-131.62082045
  0
VERTEX
  8
0
 10
-8.66525899
 20
-131.29683124
  0
VERTEX
  8
0
 10
-8.74811128
 20
-130.97094745
  0
VERTEX
  8
0
 10
-8.81273146
 20
-130.64353176
  0
VERTEX
  8
0
 10
-8.86018217
 20
-130.31494684
  0
VERTEX
  8
0
 10
-8.89152607
 20
-129.98555538
  0
VERTEX
  8
0
 10
-8.91014401
 20
-129.32580350
  0
VERTEX
  8
0
 10
-8.87708642
 20
-128.66717753
  0
VERTEX
  8
0
 10
-8.80085449
 20
-128.01257888
  0
VERTEX
  8
0
 10
-8.68994937
 20
-127.36490894
  0
SEQEND
  0
POLYLINE
  8
Векторный_слой_3
 66
   1
 39
0.000000
 70
    1
  0
VERTEX
  8
0
 10
15.24695105
 20
-177.93612381
  0
VERTEX
  8
0
 10
14.57748872
 20
-178.28102800
  0
VERTEX
  8
0
 10
13.90735363
 20
-178.57884018
  0
VERTEX
  8
0
 10
13.23648922
 20
-178.83269410
  0
VERTEX
  8
0
 10
12.56483894
 20
-179.04572348
  0
VERTEX
  8
0
 10
11.89234622
 20
-179.22106207
  0
VERTEX
  8
0
 10
11.21895450
 20
-179.36184361
  0
VERTEX
  8
0
 10
10.54460722
 20
-179.47120182
  0
VERTEX
  8
0
 10
9.86924783
 20
-179.55227045
  0
VERTEX
  8
0
 10
9.19281977
 20
-179.60818323
  0
VERTEX
  8
0
 10
8.51526647
 20
-179.64207391
  0
VERTEX
  8
0
 10
7.83653137
 20
-179.65707621
  0
VERTEX
  8
0
 10
7.15655792
 20
-179.65632387
  0
VERTEX
  8
0
 10
5.79266970
 20
-179.62009024
  0
VERTEX
  8
0
 10
4.42314935
 20
-179.55844292
  0
VERTEX
  8
0
 10
3.04754438
 20
-179.49645178
  0
VERTEX
  8
0
 10
1.66540231
 20
-179.45918674
  0
VERTEX
  8
0
 10
0.97173846
 20
-179.45766084
  0
VERTEX
  8
0
 10
0.27627066
 20
-179.47171768
  0
VERTEX
  8
0
 10
-0.42105765
 20
-179.50449099
  0
VERTEX
  8
0
 10
-1.12030304
 20
-179.55911450
  0
VERTEX
  8
0
 10
-1.82152206
 20
-179.63872196
  0
VERTEX
  8
0
 10
-2.52477128
 20
-179.74644710
  0
VERTEX
  8
0
 10
-3.23010725
 20
-179.88542365
  0
VERTEX
  8
0
 10
-3.93758653
 20
-180.05878537
  0
VERTEX
  8
0
 10
-4.64726568
 20
-180.26966597
  0
VERTEX
  8
0
 10
-5.35920127
 20
-180.52119920
  0
VERTEX
  8
0
 10
-6.07344985
 20
-180.81651880
  0
VERTEX
  8
0
 10
-6.79006798
 20
-181.15875850
  0
VERTEX
  8
0
 10
-7.32119958
 20
-181.09618490
  0
VERTEX
  8
0
 10
-7.84655558
 20
-181.01037027
  0
VERTEX
  8
0
 10
-8.36637442
 20
-180.90248723
  0
VERTEX
  8
0
 10
-8.88089456
 20
-180.77370843
  0
VERTEX
  8
0
 10
-9.39035442
 20
-180.62520648
  0
VERTEX
  8
0
 10
-9.89499246
 20
-180.45815403
  0
VERTEX
  8
0
 10
-10.39504713
 20
-180.27372371
  0
VERTEX
  8
0
 10
-10.89075685
 20
-180.07308815
  0
VERTEX
  8
0
 10
-11.87009526
 20
-179.62789183
  0
VERTEX
  8
0
 10
-12.83491523
 20
-179.13194613
  0
VERTEX
  8
0
 10
-13.78712433
 20
-178.59463212
  0
VERTEX
  8
0
 10
-14.72863008
 20
-178.02533086
  0
VERTEX
  8
0
 10
-15.66134004
 20
-177.43342340
  0
VERTEX
  8
0
 10
-16.58716176
 20
-176.82829080
  0
VERTEX
  8
0
 10
-18.42577065
 20
-175.61587442
  0
VERTEX
  8
0
 10
-19.34237292
 20
-175.02735276
  0
VERTEX
  8
0
 10
-20.25971712
 20
-174.46313020
  0
VERTEX
  8
0
 10
-21.17971081
 20
-173.93258781
  0
VERTEX
  8
0
 10
-22.10426154
 20
-173.44510662
  0
VERTEX
  8
0
 10
-22.77980455
 20
-173.36743678
  0
VERTEX
  8
0
 10
-23.44615790
 20
-173.26203231
  0
VERTEX
  8
0
 10
-24.10220035
 20
-173.13003671
  0
VERTEX
  8
0
 10
-24.74681068
 20
-172.97259348
  0
VERTEX
  8
0
 10
-25.37886766
 20
-172.79084613
  0
VERTEX
  8
0
 10
-25.99725006
 20
-172.58593816
  0
VERTEX
  8
0
 10
-26.60083665
 20
-172.35901307
  0
VERTEX
  8
0
 10
-27.18850622
 20
-172.11121436
  0
VERTEX
  8
0
 10
-27.75913752
 20
-171.84368553
  0
VERTEX
  8
0
 10
-28.31160933
 20
-171.55757008
  0
VERTEX
  8
0
 10
-28.84480043
 20
-171.25401152
  0
VERTEX
  8
0
 10
-29.35758958
 20
-170.93415335
  0
VERTEX
  8
0
 10
-29.84885555
 20
-170.59913906
  0
VERTEX
  8
0
 10
-30.31747713
 20
-170.25011216
  0
VERTEX
  8
0
 10
-30.76233308
 20
-169.88821615
  0
VERTEX
  8
0
 10
-31.18230217
 20
-169.51459454
  0
VERTEX
  8
0
 10
-31.57626318
 20
-169.13039081
  0
VERTEX
  8
0
 10
-31.94309487
 20
-168.73674848
  0
VERTEX
  8
0
 10
-32.28167603
 20
-168.33481105
  0
VERTEX
  8
0
 10
-32.59088542
 20
-167.92572202
  0
VERTEX
  8
0
 10
-32.86960181
 20
-167.51062488
  0
VERTEX
  8
0
 10
-33.11670398
 20
-167.09066314
  0
VERTEX
  8
0
 10
-33.33107070
 20
-166.66698031
  0
VERTEX
  8
0
 10
-33.51158074
 20
-166.24071988
  0
VERTEX
  8
0
 10
-33.65711287
 20
-165.81302535
  0
VERTEX
  8
0
 10
-33.76654586
 20
-165.38504023
  0
VERTEX
  8
0
 10
-33.83875850
 20
-164.95790801
  0
VERTEX
  8
0
 10
-33.87262954
 20
-164.53277220
  0
VERTEX
  8
0
 10
-33.86703777
 20
-164.11077631
  0
VERTEX
  8
0
 10
-33.82086194
 20
-163.69306382
  0
VERTEX
  8
0
 10
-33.73298085
 20
-163.28077825
  0
VERTEX
  8
0
 10
-33.60227325
 20
-162.87506309
  0
VERTEX
  8
0
 10
-33.44620481
 20
-162.34785201
  0
VERTEX
  8
0
 10
-33.32627010
 20
-161.82095162
  0
VERTEX
  8
0
 10
-33.24077961
 20
-161.29441153
  0
VERTEX
  8
0
 10
-33.18804382
 20
-160.76828139
  0
VERTEX
  8
0
 10
-33.16637323
 20
-160.24261083
  0
VERTEX
  8
0
 10
-33.17407832
 20
-159.71744948
  0
VERTEX
  8
0
 10
-33.20946957
 20
-159.19284697
  0
VERTEX
  8
0
 10
-33.27085749
 20
-158.66885294
  0
VERTEX
  8
0
 10
-33.35655255
 20
-158.14551702
  0
VERTEX
  8
0
 10
-33.46486524
 20
-157.62288884
  0
VERTEX
  8
0
 10
-33.59410606
 20
-157.10101804
  0
VERTEX
  8
0
 10
-33.74258548
 20
-156.57995424
  0
VERTEX
  8
0
 10
-33.90861400
 20
-156.05974709
  0
VERTEX
  8
0
 10
-34.09050211
 20
-155.54044620
  0
VERTEX
  8
0
 10
-34.49509904
 20
-154.50476179
  0
VERTEX
  8
0
 10
-34.55009852
 20
-154.16823321
  0
VERTEX
  8
0
 10
-34.58519123
 20
-153.83203073
  0
VERTEX
  8
0
 10
-34.60206528
 20
-153.49624066
  0
VERTEX
  8
0
 10
-34.60240878
 20
-153.16094933
  0
VERTEX
  8
0
 10
-34.56025660
 20
-152.49220817
  0
VERTEX
  8
0
 10
-34.47223960
 20
-151.82649782
  0
VERTEX
  8
0
 10
-34.35186272
 20
-151.16450886
  0
VERTEX
  8
0
 10
-34.21263085
 20
-150.50693187
  0
VERTEX
  8
0
 10
-33.93162188
 20
-149.20777610
  0
VERTEX
  8
0
 10
-32.55925451
 20
-148.45461472
  0
VERTEX
  8
0
 10
-31.16018328
 20
-147.71461190
  0
VERTEX
  8
0
 10
-29.77286121
 20
-146.95225490
  0
VERTEX
  8
0
 10
-29.09562267
 20
-146.55159584
  0
VERTEX
  8
0
 10
-28.43574131
 20
-146.13203095
  0
VERTEX
  8
0
 10
-27.79802375
 20
-145.68912114
  0
VERTEX
  8
0
 10
-27.18727661
 20
-145.21842731
  0
VERTEX
  8
0
 10
-26.60830652
 20
-144.71551037
  0
VERTEX
  8
0
 10
-26.06592012
 20
-144.17593122
  0
VERTEX
  8
0
 10
-25.80994786
 20
-143.89100611
  0
VERTEX
  8
0
 10
-25.56492402
 20
-143.59525078
  0
VERTEX
  8
0
 10
-25.33144940
 20
-143.28811035
  0
VERTEX
  8
0
 10
-25.11012485
 20
-142.96902994
  0
VERTEX
  8
0
 10
-24.90155119
 20
-142.63745466
  0
VERTEX
  8
0
 10
-24.70632925
 20
-142.29282961
  0
VERTEX
  8
0
 10
-24.52505985
 20
-141.93459993
  0
VERTEX
  8
0
 10
-24.35834383
 20
-141.56221071
  0
VERTEX
  8
0
 10
-23.96530648
 20
-141.13995328
  0
VERTEX
  8
0
 10
-23.55332738
 20
-140.71492508
  0
VERTEX
  8
0
 10
-23.11708753
 20
-140.30885506
  0
VERTEX
  8
0
 10
-22.88820763
 20
-140.11971967
  0
VERTEX
  8
0
 10
-22.65126791
 20
-139.94347218
  0
VERTEX
  8
0
 10
-22.40560350
 20
-139.78282873
  0
VERTEX
  8
0
 10
-22.15054952
 20
-139.64050542
  0
VERTEX
  8
0
 10
-21.88544110
 20
-139.51921838
  0
VERTEX
  8
0
 10
-21.60961336
 20
-139.42168373
  0
VERTEX
  8
0
 10
-21.32240142
 20
-139.35061758
  0
VERTEX
  8
0
 10
-21.02314041
 20
-139.30873607
  0
VERTEX
  8
0
 10
-20.71116545
 20
-139.29875531
  0
VERTEX
  8
0
 10
-20.38581166
 20
-139.32339141
  0
VERTEX
  8
0
 10
-19.06686445
 20
-139.72384591
  0
VERTEX
  8
0
 10
-17.75929714
 20
-140.09398666
  0
VERTEX
  8
0
 10
-15.15573964
 20
-140.80310090
  0
VERTEX
  8
0
 10
-13.84846815
 20
-141.17196139
  0
VERTEX
  8
0
 10
-12.53001399
 20
-141.57028213
  0
VERTEX
  8
0
 10
-11.19473650
 20
-142.01300662
  0
VERTEX
  8
0
 10
-9.83699503
 20
-142.51507835
  0
VERTEX
  8
0
 10
-8.68181172
 20
-143.17847211
  0
VERTEX
  8
0
 10
-7.54551858
 20
-143.86574187
  0
VERTEX
  8
0
 10
-5.29225612
 20
-145.26810241
  0
VERTEX
  8
0
 10
-4.15661343
 20
-145.96128968
  0
VERTEX
  8
0
 10
-3.00251421
 20
-146.63454594
  0
VERTEX
  8
0
 10
-1.82062176
 20
-147.27691945
  0
VERTEX
  8
0
 10
-1.21633537
 20
-147.58310275
  0
VERTEX
  8
0
 10
-0.60159942
 20
-147.87745846
  0
VERTEX
  8
0
 10
-2.28608013
 20
-148.08356530
  0
VERTEX
  8
0
 10
-4.11549121
 20
-148.33498963
  0
VERTEX
  8
0
 10
-6.35751404
 20
-148.67980858
  0
VERTEX
  8
0
 10
-7.57571532
 20
-148.88594744
  0
VERTEX
  8
0
 10
-8.82802209
 20
-149.11388266
  0
VERTEX
  8
0
 10
-10.09141853
 20
-149.36309678
  0
VERTEX
  8
0
 10
-11.34288881
 20
-149.63307238
  0
VERTEX
  8
0
 10
-12.55941713
 20
-149.92329202
  0
VERTEX
  8
0
 10
-13.71798767
 20
-150.23323826
  0
VERTEX
  8
0
 10
-14.79558460
 20
-150.56239367
  0
VERTEX
  8
0
 10
-15.76919211
 20
-150.91024081
  0
VERTEX
  8
0
 10
-15.31135570
 20
-151.69017000
  0
VERTEX
  8
0
 10
-14.45292165
 20
-151.69837822
  0
VERTEX
  8
0
 10
-13.44425172
 20
-151.66202411
  0
VERTEX
  8
0
 10
-12.30782743
 20
-151.59320446
  0
VERTEX
  8
0
 10
-11.06613029
 20
-151.50401607
  0
VERTEX
  8
0
 10
-8.35684356
 20
-151.31292031
  0
VERTEX
  8
0
 10
-6.93421700
 20
-151.23520654
  0
VERTEX
  8
0
 10
-5.49624368
 20
-151.18551123
  0
VERTEX
  8
0
 10
-4.06540511
 20
-151.17593120
  0
VERTEX
  8
0
 10
-3.35968683
 20
-151.18996466
  0
VERTEX
  8
0
 10
-2.66418280
 20
-151.21856325
  0
VERTEX
  8
0
 10
-1.98170323
 20
-151.26323905
  0
VERTEX
  8
0
 10
-1.31505829
 20
-151.32550417
  0
VERTEX
  8
0
 10
-0.66705818
 20
-151.40687071
  0
VERTEX
  8
0
 10
-0.04051309
 20
-151.50885077
  0
VERTEX
  8
0
 10
0.56176679
 20
-151.63295645
  0
VERTEX
  8
0
 10
1.13697128
 20
-151.78069985
  0
VERTEX
  8
0
 10
1.68229018
 20
-151.95359307
  0
VERTEX
  8
0
 10
2.19491330
 20
-152.15314821
  0
VERTEX
  8
0
 10
2.67203046
 20
-152.38087737
  0
VERTEX
  8
0
 10
3.11083145
 20
-152.63829265
  0
VERTEX
  8
0
 10
3.50850611
 20
-152.92690616
  0
VERTEX
  8
0
 10
3.86224422
 20
-153.24822998
  0
VERTEX
  8
0
 10
4.44388018
 20
-153.81764169
  0
VERTEX
  8
0
 10
5.02428334
 20
-154.40744237
  0
VERTEX
  8
0
 10
5.31619179
 20
-154.68981107
  0
VERTEX
  8
0
 10
5.61039503
 20
-154.95306400
  0
VERTEX
  8
0
 10
5.90776074
 20
-155.18913016
  0
VERTEX
  8
0
 10
6.20915658
 20
-155.38993856
  0
VERTEX
  8
0
 10
5.29819521
 20
-155.60534870
  0
VERTEX
  8
0
 10
4.35802491
 20
-155.81095067
  0
VERTEX
  8
0
 10
2.40821276
 20
-156.20826273
  0
VERTEX
  8
0
 10
0.39603048
 20
-156.61294005
  0
VERTEX
  8
0
 10
-1.64221161
 20
-157.05604795
  0
VERTEX
  8
0
 10
-2.65975810
 20
-157.30172127
  0
VERTEX
  8
0
 10
-3.67020316
 20
-157.56865173
  0
VERTEX
  8
0
 10
-4.66900799
 20
-157.86072250
  0
VERTEX
  8
0
 10
-5.65163382
 20
-158.18181672
  0
VERTEX
  8
0
 10
-6.61354183
 20
-158.53581758
  0
VERTEX
  8
0
 10
-7.55019325
 20
-158.92660823
  0
VERTEX
  8
0
 10
-8.45704928
 20
-159.35807184
  0
VERTEX
  8
0
 10
-9.32957112
 20
-159.83409157
  0
VERTEX
  8
0
 10
-9.33349693
 20
-159.90561694
  0
VERTEX
  8
0
 10
-9.31832865
 20
-159.98910412
  0
VERTEX
  8
0
 10
-9.24370124
 20
-160.16413466
  0
VERTEX
  8
0
 10
-9.19073781
 20
-160.24176337
  0
VERTEX
  8
0
 10
-9.13167170
 20
-160.30352463
  0
VERTEX
  8
0
 10
-9.06975078
 20
-160.34246111
  0
VERTEX
  8
0
 10
-9.00822289
 20
-160.35161550
  0
VERTEX
  8
0
 10
-7.76146700
 20
-160.18413151
  0
VERTEX
  8
0
 10
-6.51670391
 20
-160.03541662
  0
VERTEX
  8
0
 10
-5.27401152
 20
-159.90635411
  0
VERTEX
  8
0
 10
-4.03346773
 20
-159.79782724
  0
VERTEX
  8
0
 10
-2.79515043
 20
-159.71071929
  0
VERTEX
  8
0
 10
-1.55913752
 20
-159.64591352
  0
VERTEX
  8
0
 10
-0.32550690
 20
-159.60429321
  0
VERTEX
  8
0
 10
0.90566355
 20
-159.58674163
  0
VERTEX
  8
0
 10
2.13429592
 20
-159.59414204
  0
VERTEX
  8
0
 10
3.36031233
 20
-159.62737773
  0
VERTEX
  8
0
 10
4.58363486
 20
-159.68733195
  0
VERTEX
  8
0
 10
5.80418564
 20
-159.77488798
  0
VERTEX
  8
0
 10
7.02188676
 20
-159.89092910
  0
VERTEX
  8
0
 10
8.23666032
 20
-160.03633856
  0
VERTEX
  8
0
 10
9.44842844
 20
-160.21199965
  0
VERTEX
  8
0
 10
10.65711322
 20
-160.41879564
  0
VERTEX
  8
0
 10
11.19863435
 20
-160.75794707
  0
VERTEX
  8
0
 10
11.72029528
 20
-161.10933390
  0
VERTEX
  8
0
 10
12.22257046
 20
-161.47321163
  0
VERTEX
  8
0
 10
12.70593434
 20
-161.84983582
  0
VERTEX
  8
0
 10
13.17086137
 20
-162.23946198
  0
VERTEX
  8
0
 10
13.61782603
 20
-162.64234565
  0
VERTEX
  8
0
 10
14.04730275
 20
-163.05874235
  0
VERTEX
  8
0
 10
14.45976601
 20
-163.48890763
  0
VERTEX
  8
0
 10
12.16391200
 20
-163.93822787
  0
VERTEX
  8
0
 10
9.82464176
 20
-164.42184076
  0
VERTEX
  8
0
 10
8.64767590
 20
-164.68505195
  0
VERTEX
  8
0
 10
7.47059640
 20
-164.96709030
  0
VERTEX
  8
0
 10
6.29698340
 20
-165.27137381
  0
VERTEX
  8
0
 10
5.13041705
 20
-165.60132048
  0
VERTEX
  8
0
 10
3.97447747
 20
-165.96034832
  0
VERTEX
  8
0
 10
2.83274482
 20
-166.35187532
  0
VERTEX
  8
0
 10
1.70879923
 20
-166.77931948
  0
VERTEX
  8
0
 10
0.60622084
 20
-167.24609880
  0
VERTEX
  8
0
 10
-0.47141021
 20
-167.75563129
  0
VERTEX
  8
0
 10
-1.52051379
 20
-168.31133494
  0
VERTEX
  8
0
 10
-2.03324897
 20
-168.60756907
  0
VERTEX
  8
0
 10
-2.53750974
 20
-168.91662775
  0
VERTEX
  8
0
 10
-3.03284856
 20
-169.23893822
  0
VERTEX
  8
0
 10
-3.51881793
 20
-169.57492772
  0
VERTEX
  8
0
 10
-3.19293431
 20
-169.75262720
  0
VERTEX
  8
0
 10
-2.92707659
 20
-169.86169523
  0
VERTEX
  8
0
 10
-2.80968865
 20
-169.88830906
  0
VERTEX
  8
0
 10
-2.71838319
 20
-169.88374762
  0
VERTEX
  8
0
 10
-1.35281949
 20
-169.43208786
  0
VERTEX
  8
0
 10
0.01916877
 20
-169.01036078
  0
VERTEX
  8
0
 10
1.39634886
 20
-168.62046878
  0
VERTEX
  8
0
 10
2.77748807
 20
-168.26431426
  0
VERTEX
  8
0
 10
4.16135368
 20
-167.94379960
  0
VERTEX
  8
0
 10
5.54671297
 20
-167.66082721
  0
VERTEX
  8
0
 10
6.93233322
 20
-167.41729947
  0
VERTEX
  8
0
 10
8.31698172
 20
-167.21511879
  0
VERTEX
  8
0
 10
9.69942575
 20
-167.05618756
  0
VERTEX
  8
0
 10
11.07843258
 20
-166.94240817
  0
VERTEX
  8
0
 10
12.45276950
 20
-166.87568302
  0
VERTEX
  8
0
 10
13.82120380
 20
-166.85791450
  0
VERTEX
  8
0
 10
15.18250275
 20
-166.89100501
  0
VERTEX
  8
0
 10
16.53543364
 20
-166.97685694
  0
VERTEX
  8
0
 10
17.87876374
 20
-167.11737269
  0
VERTEX
  8
0
 10
19.21126035
 20
-167.31445466
  0
VERTEX
  8
0
 10
20.17611065
 20
-167.95084321
  0
VERTEX
  8
0
 10
21.20399314
 20
-168.60542833
  0
VERTEX
  8
0
 10
23.33839912
 20
-169.93716368
  0
VERTEX
  8
0
 10
24.38969485
 20
-170.59830160
  0
VERTEX
  8
0
 10
25.39356723
 20
-171.24561149
  0
VERTEX
  8
0
 10
26.32240237
 20
-171.87108719
  0
VERTEX
  8
0
 10
27.14858639
 20
-172.46672255
  0
VERTEX
  8
0
 10
26.32857981
 20
-172.71623279
  0
VERTEX
  8
0
 10
25.52780954
 20
-172.98959849
  0
VERTEX
  8
0
 10
24.74432934
 20
-173.28434569
  0
VERTEX
  8
0
 10
23.97619300
 20
-173.59800043
  0
VERTEX
  8
0
 10
23.22145428
 20
-173.92808874
  0
VERTEX
  8
0
 10
22.47816696
 20
-174.27213667
  0
VERTEX
  8
0
 10
21.01816162
 20
-174.99221554
  0
VERTEX
  8
0
 10
19.58060717
 20
-175.73844537
  0
VERTEX
  8
0
 10
18.14993380
 20
-176.49103447
  0
VERTEX
  8
0
 10
16.71057169
 20
-177.23019118
  0
VERTEX
  8
0
 10
15.24695105
 20
-177.93612381
  0
SEQEND
  0
POLYLINE
  8
Векторный_слой_3
 66
   1
 39
0.000000
 70
    1
  0
VERTEX
  8
0
 10
63.19902684
 20
-206.25955134
  0
VERTEX
  8
0
 10
62.93326059
 20
-206.23526122
  0
VERTEX
  8
0
 10
62.66675464
 20
-206.22657337
  0
VERTEX
  8
0
 10
62.13175665
 20
-206.24978849
  0
VERTEX
  8
0
 10
61.59449881
 20
-206.31676464
  0
VERTEX
  8
0
 10
61.05544709
 20
-206.41506979
  0
VERTEX
  8
0
 10
59.97382580
 20
-206.65593893
  0
VERTEX
  8
0
 10
59.43218815
 20
-206.77363884
  0
VERTEX
  8
0
 10
58.89062043
 20
-206.87293960
  0
VERTEX
  8
0
 10
58.46560592
 20
-206.91932161
  0
VERTEX
  8
0
 10
58.01883787
 20
-206.93226623
  0
VERTEX
  8
0
 10
57.55203000
 20
-206.91262173
  0
VERTEX
  8
0
 10
57.06689605
 20
-206.86123637
  0
VERTEX
  8
0
 10
56.56514975
 20
-206.77895846
  0
VERTEX
  8
0
 10
56.04850481
 20
-206.66663625
  0
VERTEX
  8
0
 10
55.51867498
 20
-206.52511803
  0
VERTEX
  8
0
 10
54.97737398
 20
-206.35525208
  0
VERTEX
  8
0
 10
54.42631553
 20
-206.15788667
  0
VERTEX
  8
0
 10
53.86721337
 20
-205.93387009
  0
VERTEX
  8
0
 10
53.30178123
 20
-205.68405060
  0
VERTEX
  8
0
 10
52.73173282
 20
-205.40927649
  0
VERTEX
  8
0
 10
52.15878189
 20
-205.11039604
  0
VERTEX
  8
0
 10
51.58464216
 20
-204.78825753
  0
VERTEX
  8
0
 10
51.01102735
 20
-204.44370922
  0
VERTEX
  8
0
 10
50.43965120
 20
-204.07759940
  0
VERTEX
  8
0
 10
49.83365534
 20
-203.69725614
  0
VERTEX
  8
0
 10
49.52473977
 20
-203.52392559
  0
VERTEX
  8
0
 10
49.21106480
 20
-203.36494013
  0
VERTEX
  8
0
 10
48.89201971
 20
-203.22263806
  0
VERTEX
  8
0
 10
48.56699376
 20
-203.09935764
  0
VERTEX
  8
0
 10
48.23537623
 20
-202.99743716
  0
VERTEX
  8
0
 10
47.89655640
 20
-202.91921490
  0
VERTEX
  8
0
 10
47.34814334
 20
-202.89052207
  0
VERTEX
  8
0
 10
46.79464794
 20
-202.87838357
  0
VERTEX
  8
0
 10
45.67821646
 20
-202.87861949
  0
VERTEX
  8
0
 10
44.55887459
 20
-202.86962259
  0
VERTEX
  8
0
 10
44.00174121
 20
-202.84594307
  0
VERTEX
  8
0
 10
43.44823499
 20
-202.80109282
  0
VERTEX
  8
0
 10
42.89980749
 20
-202.72878432
  0
VERTEX
  8
0
 10
42.35791031
 20
-202.62273008
  0
VERTEX
  8
0
 10
41.82399501
 20
-202.47664259
  0
VERTEX
  8
0
 10
41.29951319
 20
-202.28423433
  0
VERTEX
  8
0
 10
40.78591643
 20
-202.03921780
  0
VERTEX
  8
0
 10
40.53365356
 20
-201.89501658
  0
VERTEX
  8
0
 10
40.28465630
 20
-201.73530548
  0
VERTEX
  8
0
 10
40.03910609
 20
-201.55929856
  0
VERTEX
  8
0
 10
39.79718439
 20
-201.36620987
  0
VERTEX
  8
0
 10
39.55907263
 20
-201.15525349
  0
VERTEX
  8
0
 10
39.32495227
 20
-200.92564347
  0
VERTEX
  8
0
 10
39.00657486
 20
-200.49772186
  0
VERTEX
  8
0
 10
38.69852405
 20
-200.04344926
  0
VERTEX
  8
0
 10
38.09503307
 20
-199.08730417
  0
VERTEX
  8
0
 10
37.47774111
 20
-198.12011438
  0
VERTEX
  8
0
 10
37.15243908
 20
-197.65203591
  0
VERTEX
  8
0
 10
36.80990996
 20
-197.20478608
  0
VERTEX
  8
0
 10
36.44556149
 20
-196.78622818
  0
VERTEX
  8
0
 10
36.05480139
 20
-196.40422547
  0
VERTEX
  8
0
 10
35.84808188
 20
-196.22938959
  0
VERTEX
  8
0
 10
35.63303737
 20
-196.06664123
  0
VERTEX
  8
0
 10
35.40909381
 20
-195.91696331
  0
VERTEX
  8
0
 10
35.17567716
 20
-195.78133874
  0
VERTEX
  8
0
 10
34.93221340
 20
-195.66075041
  0
VERTEX
  8
0
 10
34.67812849
 20
-195.55618125
  0
VERTEX
  8
0
 10
34.41284839
 20
-195.46861417
  0
VERTEX
  8
0
 10
34.13579907
 20
-195.39903206
  0
VERTEX
  8
0
 10
33.84640649
 20
-195.34841785
  0
VERTEX
  8
0
 10
33.54409662
 20
-195.31775443
  0
VERTEX
  8
0
 10
33.22829543
 20
-195.30802472
  0
VERTEX
  8
0
 10
32.89842888
 20
-195.32021164
  0
VERTEX
  8
0
 10
32.13891298
 20
-195.33748353
  0
VERTEX
  8
0
 10
31.38048879
 20
-195.31189918
  0
VERTEX
  8
0
 10
30.62476343
 20
-195.24433105
  0
VERTEX
  8
0
 10
29.87334399
 20
-195.13565165
  0
VERTEX
  8
0
 10
29.12783759
 20
-194.98673344
  0
VERTEX
  8
0
 10
28.38985133
 20
-194.79844891
  0
VERTEX
  8
0
 10
27.66099234
 20
-194.57167054
  0
VERTEX
  8
0
 10
26.94286771
 20
-194.30727081
  0
VERTEX
  8
0
 10
26.23708455
 20
-194.00612221
  0
VERTEX
  8
0
 10
25.54524998
 20
-193.66909721
  0
VERTEX
  8
0
 10
24.86897110
 20
-193.29706831
  0
VERTEX
  8
0
 10
24.20985502
 20
-192.89090797
  0
VERTEX
  8
0
 10
23.56950886
 20
-192.45148869
  0
VERTEX
  8
0
 10
22.94953972
 20
-191.97968294
  0
VERTEX
  8
0
 10
22.35155470
 20
-191.47636321
  0
VERTEX
  8
0
 10
21.77716093
 20
-190.94240198
  0
VERTEX
  8
0
 10
16.21226235
 20
-180.74502974
  0
VERTEX
  8
0
 10
16.48510219
 20
-180.67229017
  0
VERTEX
  8
0
 10
16.75928654
 20
-180.57864774
  0
VERTEX
  8
0
 10
17.03470275
 20
-180.46589888
  0
VERTEX
  8
0
 10
17.31123813
 20
-180.33584003
  0
VERTEX
  8
0
 10
17.86721573
 20
-180.03097811
  0
VERTEX
  8
0
 10
18.42631800
 20
-179.67843349
  0
VERTEX
  8
0
 10
18.98764357
 20
-179.29257766
  0
VERTEX
  8
0
 10
19.55029109
 20
-178.88778214
  0
VERTEX
  8
0
 10
20.67594649
 20
-178.07885801
  0
VERTEX
  8
0
 10
21.23715165
 20
-177.70347242
  0
VERTEX
  8
0
 10
21.79607331
 20
-177.36663314
  0
VERTEX
  8
0
 10
22.35181011
 20
-177.08271169
  0
VERTEX
  8
0
 10
22.62820250
 20
-176.96508624
  0
VERTEX
  8
0
 10
22.90346067
 20
-176.86607956
  0
VERTEX
  8
0
 10
23.17747194
 20
-176.78748809
  0
VERTEX
  8
0
 10
23.45012365
 20
-176.73110826
  0
VERTEX
  8
0
 10
23.72130311
 20
-176.69873652
  0
VERTEX
  8
0
 10
23.99089767
 20
-176.69216930
  0
VERTEX
  8
0
 10
24.25879465
 20
-176.71320303
  0
VERTEX
  8
0
 10
24.52488139
 20
-176.76363417
  0
VERTEX
  8
0
 10
24.78904520
 20
-176.84525914
  0
VERTEX
  8
0
 10
25.05117343
 20
-176.95987439
  0
VERTEX
  8
0
 10
25.48040663
 20
-177.20191273
  0
VERTEX
  8
0
 10
25.94524904
 20
-177.51201765
  0
VERTEX
  8
0
 10
26.44132381
 20
-177.88821607
  0
VERTEX
  8
0
 10
26.96425407
 20
-178.32853491
  0
VERTEX
  8
0
 10
27.50966297
 20
-178.83100110
  0
VERTEX
  8
0
 10
28.07317366
 20
-179.39364157
  0
VERTEX
  8
0
 10
28.65040926
 20
-180.01448324
  0
VERTEX
  8
0
 10
29.23699293
 20
-180.69155303
  0
VERTEX
  8
0
 10
29.82854782
 20
-181.42287787
  0
VERTEX
  8
0
 10
30.42069705
 20
-182.20648470
  0
VERTEX
  8
0
 10
31.00906378
 20
-183.04040042
  0
VERTEX
  8
0
 10
31.58927114
 20
-183.92265198
  0
VERTEX
  8
0
 10
32.15694228
 20
-184.85126629
  0
VERTEX
  8
0
 10
32.70770035
 20
-185.82427028
  0
VERTEX
  8
0
 10
33.23716848
 20
-186.83969088
  0
VERTEX
  8
0
 10
33.74096982
 20
-187.89555501
  0
VERTEX
  8
0
 10
34.35854218
 20
-187.73920470
  0
VERTEX
  8
0
 10
34.24415835
 20
-186.95327942
  0
VERTEX
  8
0
 10
34.11284052
 20
-186.17068350
  0
VERTEX
  8
0
 10
33.96526023
 20
-185.39163005
  0
VERTEX
  8
0
 10
33.80208901
 20
-184.61633220
  0
VERTEX
  8
0
 10
33.62399840
 20
-183.84500307
  0
VERTEX
  8
0
 10
33.43165993
 20
-183.07785577
  0
VERTEX
  8
0
 10
33.00692553
 20
-181.55695918
  0
VERTEX
  8
0
 10
32.53325808
 20
-180.05534740
  0
VERTEX
  8
0
 10
32.01602986
 20
-178.57472541
  0
VERTEX
  8
0
 10
31.46061313
 20
-177.11679817
  0
VERTEX
  8
0
 10
30.87238016
 20
-175.68327065
  0
VERTEX
  8
0
 10
31.44266929
 20
-175.88099524
  0
VERTEX
  8
0
 10
31.99000954
 20
-176.11060776
  0
VERTEX
  8
0
 10
32.51536640
 20
-176.37067684
  0
VERTEX
  8
0
 10
33.01970538
 20
-176.65977115
  0
VERTEX
  8
0
 10
33.50399198
 20
-176.97645931
  0
VERTEX
  8
0
 10
33.96919172
 20
-177.31930999
  0
VERTEX
  8
0
 10
34.41627009
 20
-177.68689182
  0
VERTEX
  8
0
 10
34.84619260
 20
-178.07777346
  0
VERTEX
  8
0
 10
35.25992475
 20
-178.49052354
  0
VERTEX
  8
0
 10
35.65843205
 20
-178.92371072
  0
VERTEX
  8
0
 10
36.04268001
 20
-179.37590365
  0
VERTEX
  8
0
 10
36.41363413
 20
-179.84567096
  0
VERTEX
  8
0
 10
36.77225991
 20
-180.33158132
  0
VERTEX
  8
0
 10
37.11952286
 20
-180.83220335
  0
VERTEX
  8
0
 10
37.78382228
 20
-181.87185706
  0
VERTEX
  8
0
 10
38.41425644
 20
-182.95318127
  0
VERTEX
  8
0
 10
39.01854938
 20
-184.06472514
  0
VERTEX
  8
0
 10
39.60442513
 20
-185.19503786
  0
VERTEX
  8
0
 10
40.17960773
 20
-186.33266859
  0
VERTEX
  8
0
 10
40.75182122
 20
-187.46616652
  0
VERTEX
  8
0
 10
41.32878965
 20
-188.58408081
  0
VERTEX
  8
0
 10
41.91823704
 20
-189.67496063
  0
VERTEX
  8
0
 10
42.52788745
 20
-190.72735518
  0
VERTEX
  8
0
 10
42.97784778
 20
-189.89180799
  0
VERTEX
  8
0
 10
42.83059415
 20
-188.97726295
  0
VERTEX
  8
0
 10
42.66329872
 20
-188.06067673
  0
VERTEX
  8
0
 10
42.47562326
 20
-187.14387426
  0
VERTEX
  8
0
 10
42.26722956
 20
-186.22868051
  0
VERTEX
  8
0
 10
42.03777939
 20
-185.31692043
  0
VERTEX
  8
0
 10
41.78693456
 20
-184.41041899
  0
VERTEX
  8
0
 10
41.51435684
 20
-183.51100114
  0
VERTEX
  8
0
 10
41.21970801
 20
-182.62049184
  0
VERTEX
  8
0
 10
40.90264987
 20
-181.74071605
  0
VERTEX
  8
0
 10
40.56284419
 20
-180.87349873
  0
VERTEX
  8
0
 10
40.19995277
 20
-180.02066483
  0
VERTEX
  8
0
 10
39.81363738
 20
-179.18403932
  0
VERTEX
  8
0
 10
39.40355981
 20
-178.36544715
  0
VERTEX
  8
0
 10
38.96938185
 20
-177.56671327
  0
VERTEX
  8
0
 10
38.51076528
 20
-176.78966266
  0
VERTEX
  8
0
 10
38.02737188
 20
-176.03612026
  0
VERTEX
  8
0
 10
38.45011483
 20
-175.88844813
  0
VERTEX
  8
0
 10
38.88191527
 20
-175.79927236
  0
VERTEX
  8
0
 10
39.32231013
 20
-175.76613800
  0
VERTEX
  8
0
 10
39.77083636
 20
-175.78659012
  0
VERTEX
  8
0
 10
40.22703088
 20
-175.85817377
  0
VERTEX
  8
0
 10
40.69043064
 20
-175.97843401
  0
VERTEX
  8
0
 10
41.16057257
 20
-176.14491588
  0
VERTEX
  8
0
 10
41.63699360
 20
-176.35516445
  0
VERTEX
  8
0
 10
42.11923067
 20
-176.60672478
  0
VERTEX
  8
0
 10
42.60682072
 20
-176.89714192
  0
VERTEX
  8
0
 10
43.09930068
 20
-177.22396092
  0
VERTEX
  8
0
 10
43.59620748
 20
-177.58472685
  0
VERTEX
  8
0
 10
44.09707806
 20
-177.97698475
  0
VERTEX
  8
0
 10
44.60144936
 20
-178.39827969
  0
VERTEX
  8
0
 10
45.10885831
 20
-178.84615673
  0
VERTEX
  8
0
 10
45.61884185
 20
-179.31816091
  0
VERTEX
  8
0
 10
46.64468042
 20
-180.32473094
  0
VERTEX
  8
0
 10
47.67526057
 20
-181.39835023
  0
VERTEX
  8
0
 10
48.70687777
 20
-182.51937924
  0
VERTEX
  8
0
 10
49.73582750
 20
-183.66817842
  0
VERTEX
  8
0
 10
51.77090652
 20
-185.97052908
  0
VERTEX
  8
0
 10
52.76962676
 20
-187.08480146
  0
VERTEX
  8
0
 10
53.75086147
 20
-188.14828580
  0
VERTEX
  8
0
 10
53.94814001
 20
-188.16836902
  0
VERTEX
  8
0
 10
54.09606366
 20
-188.15184397
  0
VERTEX
  8
0
 10
54.19920646
 20
-188.10257014
  0
VERTEX
  8
0
 10
54.26214248
 20
-188.02440700
  0
VERTEX
  8
0
 10
54.28944575
 20
-187.92121403
  0
VERTEX
  8
0
 10
54.28569034
 20
-187.79685071
  0
VERTEX
  8
0
 10
54.25545029
 20
-187.65517650
  0
VERTEX
  8
0
 10
54.20329966
 20
-187.50005090
  0
VERTEX
  8
0
 10
54.05156287
 20
-187.16488339
  0
VERTEX
  8
0
 10
53.86707238
 20
-186.82222400
  0
VERTEX
  8
0
 10
53.68642061
 20
-186.50294853
  0
VERTEX
  8
0
 10
53.54619997
 20
-186.23793280
  0
VERTEX
  8
0
 10
53.17931150
 20
-185.49012639
  0
VERTEX
  8
0
 10
52.79412539
 20
-184.75755429
  0
VERTEX
  8
0
 10
52.39237215
 20
-184.03881371
  0
VERTEX
  8
0
 10
51.97578228
 20
-183.33250184
  0
VERTEX
  8
0
 10
51.54608629
 20
-182.63721588
  0
VERTEX
  8
0
 10
51.10501467
 20
-181.95155303
  0
VERTEX
  8
0
 10
50.19566656
 20
-180.60348544
  0
VERTEX
  8
0
 10
49.26158200
 20
-179.27707666
  0
VERTEX
  8
0
 10
48.31660499
 20
-177.96110427
  0
VERTEX
  8
0
 10
47.37457958
 20
-176.64434585
  0
VERTEX
  8
0
 10
46.44934977
 20
-175.31557898
  0
VERTEX
  8
0
 10
47.08029163
 20
-175.29548483
  0
VERTEX
  8
0
 10
47.70353543
 20
-175.31891129
  0
VERTEX
  8
0
 10
48.31866327
 20
-175.38413355
  0
VERTEX
  8
0
 10
48.92525728
 20
-175.48942681
  0
VERTEX
  8
0
 10
49.52289954
 20
-175.63306626
  0
VERTEX
  8
0
 10
50.11117216
 20
-175.81332709
  0
VERTEX
  8
0
 10
50.68965725
 20
-176.02848450
  0
VERTEX
  8
0
 10
51.25793692
 20
-176.27681369
  0
VERTEX
  8
0
 10
51.81559326
 20
-176.55658984
  0
VERTEX
  8
0
 10
52.36220839
 20
-176.86608815
  0
VERTEX
  8
0
 10
52.89736440
 20
-177.20358381
  0
VERTEX
  8
0
 10
53.42064341
 20
-177.56735203
  0
VERTEX
  8
0
 10
53.93162751
 20
-177.95566798
  0
VERTEX
  8
0
 10
54.42989881
 20
-178.36680687
  0
VERTEX
  8
0
 10
54.91503942
 20
-178.79904389
  0
VERTEX
  8
0
 10
55.38663144
 20
-179.25065423
  0
VERTEX
  8
0
 10
55.83234379
 20
-179.38943348
  0
VERTEX
  8
0
 10
56.28066632
 20
-179.49572922
  0
VERTEX
  8
0
 10
56.73123090
 20
-179.57418005
  0
VERTEX
  8
0
 10
57.18366937
 20
-179.62942457
  0
VERTEX
  8
0
 10
57.63761357
 20
-179.66610135
  0
VERTEX
  8
0
 10
58.09269536
 20
-179.68884900
  0
VERTEX
  8
0
 10
59.00479909
 20
-179.71111127
  0
VERTEX
  8
0
 10
59.91703536
 20
-179.73332011
  0
VERTEX
  8
0
 10
60.37228281
 20
-179.75600098
  0
VERTEX
  8
0
 10
60.82645894
 20
-179.79258426
  0
VERTEX
  8
0
 10
61.27919560
 20
-179.84770856
  0
VERTEX
  8
0
 10
61.73012464
 20
-179.92601245
  0
VERTEX
  8
0
 10
62.17887791
 20
-180.03213455
  0
VERTEX
  8
0
 10
62.62508725
 20
-180.17071343
  0
VERTEX
  8
0
 10
63.18016038
 20
-180.39608693
  0
VERTEX
  8
0
 10
63.70113101
 20
-180.65331825
  0
VERTEX
  8
0
 10
64.18905862
 20
-180.94084550
  0
VERTEX
  8
0
 10
64.64500272
 20
-181.25710681
  0
VERTEX
  8
0
 10
65.07002279
 20
-181.60054028
  0
VERTEX
  8
0
 10
65.46517832
 20
-181.96958405
  0
VERTEX
  8
0
 10
65.83152880
 20
-182.36267621
  0
VERTEX
  8
0
 10
66.17013372
 20
-182.77825490
  0
VERTEX
  8
0
 10
66.48205257
 20
-183.21475823
  0
VERTEX
  8
0
 10
66.76834484
 20
-183.67062431
  0
VERTEX
  8
0
 10
67.03007002
 20
-184.14429127
  0
VERTEX
  8
0
 10
67.26828761
 20
-184.63419723
  0
VERTEX
  8
0
 10
67.48405709
 20
-185.13878029
  0
VERTEX
  8
0
 10
67.67843795
 20
-185.65647859
  0
VERTEX
  8
0
 10
67.85248968
 20
-186.18573022
  0
VERTEX
  8
0
 10
68.00727178
 20
-186.72497333
  0
VERTEX
  8
0
 10
67.78699184
 20
-187.22017620
  0
VERTEX
  8
0
 10
67.59226389
 20
-187.71362083
  0
VERTEX
  8
0
 10
67.42867853
 20
-188.20656799
  0
VERTEX
  8
0
 10
67.30182637
 20
-188.70027844
  0
VERTEX
  8
0
 10
67.21729800
 20
-189.19601297
  0
VERTEX
  8
0
 10
67.18068403
 20
-189.69503235
  0
VERTEX
  8
0
 10
67.19757507
 20
-190.19859734
  0
VERTEX
  8
0
 10
67.22783203
 20
-190.45247845
  0
VERTEX
  8
0
 10
67.27356171
 20
-190.70796874
  0
VERTEX
  8
0
 10
67.67742724
 20
-191.10997005
  0
VERTEX
  8
0
 10
68.07120069
 20
-191.52756033
  0
VERTEX
  8
0
 10
68.45331799
 20
-191.96047839
  0
VERTEX
  8
0
 10
68.82221508
 20
-192.40846306
  0
VERTEX
  8
0
 10
69.17632789
 20
-192.87125315
  0
VERTEX
  8
0
 10
69.51409235
 20
-193.34858750
  0
VERTEX
  8
0
 10
69.83394441
 20
-193.84020491
  0
VERTEX
  8
0
 10
70.13432000
 20
-194.34584421
  0
VERTEX
  8
0
 10
70.41365505
 20
-194.86524422
  0
VERTEX
  8
0
 10
70.67038549
 20
-195.39814376
  0
VERTEX
  8
0
 10
70.90294727
 20
-195.94428166
  0
VERTEX
  8
0
 10
71.10977630
 20
-196.50339673
  0
VERTEX
  8
0
 10
71.28930854
 20
-197.07522780
  0
VERTEX
  8
0
 10
71.43997991
 20
-197.65951368
  0
VERTEX
  8
0
 10
71.56022635
 20
-198.25599320
  0
VERTEX
  8
0
 10
71.64848380
 20
-198.86440517
  0
VERTEX
  8
0
 10
71.29196544
 20
-199.47322177
  0
VERTEX
  8
0
 10
70.98281340
 20
-200.08722868
  0
VERTEX
  8
0
 10
70.71546990
 20
-200.70586038
  0
VERTEX
  8
0
 10
70.48437717
 20
-201.32855136
  0
VERTEX
  8
0
 10
70.28397743
 20
-201.95473609
  0
VERTEX
  8
0
 10
70.10871291
 20
-202.58384907
  0
VERTEX
  8
0
 10
69.95302583
 20
-203.21532478
  0
VERTEX
  8
0
 10
69.81135840
 20
-203.84859769
  0
VERTEX
  8
0
 10
69.54785145
 20
-205.11827308
  0
VERTEX
  8
0
 10
69.27372983
 20
-206.38835112
  0
VERTEX
  8
0
 10
69.11879408
 20
-207.02212734
  0
VERTEX
  8
0
 10
68.94453133
 20
-207.65430767
  0
VERTEX
  8
0
 10
68.74538382
 20
-208.28432659
  0
VERTEX
  8
0
 10
68.51579376
 20
-208.91161859
  0
VERTEX
  8
0
 10
68.19431296
 20
-208.64454787
  0
VERTEX
  8
0
 10
67.84636635
 20
-208.38597863
  0
VERTEX
  8
0
 10
67.47731611
 20
-208.13698387
  0
VERTEX
  8
0
 10
67.09252443
 20
-207.89863662
  0
VERTEX
  8
0
 10
66.29716547
 20
-207.45817666
  0
VERTEX
  8
0
 10
65.50318696
 20
-207.07318286
  0
VERTEX
  8
0
 10
64.75348637
 20
-206.75223933
  0
VERTEX
  8
0
 10
64.09096117
 20
-206.50393016
  0
VERTEX
  8
0
 10
63.55850883
 20
-206.33683946
  0
VERTEX
  8
0
 10
63.19902684
 20
-206.25955134
  0
SEQEND
  0
POLYLINE
  8
Векторный_слой_3
 66
   1
 39
0.000000
 70
    1
  0
VERTEX
  8
0
 10
74.90937655
 20
30.66345995
  0
VERTEX
  8
0
 10
75.20773049
 20
32.09352486
  0
VERTEX
  8
0
 10
75.37243313
 20
32.80088785
  0
VERTEX
  8
0
 10
75.55164313
 20
33.50076475
  0
VERTEX
  8
0
 10
75.74847820
 20
34.19137576
  0
VERTEX
  8
0
 10
75.96605603
 20
34.87094105
  0
VERTEX
  8
0
 10
76.20749432
 20
35.53768079
  0
VERTEX
  8
0
 10
76.47591077
 20
36.18981517
  0
VERTEX
  8
0
 10
76.69147932
 20
36.81155783
  0
VERTEX
  8
0
 10
76.88498698
 20
37.43175367
  0
VERTEX
  8
0
 10
77.05666651
 20
38.05017940
  0
VERTEX
  8
0
 10
77.20675070
 20
38.66661171
  0
VERTEX
  8
0
 10
77.33547233
 20
39.28082733
  0
VERTEX
  8
0
 10
77.44306417
 20
39.89260294
  0
VERTEX
  8
0
 10
77.52975900
 20
40.50171526
  0
VERTEX
  8
0
 10
77.59578961
 20
41.10794099
  0
VERTEX
  8
0
 10
77.64138876
 20
41.71105684
  0
VERTEX
  8
0
 10
77.66678925
 20
42.31083952
  0
VERTEX
  8
0
 10
77.67222384
 20
42.90706572
  0
VERTEX
  8
0
 10
77.65792532
 20
43.49951216
  0
VERTEX
  8
0
 10
77.62412647
 20
44.08795553
  0
VERTEX
  8
0
 10
77.57106006
 20
44.67217255
  0
VERTEX
  8
0
 10
77.49895887
 20
45.25193992
  0
VERTEX
  8
0
 10
77.40805568
 20
45.82703435
  0
VERTEX
  8
0
 10
77.29858328
 20
46.39723254
  0
VERTEX
  8
0
 10
77.17077443
 20
46.96231119
  0
VERTEX
  8
0
 10
77.02486192
 20
47.52204702
  0
VERTEX
  8
0
 10
76.86107852
 20
48.07621673
  0
VERTEX
  8
0
 10
76.67965703
 20
48.62459701
  0
VERTEX
  8
0
 10
76.48083020
 20
49.16696459
  0
VERTEX
  8
0
 10
76.26483083
 20
49.70309616
  0
VERTEX
  8
0
 10
76.03189168
 20
50.23276843
  0
VERTEX
  8
0
 10
75.78224555
 20
50.75575810
  0
VERTEX
  8
0
 10
75.51612521
 20
51.27184188
  0
VERTEX
  8
0
 10
75.23376343
 20
51.78079648
  0
VERTEX
  8
0
 10
74.93539300
 20
52.28239860
  0
VERTEX
  8
0
 10
74.62124669
 20
52.77642495
  0
VERTEX
  8
0
 10
74.29155729
 20
53.26265222
  0
VERTEX
  8
0
 10
73.94655756
 20
53.74085714
  0
VERTEX
  8
0
 10
73.58648030
 20
54.21081640
  0
VERTEX
  8
0
 10
73.21155828
 20
54.67230670
  0
VERTEX
  8
0
 10
72.82202428
 20
55.12510476
  0
VERTEX
  8
0
 10
72.41811107
 20
55.56898728
  0
VERTEX
  8
0
 10
72.00005143
 20
56.00373096
  0
VERTEX
  8
0
 10
71.56807816
 20
56.42911251
  0
VERTEX
  8
0
 10
71.12242401
 20
56.84490864
  0
VERTEX
  8
0
 10
70.66332177
 20
57.25089605
  0
VERTEX
  8
0
 10
70.19100423
 20
57.64685144
  0
VERTEX
  8
0
 10
69.70570415
 20
58.03255152
  0
VERTEX
  8
0
 10
69.20765433
 20
58.40777300
  0
VERTEX
  8
0
 10
68.69708752
 20
58.77229259
  0
VERTEX
  8
0
 10
68.17423653
 20
59.12588698
  0
VERTEX
  8
0
 10
67.63933411
 20
59.46833288
  0
VERTEX
  8
0
 10
67.09261306
 20
59.79940701
  0
VERTEX
  8
0
 10
66.53430615
 20
60.11888605
  0
VERTEX
  8
0
 10
65.96464616
 20
60.42654673
  0
VERTEX
  8
0
 10
65.38386586
 20
60.72216574
  0
VERTEX
  8
0
 10
64.79219805
 20
61.00551979
  0
VERTEX
  8
0
 10
64.18987549
 20
61.27638559
  0
VERTEX
  8
0
 10
63.57713096
 20
61.53453984
  0
VERTEX
  8
0
 10
62.95419725
 20
61.77975924
  0
VERTEX
  8
0
 10
62.32130713
 20
62.01182051
  0
VERTEX
  8
0
 10
61.67869338
 20
62.23050034
  0
VERTEX
  8
0
 10
61.02658878
 20
62.43557545
  0
VERTEX
  8
0
 10
60.36522610
 20
62.62682253
  0
VERTEX
  8
0
 10
59.69483814
 20
62.80401830
  0
VERTEX
  8
0
 10
59.01565765
 20
62.96693946
  0
VERTEX
  8
0
 10
58.32791744
 20
63.11536271
  0
VERTEX
  8
0
 10
57.63185026
 20
63.24906476
  0
VERTEX
  8
0
 10
56.92768891
 20
63.36782232
  0
VERTEX
  8
0
 10
56.21566615
 20
63.47141209
  0
VERTEX
  8
0
 10
55.49601478
 20
63.55961077
  0
VERTEX
  8
0
 10
55.41563284
 20
63.99630829
  0
VERTEX
  8
0
 10
55.64926199
 20
64.20845824
  0
VERTEX
  8
0
 10
55.89383530
 20
64.40447008
  0
VERTEX
  8
0
 10
56.14872479
 20
64.58480071
  0
VERTEX
  8
0
 10
56.41330252
 20
64.74990705
  0
VERTEX
  8
0
 10
56.68694050
 20
64.90024600
  0
VERTEX
  8
0
 10
56.96901077
 20
65.03627447
  0
VERTEX
  8
0
 10
57.25888538
 20
65.15844936
  0
VERTEX
  8
0
 10
57.55593634
 20
65.26722758
  0
VERTEX
  8
0
 10
58.16905550
 20
65.44642167
  0
VERTEX
  8
0
 10
58.80334451
 20
65.57751198
  0
VERTEX
  8
0
 10
59.45377966
 20
65.66415378
  0
VERTEX
  8
0
 10
60.11533722
 20
65.71000232
  0
VERTEX
  8
0
 10
60.78299346
 20
65.71871288
  0
VERTEX
  8
0
 10
61.45172465
 20
65.69394070
  0
VERTEX
  8
0
 10
62.11650707
 20
65.63934106
  0
VERTEX
  8
0
 10
62.77231700
 20
65.55856921
  0
VERTEX
  8
0
 10
63.41413070
 20
65.45528041
  0
VERTEX
  8
0
 10
64.03692445
 20
65.33312993
  0
VERTEX
  8
0
 10
64.63567452
 20
65.19577303
  0
VERTEX
  8
0
 10
65.20535719
 20
65.04686496
  0
VERTEX
  8
0
 10
65.72706865
 20
64.96595303
  0
VERTEX
  8
0
 10
66.25061938
 20
64.84870003
  0
VERTEX
  8
0
 10
67.29643742
 20
64.59383774
  0
VERTEX
  8
0
 10
67.81530408
 20
64.50056192
  0
VERTEX
  8
0
 10
68.07298294
 20
64.47216079
  0
VERTEX
  8
0
 10
68.32920876
 20
64.45961197
  0
VERTEX
  8
0
 10
68.58376901
 20
64.46568630
  0
VERTEX
  8
0
 10
68.83645114
 20
64.49315462
  0
VERTEX
  8
0
 10
69.08704262
 20
64.54478778
  0
VERTEX
  8
0
 10
69.33533090
 20
64.62335661
  0
VERTEX
  8
0
 10
69.33561802
 20
65.30529064
  0
VERTEX
  8
0
 10
69.30362211
 20
65.98040345
  0
VERTEX
  8
0
 10
69.23872126
 20
66.64675245
  0
VERTEX
  8
0
 10
69.14029358
 20
67.30239500
  0
VERTEX
  8
0
 10
69.00771715
 20
67.94538849
  0
VERTEX
  8
0
 10
68.84037007
 20
68.57379032
  0
VERTEX
  8
0
 10
68.63763044
 20
69.18565786
  0
VERTEX
  8
0
 10
68.39887635
 20
69.77904849
  0
VERTEX
  8
0
 10
68.12348590
 20
70.35201961
  0
VERTEX
  8
0
 10
67.81083717
 20
70.90262860
  0
VERTEX
  8
0
 10
67.46030827
 20
71.42893283
  0
VERTEX
  8
0
 10
67.07127728
 20
71.92898970
  0
VERTEX
  8
0
 10
66.64312231
 20
72.40085660
  0
VERTEX
  8
0
 10
66.17522144
 20
72.84259089
  0
VERTEX
  8
0
 10
65.66695278
 20
73.25224998
  0
VERTEX
  8
0
 10
65.11769441
 20
73.62789124
  0
VERTEX
  8
0
 10
64.66723317
 20
73.65825315
  0
VERTEX
  8
0
 10
64.19381801
 20
73.65975279
  0
VERTEX
  8
0
 10
63.69989206
 20
73.63421971
  0
VERTEX
  8
0
 10
63.18789843
 20
73.58348347
  0
VERTEX
  8
0
 10
62.66028023
 20
73.50937365
  0
VERTEX
  8
0
 10
62.11948058
 20
73.41371979
  0
VERTEX
  8
0
 10
61.56794260
 20
73.29835147
  0
VERTEX
  8
0
 10
61.00810939
 20
73.16509824
  0
VERTEX
  8
0
 10
59.87332977
 20
72.85225532
  0
VERTEX
  8
0
 10
58.73468663
 20
72.48982754
  0
VERTEX
  8
0
 10
57.61172491
 20
72.09245139
  0
VERTEX
  8
0
 10
56.52398950
 20
71.67476338
  0
VERTEX
  8
0
 10
55.49102534
 20
71.25140000
  0
VERTEX
  8
0
 10
54.53237733
 20
70.83699776
  0
VERTEX
  8
0
 10
52.91620946
 20
70.09362269
  0
VERTEX
  8
0
 10
51.83184522
 20
69.56173018
  0
VERTEX
  8
0
 10
51.43564395
 20
69.35841223
  0
VERTEX
  8
0
 10
50.80549749
 20
69.96214594
  0
VERTEX
  8
0
 10
50.22061611
 20
70.55017057
  0
VERTEX
  8
0
 10
49.67747815
 20
71.12262937
  0
VERTEX
  8
0
 10
49.17256198
 20
71.67966556
  0
VERTEX
  8
0
 10
48.26330837
 20
72.74804307
  0
VERTEX
  8
0
 10
47.46468210
 20
73.75644895
  0
VERTEX
  8
0
 10
46.74850996
 20
74.70602908
  0
VERTEX
  8
0
 10
46.08661878
 20
75.59792932
  0
VERTEX
  8
0
 10
45.45083535
 20
76.43329552
  0
VERTEX
  8
0
 10
44.81298649
 20
77.21327356
  0
VERTEX
  8
0
 10
44.48448340
 20
77.58285010
  0
VERTEX
  8
0
 10
44.14489901
 20
77.93900930
  0
VERTEX
  8
0
 10
43.79071166
 20
78.28189440
  0
VERTEX
  8
0
 10
43.41839971
 20
78.61164861
  0
VERTEX
  8
0
 10
43.02444150
 20
78.92841518
  0
VERTEX
  8
0
 10
42.60531540
 20
79.23233735
  0
VERTEX
  8
0
 10
42.15749974
 20
79.52355833
  0
VERTEX
  8
0
 10
41.67747288
 20
79.80222137
  0
VERTEX
  8
0
 10
41.16171318
 20
80.06846971
  0
VERTEX
  8
0
 10
40.60669898
 20
80.32244656
  0
VERTEX
  8
0
 10
40.00890863
 20
80.56429517
  0
VERTEX
  8
0
 10
39.36482049
 20
80.79415877
  0
VERTEX
  8
0
 10
38.67091290
 20
81.01218059
  0
VERTEX
  8
0
 10
37.92366423
 20
81.21850386
  0
VERTEX
  8
0
 10
37.11955281
 20
81.41327182
  0
VERTEX
  8
0
 10
36.25505699
 20
81.59662770
  0
VERTEX
  8
0
 10
35.26788004
 20
81.68664165
  0
VERTEX
  8
0
 10
34.26537366
 20
81.75108408
  0
VERTEX
  8
0
 10
33.25135976
 20
81.78814075
  0
VERTEX
  8
0
 10
32.22966027
 20
81.79599742
  0
VERTEX
  8
0
 10
31.20409711
 20
81.77283987
  0
VERTEX
  8
0
 10
30.17849217
 20
81.71685385
  0
VERTEX
  8
0
 10
29.15666739
 20
81.62622513
  0
VERTEX
  8
0
 10
28.14244468
 20
81.49913947
  0
VERTEX
  8
0
 10
27.13964594
 20
81.33378264
  0
VERTEX
  8
0
 10
26.15209311
 20
81.12834040
  0
VERTEX
  8
0
 10
25.18360809
 20
80.88099851
  0
VERTEX
  8
0
 10
24.23801280
 20
80.58994274
  0
VERTEX
  8
0
 10
23.31912915
 20
80.25335886
  0
VERTEX
  8
0
 10
22.43077907
 20
79.86943261
  0
VERTEX
  8
0
 10
21.99924846
 20
79.65914916
  0
VERTEX
  8
0
 10
21.57678446
 20
79.43634978
  0
VERTEX
  8
0
 10
21.16386480
 20
79.20080769
  0
VERTEX
  8
0
 10
20.76096724
 20
78.95229612
  0
VERTEX
  8
0
 10
19.93129103
 20
78.20436816
  0
VERTEX
  8
0
 10
19.10666015
 20
77.42965868
  0
VERTEX
  8
0
 10
17.46502795
 20
75.82109402
  0
VERTEX
  8
0
 10
15.82105773
 20
74.16899985
  0
VERTEX
  8
0
 10
14.15973655
 20
72.51577389
  0
VERTEX
  8
0
 10
13.31787781
 20
71.70198577
  0
VERTEX
  8
0
 10
12.46605149
 20
70.90381385
  0
VERTEX
  8
0
 10
11.60238097
 20
70.12655784
  0
VERTEX
  8
0
 10
10.72498963
 20
69.37551745
  0
VERTEX
  8
0
 10
9.83200086
 20
68.65599240
  0
VERTEX
  8
0
 10
8.92153804
 20
67.97328240
  0
VERTEX
  8
0
 10
7.99172457
 20
67.33268717
  0
VERTEX
  8
0
 10
7.04068381
 20
66.73950642
  0
VERTEX
  8
0
 10
6.63495943
 20
66.45297187
  0
VERTEX
  8
0
 10
6.23324551
 20
66.12900077
  0
VERTEX
  8
0
 10
5.83577576
 20
65.76908200
  0
VERTEX
  8
0
 10
5.44278387
 20
65.37470446
  0
VERTEX
  8
0
 10
5.05450354
 20
64.94735703
  0
VERTEX
  8
0
 10
4.67116846
 20
64.48852859
  0
VERTEX
  8
0
 10
4.29301234
 20
63.99970805
  0
VERTEX
  8
0
 10
3.92026887
 20
63.48238428
  0
VERTEX
  8
0
 10
3.55317176
 20
62.93804618
  0
VERTEX
  8
0
 10
3.19195469
 20
62.36818263
  0
VERTEX
  8
0
 10
2.83685137
 20
61.77428252
  0
VERTEX
  8
0
 10
2.48809549
 20
61.15783474
  0
VERTEX
  8
0
 10
2.14592076
 20
60.52032818
  0
VERTEX
  8
0
 10
1.81056087
 20
59.86325173
  0
VERTEX
  8
0
 10
1.16122040
 20
58.49634470
  0
VERTEX
  8
0
 10
0.54194367
 20
57.06902476
  0
VERTEX
  8
0
 10
-0.04539974
 20
55.59320302
  0
VERTEX
  8
0
 10
-0.59894024
 20
54.08079058
  0
VERTEX
  8
0
 10
-1.11680826
 20
52.54369856
  0
VERTEX
  8
0
 10
-1.59713420
 20
50.99383805
  0
VERTEX
  8
0
 10
-2.03804848
 20
49.44312017
  0
VERTEX
  8
0
 10
-2.43768152
 20
47.90345603
  0
VERTEX
  8
0
 10
-2.79416374
 20
46.38675672
  0
VERTEX
  8
0
 10
-3.14716688
 20
44.92965994
  0
VERTEX
  8
0
 10
-3.54284205
 20
43.48064153
  0
VERTEX
  8
0
 10
-3.97682667
 20
42.03886093
  0
VERTEX
  8
0
 10
-4.44475813
 20
40.60347761
  0
VERTEX
  8
0
 10
-4.94227386
 20
39.17365102
  0
VERTEX
  8
0
 10
-5.46501126
 20
37.74854061
  0
VERTEX
  8
0
 10
-6.00860774
 20
36.32730583
  0
VERTEX
  8
0
 10
-6.56870071
 20
34.90910615
  0
VERTEX
  8
0
 10
-7.72092579
 20
32.07844986
  0
VERTEX
  8
0
 10
-8.88678576
 20
29.24984738
  0
VERTEX
  8
0
 10
-10.03137991
 20
26.41657433
  0
VERTEX
  8
0
 10
-10.58479583
 20
24.99608498
  0
VERTEX
  8
0
 10
-11.11980753
 20
23.57190635
  0
VERTEX
  8
0
 10
-11.74284849
 20
22.13382997
  0
VERTEX
  8
0
 10
-12.39647502
 20
20.66889898
  0
VERTEX
  8
0
 10
-13.06194434
 20
19.18000121
  0
VERTEX
  8
0
 10
-13.72051369
 20
17.67002448
  0
VERTEX
  8
0
 10
-14.35344030
 20
16.14185662
  0
VERTEX
  8
0
 10
-14.94198139
 20
14.59838547
  0
VERTEX
  8
0
 10
-15.21375024
 20
13.82181361
  0
VERTEX
  8
0
 10
-15.46739418
 20
13.04249885
  0
VERTEX
  8
0
 10
-15.70057036
 20
12.26080219
  0
VERTEX
  8
0
 10
-15.91093592
 20
11.47708459
  0
VERTEX
  8
0
 10
-16.09614802
 20
10.69170705
  0
VERTEX
  8
0
 10
-16.25386381
 20
9.90503052
  0
VERTEX
  8
0
 10
-16.38174046
 20
9.11741601
  0
VERTEX
  8
0
 10
-16.47743510
 20
8.32922448
  0
VERTEX
  8
0
 10
-16.53860491
 20
7.54081690
  0
VERTEX
  8
0
 10
-16.56290702
 20
6.75255427
  0
VERTEX
  8
0
 10
-16.54799859
 20
5.96479756
  0
VERTEX
  8
0
 10
-16.49153678
 20
5.17790775
  0
VERTEX
  8
0
 10
-16.39117873
 20
4.39224581
  0
VERTEX
  8
0
 10
-16.24458161
 20
3.60817273
  0
VERTEX
  8
0
 10
-16.04940257
 20
2.82604948
  0
VERTEX
  8
0
 10
-15.80329875
 20
2.04623705
  0
VERTEX
  8
0
 10
-15.50392732
 20
1.26909640
  0
VERTEX
  8
0
 10
-15.14894542
 20
0.49498853
  0
VERTEX
  8
0
 10
-14.73601022
 20
-0.27572560
  0
VERTEX
  8
0
 10
-14.26277886
 20
-1.04268500
  0
VERTEX
  8
0
 10
-14.00589052
 20
-1.43936493
  0
VERTEX
  8
0
 10
-13.73370572
 20
-1.83056333
  0
VERTEX
  8
0
 10
-13.14595662
 20
-2.59733168
  0
VERTEX
  8
0
 10
-12.50455134
 20
-3.34462247
  0
VERTEX
  8
0
 10
-11.81450968
 20
-4.07406807
  0
VERTEX
  8
0
 10
-11.08085145
 20
-4.78730089
  0
VERTEX
  8
0
 10
-10.30859644
 20
-5.48595331
  0
VERTEX
  8
0
 10
-9.50276444
 20
-6.17165773
  0
VERTEX
  8
0
 10
-8.66837527
 20
-6.84604654
  0
VERTEX
  8
0
 10
-7.81044872
 20
-7.51075214
  0
VERTEX
  8
0
 10
-6.93400458
 20
-8.16740691
  0
VERTEX
  8
0
 10
-5.14564276
 20
-9.46309356
  0
VERTEX
  8
0
 10
-3.34344820
 20
-10.74616562
  0
VERTEX
  8
0
 10
-1.56757929
 20
-12.02968225
  0
VERTEX
  8
0
 10
-1.04716602
 20
-12.14994338
  0
VERTEX
  8
0
 10
-0.54524800
 20
-12.28952932
  0
VERTEX
  8
0
 10
-0.06086237
 20
-12.44739928
  0
VERTEX
  8
0
 10
0.40695371
 20
-12.62251253
  0
VERTEX
  8
0
 10
0.85916310
 20
-12.81382829
  0
VERTEX
  8
0
 10
1.29672866
 20
-13.02030579
  0
VERTEX
  8
0
 10
1.72061323
 20
-13.24090429
  0
VERTEX
  8
0
 10
2.13177966
 20
-13.47458302
  0
VERTEX
  8
0
 10
2.53119082
 20
-13.72030122
  0
VERTEX
  8
0
 10
2.91980954
 20
-13.97701813
  0
VERTEX
  8
0
 10
3.66852111
 20
-14.51928501
  0
VERTEX
  8
0
 10
4.38561719
 20
-15.09305759
  0
VERTEX
  8
0
 10
5.07880059
 20
-15.69000977
  0
VERTEX
  8
0
 10
6.42424064
 20
-16.92014858
  0
VERTEX
  8
0
 10
7.09190292
 20
-17.53668302
  0
VERTEX
  8
0
 10
7.76646379
 20
-18.14309271
  0
VERTEX
  8
0
 10
8.45562608
 20
-18.73105154
  0
VERTEX
  8
0
 10
9.16709259
 20
-19.29223344
  0
VERTEX
  8
0
 10
9.90856614
 20
-19.81831230
  0
VERTEX
  8
0
 10
10.29296269
 20
-20.06558619
  0
VERTEX
  8
0
 10
10.68774956
 20
-20.30096204
  0
VERTEX
  8
0
 10
11.19079064
 20
-20.57689170
  0
VERTEX
  8
0
 10
11.70881290
 20
-20.83660384
  0
VERTEX
  8
0
 10
12.24078058
 20
-21.08016487
  0
VERTEX
  8
0
 10
12.78565789
 20
-21.30764114
  0
VERTEX
  8
0
 10
13.34240908
 20
-21.51909903
  0
VERTEX
  8
0
 10
13.90999837
 20
-21.71460492
  0
VERTEX
  8
0
 10
14.48739000
 20
-21.89422518
  0
VERTEX
  8
0
 10
15.07354819
 20
-22.05802619
  0
VERTEX
  8
0
 10
15.66743717
 20
-22.20607433
  0
VERTEX
  8
0
 10
16.26802117
 20
-22.33843596
  0
VERTEX
  8
0
 10
16.87426443
 20
-22.45517746
  0
VERTEX
  8
0
 10
17.48513116
 20
-22.55636522
  0
VERTEX
  8
0
 10
18.09958562
 20
-22.64206559
  0
VERTEX
  8
0
 10
18.71659201
 20
-22.71234496
  0
VERTEX
  8
0
 10
19.33511457
 20
-22.76726971
  0
VERTEX
  8
0
 10
19.95411754
 20
-22.80690620
  0
VERTEX
  8
0
 10
20.54338078
 20
-22.82737488
  0
VERTEX
  8
0
 10
21.13356012
 20
-22.82765530
  0
VERTEX
  8
0
 10
21.72426045
 20
-22.80826254
  0
VERTEX
  8
0
 10
22.31508662
 20
-22.76971167
  0
VERTEX
  8
0
 10
22.90564352
 20
-22.71251775
  0
VERTEX
  8
0
 10
23.49553602
 20
-22.63719586
  0
VERTEX
  8
0
 10
24.08436898
 20
-22.54426107
  0
VERTEX
  8
0
 10
24.67174728
 20
-22.43422844
  0
VERTEX
  8
0
 10
25.25727580
 20
-22.30761306
  0
VERTEX
  8
0
 10
25.84055940
 20
-22.16492999
  0
VERTEX
  8
0
 10
26.42120296
 20
-22.00669430
  0
VERTEX
  8
0
 10
26.99881135
 20
-21.83342107
  0
VERTEX
  8
0
 10
28.14334210
 20
-21.44382224
  0
VERTEX
  8
0
 10
29.27099064
 20
-21.00025407
  0
VERTEX
  8
0
 10
30.37859594
 20
-20.50683714
  0
VERTEX
  8
0
 10
31.46299699
 20
-19.96769201
  0
VERTEX
  8
0
 10
32.52103275
 20
-19.38693924
  0
VERTEX
  8
0
 10
33.54954221
 20
-18.76869940
  0
VERTEX
  8
0
 10
34.54536435
 20
-18.11709306
  0
VERTEX
  8
0
 10
35.50533813
 20
-17.43624079
  0
VERTEX
  8
0
 10
36.42630255
 20
-16.73026315
  0
VERTEX
  8
0
 10
37.30509658
 20
-16.00328071
  0
VERTEX
  8
0
 10
38.13898915
 20
-15.01234909
  0
VERTEX
  8
0
 10
39.04240976
 20
-13.99793839
  0
VERTEX
  8
0
 10
39.98650835
 20
-12.95824526
  0
VERTEX
  8
0
 10
40.94243483
 20
-11.89146640
  0
VERTEX
  8
0
 10
41.88133912
 20
-10.79579846
  0
VERTEX
  8
0
 10
42.33539229
 20
-10.23656754
  0
VERTEX
  8
0
 10
42.77437114
 20
-9.66943812
  0
VERTEX
  8
0
 10
43.19466941
 20
-9.09418475
  0
VERTEX
  8
0
 10
43.59268082
 20
-8.51058205
  0
VERTEX
  8
0
 10
43.96479913
 20
-7.91840457
  0
VERTEX
  8
0
 10
44.30741808
 20
-7.31742692
  0
VERTEX
  8
0
 10
44.78192940
 20
-6.54075295
  0
VERTEX
  8
0
 10
45.26631200
 20
-5.77677934
  0
VERTEX
  8
0
 10
45.76050122
 20
-5.02546452
  0
VERTEX
  8
0
 10
46.26443238
 20
-4.28676697
  0
VERTEX
  8
0
 10
46.77804082
 20
-3.56064514
  0
VERTEX
  8
0
 10
47.30126187
 20
-2.84705749
  0
VERTEX
  8
0
 10
47.83403086
 20
-2.14596248
  0
VERTEX
  8
0
 10
48.37628313
 20
-1.45731857
  0
VERTEX
  8
0
 10
48.92795400
 20
-0.78108422
  0
VERTEX
  8
0
 10
49.48897881
 20
-0.11721788
  0
VERTEX
  8
0
 10
50.05929288
 20
0.53432197
  0
VERTEX
  8
0
 10
50.63883156
 20
1.17357689
  0
VERTEX
  8
0
 10
51.22753017
 20
1.80058842
  0
VERTEX
  8
0
 10
51.82532404
 20
2.41539809
  0
VERTEX
  8
0
 10
53.04793891
 20
3.60857803
  0
VERTEX
  8
0
 10
54.30615881
 20
4.75344905
  0
VERTEX
  8
0
 10
55.59946641
 20
5.85034346
  0
VERTEX
  8
0
 10
56.92734435
 20
6.89959360
  0
VERTEX
  8
0
 10
58.28927530
 20
7.90153179
  0
VERTEX
  8
0
 10
59.68474190
 20
8.85649036
  0
VERTEX
  8
0
 10
61.11322681
 20
9.76480164
  0
VERTEX
  8
0
 10
62.57421269
 20
10.62679795
  0
VERTEX
  8
0
 10
64.06718219
 20
11.44281162
  0
VERTEX
  8
0
 10
64.81832419
 20
12.03731155
  0
VERTEX
  8
0
 10
65.52935228
 20
12.62689596
  0
VERTEX
  8
0
 10
66.20161770
 20
13.21209605
  0
VERTEX
  8
0
 10
66.83647171
 20
13.79344302
  0
VERTEX
  8
0
 10
67.43526552
 20
14.37146806
  0
VERTEX
  8
0
 10
67.99935039
 20
14.94670238
  0
VERTEX
  8
0
 10
68.53007756
 20
15.51967717
  0
VERTEX
  8
0
 10
69.02879825
 20
16.09092364
  0
VERTEX
  8
0
 10
69.49686372
 20
16.66097299
  0
VERTEX
  8
0
 10
69.93562520
 20
17.23035641
  0
VERTEX
  8
0
 10
70.34643393
 20
17.79960510
  0
VERTEX
  8
0
 10
70.73064115
 20
18.36925026
  0
VERTEX
  8
0
 10
71.08959809
 20
18.93982310
  0
VERTEX
  8
0
 10
71.42465601
 20
19.51185481
  0
VERTEX
  8
0
 10
71.73716613
 20
20.08587659
  0
VERTEX
  8
0
 10
72.02847969
 20
20.66241964
  0
VERTEX
  8
0
 10
72.29994794
 20
21.24201516
  0
VERTEX
  8
0
 10
72.55292212
 20
21.82519435
  0
VERTEX
  8
0
 10
72.78875346
 20
22.41248841
  0
VERTEX
  8
0
 10
73.00879320
 20
23.00442853
  0
VERTEX
  8
0
 10
73.40690284
 20
24.20437179
  0
VERTEX
  8
0
 10
73.75806097
 20
25.42927371
  0
VERTEX
  8
0
 10
74.07307749
 20
26.68338389
  0
VERTEX
  8
0
 10
74.36276232
 20
27.97095192
  0
VERTEX
  8
0
 10
74.63792536
 20
29.29622741
  0
VERTEX
  8
0
 10
74.90937655
 20
30.66345995
  0
SEQEND
  0
POLYLINE
  8
Векторный_слой_3
 66
   1
 39
0.000000
 70
    1
  0
VERTEX
  8
0
 10
71.64491709
 20
49.03588350
  0
VERTEX
  8
0
 10
71.99380142
 20
48.36872346
  0
VERTEX
  8
0
 10
72.31138520
 20
47.67987078
  0
VERTEX
  8
0
 10
72.59861198
 20
46.97154554
  0
VERTEX
  8
0
 10
72.85642532
 20
46.24596781
  0
VERTEX
  8
0
 10
73.08576875
 20
45.50535768
  0
VERTEX
  8
0
 10
73.28758585
 20
44.75193521
  0
VERTEX
  8
0
 10
73.46282014
 20
43.98792050
  0
VERTEX
  8
0
 10
73.61241519
 20
43.21553361
  0
VERTEX
  8
0
 10
73.73731454
 20
42.43699463
  0
VERTEX
  8
0
 10
73.83846174
 20
41.65452363
  0
VERTEX
  8
0
 10
73.91680035
 20
40.87034070
  0
VERTEX
  8
0
 10
73.97327391
 20
40.08666591
  0
VERTEX
  8
0
 10
74.00882597
 20
39.30571933
  0
VERTEX
  8
0
 10
74.02440008
 20
38.52972105
  0
VERTEX
  8
0
 10
74.02093980
 20
37.76089115
  0
VERTEX
  8
0
 10
73.99938867
 20
37.00144970
  0
VERTEX
  8
0
 10
73.66517150
 20
37.52197868
  0
VERTEX
  8
0
 10
73.34853606
 20
38.07939229
  0
VERTEX
  8
0
 10
73.04677057
 20
38.66636962
  0
VERTEX
  8
0
 10
72.75716328
 20
39.27558974
  0
VERTEX
  8
0
 10
72.20357620
 20
40.53147473
  0
VERTEX
  8
0
 10
71.66608070
 20
41.78847991
  0
VERTEX
  8
0
 10
71.44140636
 20
42.28551569
  0
VERTEX
  8
0
 10
71.19383854
 20
42.77589157
  0
VERTEX
  8
0
 10
70.92427214
 20
43.25935956
  0
VERTEX
  8
0
 10
70.63360207
 20
43.73567172
  0
VERTEX
  8
0
 10
70.32272325
 20
44.20458006
  0
VERTEX
  8
0
 10
69.99253059
 20
44.66583662
  0
VERTEX
  8
0
 10
69.64391899
 20
45.11919343
  0
VERTEX
  8
0
 10
69.27778336
 20
45.56440252
  0
VERTEX
  8
0
 10
68.89501862
 20
46.00121592
  0
VERTEX
  8
0
 10
68.49651967
 20
46.42938567
  0
VERTEX
  8
0
 10
68.08318143
 20
46.84866378
  0
VERTEX
  8
0
 10
67.65589880
 20
47.25880230
  0
VERTEX
  8
0
 10
67.21556670
 20
47.65955326
  0
VERTEX
  8
0
 10
66.76308003
 20
48.05066868
  0
VERTEX
  8
0
 10
65.82522263
 20
48.80300104
  0
VERTEX
  8
0
 10
64.84948588
 20
49.51381564
  0
VERTEX
  8
0
 10
63.84302907
 20
50.18112873
  0
VERTEX
  8
0
 10
62.81301147
 20
50.80295654
  0
VERTEX
  8
0
 10
61.76659236
 20
51.37731533
  0
VERTEX
  8
0
 10
60.71093102
 20
51.90222135
  0
VERTEX
  8
0
 10
59.65318672
 20
52.37569085
  0
VERTEX
  8
0
 10
58.60051876
 20
52.79574006
  0
VERTEX
  8
0
 10
57.56008640
 20
53.16038525
  0
VERTEX
  8
0
 10
57.36622727
 20
53.59134065
  0
VERTEX
  8
0
 10
57.18686269
 20
54.03096932
  0
VERTEX
  8
0
 10
56.86143928
 20
54.93026739
  0
VERTEX
  8
0
 10
56.56346024
 20
55.84632121
  0
VERTEX
  8
0
 10
56.27256964
 20
56.76717256
  0
VERTEX
  8
0
 10
55.96841158
 20
57.68086319
  0
VERTEX
  8
0
 10
55.63063011
 20
58.57543487
  0
VERTEX
  8
0
 10
55.44276938
 20
59.01181416
  0
VERTEX
  8
0
 10
55.23886934
 20
59.43892937
  0
VERTEX
  8
0
 10
55.01638548
 20
59.85528573
  0
VERTEX
  8
0
 10
54.77277332
 20
60.25938846
  0
VERTEX
  8
0
 10
55.02017770
 20
60.36926831
  0
VERTEX
  8
0
 10
55.27353003
 20
60.46151052
  0
VERTEX
  8
0
 10
55.53256740
 20
60.53653036
  0
VERTEX
  8
0
 10
55.79702694
 20
60.59474309
  0
VERTEX
  8
0
 10
56.06664577
 20
60.63656399
  0
VERTEX
  8
0
 10
56.34116100
 20
60.66240832
  0
VERTEX
  8
0
 10
56.62030975
 20
60.67269134
  0
VERTEX
  8
0
 10
56.90382914
 20
60.66782833
  0
VERTEX
  8
0
 10
57.48292828
 20
60.61432526
  0
VERTEX
  8
0
 10
58.07635536
 20
60.50522123
  0
VERTEX
  8
0
 10
58.68200732
 20
60.34383838
  0
VERTEX
  8
0
 10
59.29778108
 20
60.13349884
  0
VERTEX
  8
0
 10
59.92157357
 20
59.87752473
  0
VERTEX
  8
0
 10
60.55128174
 20
59.57923820
  0
VERTEX
  8
0
 10
61.18480250
 20
59.24196137
  0
VERTEX
  8
0
 10
61.82003280
 20
58.86901637
  0
VERTEX
  8
0
 10
62.45486957
 20
58.46372534
  0
VERTEX
  8
0
 10
63.08720974
 20
58.02941040
  0
VERTEX
  8
0
 10
63.71495024
 20
57.56939369
  0
VERTEX
  8
0
 10
64.33598801
 20
57.08699734
  0
VERTEX
  8
0
 10
64.94821997
 20
56.58554348
  0
VERTEX
  8
0
 10
65.54954306
 20
56.06835424
  0
VERTEX
  8
0
 10
66.13785421
 20
55.53875175
  0
VERTEX
  8
0
 10
66.71105036
 20
55.00005814
  0
VERTEX
  8
0
 10
67.26702843
 20
54.45559555
  0
VERTEX
  8
0
 10
67.80368536
 20
53.90868610
  0
VERTEX
  8
0
 10
68.81062354
 20
52.82081516
  0
VERTEX
  8
0
 10
69.71504034
 20
51.76302239
  0
VERTEX
  8
0
 10
70.50011122
 20
50.76188482
  0
VERTEX
  8
0
 10
70.84263428
 20
50.29086707
  0
VERTEX
  8
0
 10
71.14901165
 20
49.84397951
  0
VERTEX
  8
0
 10
71.41714028
 20
49.42454427
  0
VERTEX
  8
0
 10
71.64491709
 20
49.03588350
  0
SEQEND
  0
POLYLINE
  8
Векторный_слой_3
 66
   1
 39
0.000000
 70
    1
  0
VERTEX
  8
0
 10
38.13132000
 20
76.07101787
  0
VERTEX
  8
0
 10
38.91275178
 20
75.71705022
  0
VERTEX
  8
0
 10
39.73158588
 20
75.30987874
  0
VERTEX
  8
0
 10
40.57570884
 20
74.85311028
  0
VERTEX
  8
0
 10
41.43300725
 20
74.35035169
  0
VERTEX
  8
0
 10
42.29136768
 20
73.80520984
  0
VERTEX
  8
0
 10
43.13867668
 20
73.22129157
  0
VERTEX
  8
0
 10
43.96282082
 20
72.60220375
  0
VERTEX
  8
0
 10
44.75168668
 20
71.95155322
  0
VERTEX
  8
0
 10
45.49316081
 20
71.27294685
  0
VERTEX
  8
0
 10
45.84234054
 20
70.92428736
  0
VERTEX
  8
0
 10
46.17512979
 20
70.56999148
  0
VERTEX
  8
0
 10
46.49001440
 20
70.21051007
  0
VERTEX
  8
0
 10
46.78548019
 20
69.84629398
  0
VERTEX
  8
0
 10
47.06001297
 20
69.47779407
  0
VERTEX
  8
0
 10
47.31209856
 20
69.10546119
  0
VERTEX
  8
0
 10
47.54022279
 20
68.72974621
  0
VERTEX
  8
0
 10
47.74287148
 20
68.35109998
  0
VERTEX
  8
0
 10
47.91853045
 20
67.96997336
  0
VERTEX
  8
0
 10
48.06568551
 20
67.58681720
  0
VERTEX
  8
0
 10
48.18282250
 20
67.20208236
  0
VERTEX
  8
0
 10
48.26842723
 20
66.81621970
  0
VERTEX
  8
0
 10
48.32098552
 20
66.42968008
  0
VERTEX
  8
0
 10
48.33898319
 20
66.04291434
  0
VERTEX
  8
0
 10
47.96692593
 20
65.89793579
  0
VERTEX
  8
0
 10
47.59047059
 20
65.77560536
  0
VERTEX
  8
0
 10
47.20994753
 20
65.67320194
  0
VERTEX
  8
0
 10
46.82568712
 20
65.58800438
  0
VERTEX
  8
0
 10
46.04727562
 20
65.45834232
  0
VERTEX
  8
0
 10
45.25787894
 20
65.36485013
  0
VERTEX
  8
0
 10
43.65670143
 20
65.19929906
  0
VERTEX
  8
0
 10
42.85020629
 20
65.08370206
  0
VERTEX
  8
0
 10
42.44663837
 20
65.00817423
  0
VERTEX
  8
0
 10
42.04329736
 20
64.91719866
  0
VERTEX
  8
0
 10
41.46146847
 20
65.01595209
  0
VERTEX
  8
0
 10
40.89350084
 20
65.16512519
  0
VERTEX
  8
0
 10
40.33767901
 20
65.35829299
  0
VERTEX
  8
0
 10
39.79228753
 20
65.58903051
  0
VERTEX
  8
0
 10
39.25561092
 20
65.85091278
  0
VERTEX
  8
0
 10
38.72593373
 20
66.13751482
  0
VERTEX
  8
0
 10
37.68071573
 20
66.75917833
  0
VERTEX
  8
0
 10
36.64290986
 20
67.40262123
  0
VERTEX
  8
0
 10
36.12249780
 20
67.71644752
  0
VERTEX
  8
0
 10
35.59879239
 20
68.01644372
  0
VERTEX
  8
0
 10
35.07007816
 20
68.29618488
  0
VERTEX
  8
0
 10
34.53463964
 20
68.54924601
  0
VERTEX
  8
0
 10
33.99076138
 20
68.76920214
  0
VERTEX
  8
0
 10
33.43672791
 20
68.94962829
  0
VERTEX
  8
0
 10
32.85746721
 20
69.49897544
  0
VERTEX
  8
0
 10
32.26935041
 20
70.01824447
  0
VERTEX
  8
0
 10
31.67225886
 20
70.50689817
  0
VERTEX
  8
0
 10
31.06607392
 20
70.96439935
  0
VERTEX
  8
0
 10
30.45067695
 20
71.39021080
  0
VERTEX
  8
0
 10
29.82594929
 20
71.78379531
  0
VERTEX
  8
0
 10
29.19177231
 20
72.14461568
  0
VERTEX
  8
0
 10
28.54802736
 20
72.47213471
  0
VERTEX
  8
0
 10
27.89459579
 20
72.76581519
  0
VERTEX
  8
0
 10
27.23135896
 20
73.02511992
  0
VERTEX
  8
0
 10
26.55819822
 20
73.24951169
  0
VERTEX
  8
0
 10
25.87499493
 20
73.43845330
  0
VERTEX
  8
0
 10
25.18163044
 20
73.59140754
  0
VERTEX
  8
0
 10
24.47798612
 20
73.70783722
  0
VERTEX
  8
0
 10
23.76394330
 20
73.78720512
  0
VERTEX
  8
0
 10
23.03938335
 20
73.82897405
  0
VERTEX
  8
0
 10
22.83266737
 20
73.98131266
  0
VERTEX
  8
0
 10
22.76000534
 20
74.06063864
  0
VERTEX
  8
0
 10
22.70718281
 20
74.14184406
  0
VERTEX
  8
0
 10
22.67373145
 20
74.22476016
  0
VERTEX
  8
0
 10
22.65918292
 20
74.30921817
  0
VERTEX
  8
0
 10
22.66306885
 20
74.39504934
  0
VERTEX
  8
0
 10
22.68492092
 20
74.48208491
  0
VERTEX
  8
0
 10
22.78065005
 20
74.65909420
  0
VERTEX
  8
0
 10
22.94262356
 20
74.83889594
  0
VERTEX
  8
0
 10
23.16709469
 20
75.02014005
  0
VERTEX
  8
0
 10
23.45031667
 20
75.20147646
  0
VERTEX
  8
0
 10
23.78854273
 20
75.38155507
  0
VERTEX
  8
0
 10
24.17802613
 20
75.55902580
  0
VERTEX
  8
0
 10
24.61502010
 20
75.73253857
  0
VERTEX
  8
0
 10
25.09577787
 20
75.90074329
  0
VERTEX
  8
0
 10
25.61655268
 20
76.06228987
  0
VERTEX
  8
0
 10
26.17359778
 20
76.21582825
  0
VERTEX
  8
0
 10
26.76316641
 20
76.36000832
  0
VERTEX
  8
0
 10
27.38151179
 20
76.49348001
  0
VERTEX
  8
0
 10
28.02488717
 20
76.61489322
  0
VERTEX
  8
0
 10
28.68954579
 20
76.72289789
  0
VERTEX
  8
0
 10
29.37174088
 20
76.81614391
  0
VERTEX
  8
0
 10
30.06772569
 20
76.89328122
  0
VERTEX
  8
0
 10
30.77375346
 20
76.95295972
  0
VERTEX
  8
0
 10
31.48607741
 20
76.99382933
  0
VERTEX
  8
0
 10
32.20095080
 20
77.01453996
  0
VERTEX
  8
0
 10
32.91462685
 20
77.01374153
  0
VERTEX
  8
0
 10
33.62335882
 20
76.99008396
  0
VERTEX
  8
0
 10
34.32339993
 20
76.94221716
  0
VERTEX
  8
0
 10
35.01100342
 20
76.86879105
  0
VERTEX
  8
0
 10
35.68242254
 20
76.76845555
  0
VERTEX
  8
0
 10
36.33391051
 20
76.63986056
  0
VERTEX
  8
0
 10
36.96172059
 20
76.48165601
  0
VERTEX
  8
0
 10
37.56210601
 20
76.29249181
  0
VERTEX
  8
0
 10
38.13132000
 20
76.07101787
  0
SEQEND
  0
POLYLINE
  8
Векторный_слой_3
 66
   1
 39
0.000000
 70
    1
  0
VERTEX
  8
0
 10
-11.68410220
 20
16.11323479
  0
VERTEX
  8
0
 10
-9.93205670
 20
19.73197831
  0
VERTEX
  8
0
 10
-9.05019984
 20
21.53794765
  0
VERTEX
  8
0
 10
-8.14098798
 20
23.33532581
  0
VERTEX
  8
0
 10
-7.18682189
 20
25.11937060
  0
VERTEX
  8
0
 10
-6.68738126
 20
26.00491105
  0
VERTEX
  8
0
 10
-6.17010237
 20
26.88533984
  0
VERTEX
  8
0
 10
-5.63278531
 20
27.76006419
  0
VERTEX
  8
0
 10
-5.07323020
 20
28.62849134
  0
VERTEX
  8
0
 10
-4.48923713
 20
29.49002851
  0
VERTEX
  8
0
 10
-3.87860619
 20
30.34408294
  0
VERTEX
  8
0
 10
-3.50459537
 20
31.24870605
  0
VERTEX
  8
0
 10
-3.15455032
 20
32.15646170
  0
VERTEX
  8
0
 10
-2.82652099
 20
33.06703292
  0
VERTEX
  8
0
 10
-2.51855730
 20
33.98010273
  0
VERTEX
  8
0
 10
-2.22870920
 20
34.89535413
  0
VERTEX
  8
0
 10
-1.95502660
 20
35.81247016
  0
VERTEX
  8
0
 10
-1.44835771
 20
37.65102816
  0
VERTEX
  8
0
 10
-0.98295011
 20
39.49324087
  0
VERTEX
  8
0
 10
-0.54320327
 20
41.33657245
  0
VERTEX
  8
0
 10
0.32171018
 20
45.01644883
  0
VERTEX
  8
0
 10
0.78475697
 20
46.85085232
  0
VERTEX
  8
0
 10
1.08357531
 20
47.96018970
  0
VERTEX
  8
0
 10
1.42774064
 20
49.17369956
  0
VERTEX
  8
0
 10
1.81761575
 20
50.47344348
  0
VERTEX
  8
0
 10
2.25356342
 20
51.84148299
  0
VERTEX
  8
0
 10
2.73594641
 20
53.25987966
  0
VERTEX
  8
0
 10
3.26512751
 20
54.71069504
  0
VERTEX
  8
0
 10
3.84146949
 20
56.17599069
  0
VERTEX
  8
0
 10
4.46533513
 20
57.63782815
  0
VERTEX
  8
0
 10
5.13708721
 20
59.07826898
  0
VERTEX
  8
0
 10
5.49103403
 20
59.78485990
  0
VERTEX
  8
0
 10
5.85708851
 20
60.47937474
  0
VERTEX
  8
0
 10
6.23529597
 20
61.15957121
  0
VERTEX
  8
0
 10
6.62570179
 20
61.82320698
  0
VERTEX
  8
0
 10
7.02835129
 20
62.46803977
  0
VERTEX
  8
0
 10
7.44328984
 20
63.09182726
  0
VERTEX
  8
0
 10
7.87056277
 20
63.69232715
  0
VERTEX
  8
0
 10
8.31021543
 20
64.26729713
  0
VERTEX
  8
0
 10
8.76229318
 20
64.81449490
  0
VERTEX
  8
0
 10
9.22684135
 20
65.33167815
  0
VERTEX
  8
0
 10
9.60745729
 20
65.72124050
  0
VERTEX
  8
0
 10
10.00121506
 20
66.09272276
  0
VERTEX
  8
0
 10
10.40753497
 20
66.44624466
  0
VERTEX
  8
0
 10
10.82583737
 20
66.78192592
  0
VERTEX
  8
0
 10
11.25554257
 20
67.09988626
  0
VERTEX
  8
0
 10
11.69607091
 20
67.40024538
  0
VERTEX
  8
0
 10
12.14684271
 20
67.68312303
  0
VERTEX
  8
0
 10
12.60727829
 20
67.94863890
  0
VERTEX
  8
0
 10
13.07679798
 20
68.19691274
  0
VERTEX
  8
0
 10
13.55482212
 20
68.42806424
  0
VERTEX
  8
0
 10
14.04077102
 20
68.64221314
  0
VERTEX
  8
0
 10
14.53406501
 20
68.83947915
  0
VERTEX
  8
0
 10
15.03412443
 20
69.01998200
  0
VERTEX
  8
0
 10
15.54036959
 20
69.18384140
  0
VERTEX
  8
0
 10
16.05222082
 20
69.33117707
  0
VERTEX
  8
0
 10
16.56909846
 20
69.46210873
  0
VERTEX
  8
0
 10
17.09042282
 20
69.57675610
  0
VERTEX
  8
0
 10
17.61561424
 20
69.67523891
  0
VERTEX
  8
0
 10
18.14409303
 20
69.75767686
  0
VERTEX
  8
0
 10
18.67527954
 20
69.82418969
  0
VERTEX
  8
0
 10
19.20859408
 20
69.87489711
  0
VERTEX
  8
0
 10
19.74345698
 20
69.90991884
  0
VERTEX
  8
0
 10
20.27928856
 20
69.92937460
  0
VERTEX
  8
0
 10
20.81550917
 20
69.93338411
  0
VERTEX
  8
0
 10
21.35153911
 20
69.92206709
  0
VERTEX
  8
0
 10
21.88679872
 20
69.89554325
  0
VERTEX
  8
0
 10
22.42070833
 20
69.85393233
  0
VERTEX
  8
0
 10
22.95268826
 20
69.79735403
  0
VERTEX
  8
0
 10
23.48215884
 20
69.72592809
  0
VERTEX
  8
0
 10
24.00854039
 20
69.63977421
  0
VERTEX
  8
0
 10
24.53125324
 20
69.53901211
  0
VERTEX
  8
0
 10
25.04971773
 20
69.42376153
  0
VERTEX
  8
0
 10
25.56335417
 20
69.29414217
  0
VERTEX
  8
0
 10
26.07158289
 20
69.15027376
  0
VERTEX
  8
0
 10
26.57382422
 20
68.99227602
  0
VERTEX
  8
0
 10
27.06949849
 20
68.82026866
  0
VERTEX
  8
0
 10
27.55802602
 20
68.63437141
  0
VERTEX
  8
0
 10
28.03882713
 20
68.43470398
  0
VERTEX
  8
0
 10
28.51132217
 20
68.22138610
  0
VERTEX
  8
0
 10
28.97493145
 20
67.99453749
  0
VERTEX
  8
0
 10
29.42907530
 20
67.75427786
  0
VERTEX
  8
0
 10
29.87317404
 20
67.50072693
  0
VERTEX
  8
0
 10
30.30664801
 20
67.23400443
  0
VERTEX
  8
0
 10
30.72891753
 20
66.95423007
  0
VERTEX
  8
0
 10
31.13940292
 20
66.66152357
  0
VERTEX
  8
0
 10
31.53752452
 20
66.35600466
  0
VERTEX
  8
0
 10
31.92270265
 20
66.03779305
  0
VERTEX
  8
0
 10
32.29435764
 20
65.70700847
  0
VERTEX
  8
0
 10
32.65190981
 20
65.36377062
  0
VERTEX
  8
0
 10
32.99477949
 20
65.00819924
  0
VERTEX
  8
0
 10
33.32238701
 20
64.64041404
  0
VERTEX
  8
0
 10
33.63415269
 20
64.26053474
  0
VERTEX
  8
0
 10
33.92949686
 20
63.86868106
  0
VERTEX
  8
0
 10
34.20783985
 20
63.46497273
  0
VERTEX
  8
0
 10
34.46860199
 20
63.04952945
  0
VERTEX
  8
0
 10
34.71120360
 20
62.62247095
  0
VERTEX
  8
0
 10
34.93506501
 20
62.18391696
  0
VERTEX
  8
0
 10
35.13960654
 20
61.73398718
  0
VERTEX
  8
0
 10
35.32424852
 20
61.27280135
  0
VERTEX
  8
0
 10
35.48841128
 20
60.80047917
  0
VERTEX
  8
0
 10
35.63151515
 20
60.31714037
  0
VERTEX
  8
0
 10
35.75298045
 20
59.82290467
  0
VERTEX
  8
0
 10
35.85222751
 20
59.31789179
  0
VERTEX
  8
0
 10
35.92867665
 20
58.80222144
  0
VERTEX
  8
0
 10
35.24226311
 20
58.50829083
  0
VERTEX
  8
0
 10
34.56443828
 20
58.19942339
  0
VERTEX
  8
0
 10
33.89517171
 20
57.87585207
  0
VERTEX
  8
0
 10
33.23443290
 20
57.53780985
  0
VERTEX
  8
0
 10
32.58219140
 20
57.18552966
  0
VERTEX
  8
0
 10
31.93841673
 20
56.81924447
  0
VERTEX
  8
0
 10
31.30307842
 20
56.43918724
  0
VERTEX
  8
0
 10
30.67614599
 20
56.04559091
  0
VERTEX
  8
0
 10
30.05758897
 20
55.63868845
  0
VERTEX
  8
0
 10
29.44737689
 20
55.21871281
  0
VERTEX
  8
0
 10
28.84547928
 20
54.78589695
  0
VERTEX
  8
0
 10
28.25186566
 20
54.34047381
  0
VERTEX
  8
0
 10
27.08936852
 20
53.41273757
  0
VERTEX
  8
0
 10
25.95964168
 20
52.43736772
  0
VERTEX
  8
0
 10
24.86244138
 20
51.41622792
  0
VERTEX
  8
0
 10
23.79752381
 20
50.35118181
  0
VERTEX
  8
0
 10
22.76464522
 20
49.24409303
  0
VERTEX
  8
0
 10
21.76356181
 20
48.09682525
  0
VERTEX
  8
0
 10
20.79402981
 20
46.91124209
  0
VERTEX
  8
0
 10
19.85580544
 20
45.68920721
  0
VERTEX
  8
0
 10
18.94864491
 20
44.43258426
  0
VERTEX
  8
0
 10
18.07230445
 20
43.14323687
  0
VERTEX
  8
0
 10
17.64313051
 20
42.52560437
  0
VERTEX
  8
0
 10
17.23479583
 20
41.90356643
  0
VERTEX
  8
0
 10
16.84578504
 20
41.27745636
  0
VERTEX
  8
0
 10
16.47458278
 20
40.64760746
  0
VERTEX
  8
0
 10
15.77954232
 20
39.37802643
  0
VERTEX
  8
0
 10
15.13755150
 20
38.09748983
  0
VERTEX
  8
0
 10
14.53648734
 20
36.80866413
  0
VERTEX
  8
0
 10
13.96422688
 20
35.51421582
  0
VERTEX
  8
0
 10
12.85762520
 20
32.91911728
  0
VERTEX
  8
0
 10
12.29903803
 20
31.62380000
  0
VERTEX
  8
0
 10
11.72076270
 20
30.33352604
  0
VERTEX
  8
0
 10
11.11067623
 20
29.05096186
  0
VERTEX
  8
0
 10
10.45665566
 20
27.77877394
  0
VERTEX
  8
0
 10
10.10938166
 20
27.14740436
  0
VERTEX
  8
0
 10
9.74657802
 20
26.51962877
  0
VERTEX
  8
0
 10
9.36672937
 20
25.89578049
  0
VERTEX
  8
0
 10
8.96832034
 20
25.27619283
  0
VERTEX
  8
0
 10
8.54983556
 20
24.66119909
  0
VERTEX
  8
0
 10
8.10975966
 20
24.05113259
  0
VERTEX
  8
0
 10
7.64657726
 20
23.44632664
  0
VERTEX
  8
0
 10
7.15877300
 20
22.84711454
  0
VERTEX
  8
0
 10
5.93260628
 20
21.53884158
  0
VERTEX
  8
0
 10
4.72070927
 20
20.19502114
  0
VERTEX
  8
0
 10
3.52622590
 20
18.81808548
  0
VERTEX
  8
0
 10
2.35230014
 20
17.41046687
  0
VERTEX
  8
0
 10
1.20207591
 20
15.97459758
  0
VERTEX
  8
0
 10
0.07869718
 20
14.51290986
  0
VERTEX
  8
0
 10
-1.01469212
 20
13.02783598
  0
VERTEX
  8
0
 10
-2.07494804
 20
11.52180820
  0
VERTEX
  8
0
 10
-3.09892663
 20
9.99725879
  0
VERTEX
  8
0
 10
-4.08348396
 20
8.45662002
  0
VERTEX
  8
0
 10
-5.02547607
 20
6.90232414
  0
VERTEX
  8
0
 10
-5.92175902
 20
5.33680343
  0
VERTEX
  8
0
 10
-6.76918886
 20
3.76249014
  0
VERTEX
  8
0
 10
-7.56462165
 20
2.18181654
  0
VERTEX
  8
0
 10
-8.30491344
 20
0.59721489
  0
VERTEX
  8
0
 10
-8.98692029
 20
-0.98888253
  0
VERTEX
  8
0
 10
-9.27598187
 20
-0.94515941
  0
VERTEX
  8
0
 10
-9.55434330
 20
-0.88794454
  0
VERTEX
  8
0
 10
-9.82214302
 20
-0.81754745
  0
VERTEX
  8
0
 10
-10.07951951
 20
-0.73427764
  0
VERTEX
  8
0
 10
-10.32661122
 20
-0.63844463
  0
VERTEX
  8
0
 10
-10.56355660
 20
-0.53035793
  0
VERTEX
  8
0
 10
-10.79049412
 20
-0.41032705
  0
VERTEX
  8
0
 10
-11.00756224
 20
-0.27866150
  0
VERTEX
  8
0
 10
-11.41264409
 20
0.01833555
  0
VERTEX
  8
0
 10
-11.77990985
 20
0.35815712
  0
VERTEX
  8
0
 10
-12.11046716
 20
0.73832713
  0
VERTEX
  8
0
 10
-12.40542372
 20
1.15636946
  0
VERTEX
  8
0
 10
-12.66588719
 20
1.60980803
  0
VERTEX
  8
0
 10
-12.89296524
 20
2.09616673
  0
VERTEX
  8
0
 10
-13.08776556
 20
2.61296949
  0
VERTEX
  8
0
 10
-13.25139580
 20
3.15774018
  0
VERTEX
  8
0
 10
-13.38496364
 20
3.72800273
  0
VERTEX
  8
0
 10
-13.48957677
 20
4.32128103
  0
VERTEX
  8
0
 10
-13.56634284
 20
4.93509899
  0
VERTEX
  8
0
 10
-13.61636953
 20
5.56698052
  0
VERTEX
  8
0
 10
-13.64076452
 20
6.21444950
  0
VERTEX
  8
0
 10
-13.64063547
 20
6.87502986
  0
VERTEX
  8
0
 10
-13.61709007
 20
7.54624549
  0
VERTEX
  8
0
 10
-13.57123598
 20
8.22562030
  0
VERTEX
  8
0
 10
-13.50418087
 20
8.91067819
  0
VERTEX
  8
0
 10
-13.41703242
 20
9.59894306
  0
VERTEX
  8
0
 10
-13.31089831
 20
10.28793883
  0
VERTEX
  8
0
 10
-13.18688620
 20
10.97518938
  0
VERTEX
  8
0
 10
-13.04610376
 20
11.65821863
  0
VERTEX
  8
0
 10
-12.88965868
 20
12.33455048
  0
VERTEX
  8
0
 10
-12.71865862
 20
13.00170884
  0
VERTEX
  8
0
 10
-12.53421125
 20
13.65721760
  0
VERTEX
  8
0
 10
-12.33742426
 20
14.29860067
  0
VERTEX
  8
0
 10
-12.12940530
 20
14.92338196
  0
VERTEX
  8
0
 10
-11.91126206
 20
15.52908537
  0
VERTEX
  8
0
 10
-11.68410220
 20
16.11323479
  0
SEQEND
  0
POLYLINE
  8
Векторный_слой_3
 66
   1
 39
0.000000
 70
    1
  0
VERTEX
  8
0
 10
8.64207493
 20
-6.68194103
  0
VERTEX
  8
0
 10
8.16316944
 20
-6.92658375
  0
VERTEX
  8
0
 10
7.69165337
 20
-7.14883458
  0
VERTEX
  8
0
 10
7.22757960
 20
-7.34920003
  0
VERTEX
  8
0
 10
6.77100097
 20
-7.52818663
  0
VERTEX
  8
0
 10
6.32197036
 20
-7.68630089
  0
VERTEX
  8
0
 10
5.88054062
 20
-7.82404933
  0
VERTEX
  8
0
 10
5.44676462
 20
-7.94193847
  0
VERTEX
  8
0
 10
5.02069522
 20
-8.04047483
  0
VERTEX
  8
0
 10
4.60238527
 20
-8.12016494
  0
VERTEX
  8
0
 10
4.19188765
 20
-8.18151530
  0
VERTEX
  8
0
 10
3.78925521
 20
-8.22503245
  0
VERTEX
  8
0
 10
3.39454082
 20
-8.25122289
  0
VERTEX
  8
0
 10
3.00779733
 20
-8.26059315
  0
VERTEX
  8
0
 10
2.62907761
 20
-8.25364976
  0
VERTEX
  8
0
 10
2.25843452
 20
-8.23089922
  0
VERTEX
  8
0
 10
1.89592093
 20
-8.19284806
  0
VERTEX
  8
0
 10
1.54158968
 20
-8.14000279
  0
VERTEX
  8
0
 10
1.19549366
 20
-8.07286995
  0
VERTEX
  8
0
 10
0.85768571
 20
-7.99195603
  0
VERTEX
  8
0
 10
0.52821870
 20
-7.89776758
  0
VERTEX
  8
0
 10
-0.10548105
 20
-7.67159312
  0
VERTEX
  8
0
 10
-0.70518271
 20
-7.39839871
  0
VERTEX
  8
0
 10
-1.27046337
 20
-7.08223652
  0
VERTEX
  8
0
 10
-1.80090014
 20
-6.72715870
  0
VERTEX
  8
0
 10
-2.29607014
 20
-6.33721741
  0
VERTEX
  8
0
 10
-2.75555045
 20
-5.91646480
  0
VERTEX
  8
0
 10
-3.17891820
 20
-5.46895303
  0
VERTEX
  8
0
 10
-3.56575048
 20
-4.99873426
  0
VERTEX
  8
0
 10
-3.91562441
 20
-4.50986064
  0
VERTEX
  8
0
 10
-4.22811708
 20
-4.00638433
  0
VERTEX
  8
0
 10
-4.50280561
 20
-3.49235748
  0
VERTEX
  8
0
 10
-4.73926709
 20
-2.97183226
  0
VERTEX
  8
0
 10
-4.93707864
 20
-2.44886081
  0
VERTEX
  8
0
 10
-5.09581736
 20
-1.92749530
  0
VERTEX
  8
0
 10
-5.21506035
 20
-1.41178788
  0
VERTEX
  8
0
 10
-5.29438473
 20
-0.90579071
  0
VERTEX
  8
0
 10
-5.33336759
 20
-0.41355593
  0
VERTEX
  8
0
 10
-5.33158605
 20
0.06086428
  0
VERTEX
  8
0
 10
-5.28861720
 20
0.51341777
  0
VERTEX
  8
0
 10
-5.20403816
 20
0.94005240
  0
VERTEX
  8
0
 10
-5.07742603
 20
1.33671599
  0
VERTEX
  8
0
 10
-4.90835792
 20
1.69935640
  0
VERTEX
  8
0
 10
-4.43585987
 20
2.51884410
  0
VERTEX
  8
0
 10
-3.93283545
 20
3.32758166
  0
VERTEX
  8
0
 10
-3.40259486
 20
4.12599791
  0
VERTEX
  8
0
 10
-2.84844828
 20
4.91452167
  0
VERTEX
  8
0
 10
-2.27370589
 20
5.69358175
  0
VERTEX
  8
0
 10
-1.68167787
 20
6.46360697
  0
VERTEX
  8
0
 10
-0.45900566
 20
7.97826814
  0
VERTEX
  8
0
 10
0.79308687
 20
9.46193573
  0
VERTEX
  8
0
 10
2.04811827
 20
10.91804028
  0
VERTEX
  8
0
 10
3.27960709
 20
12.35001237
  0
VERTEX
  8
0
 10
4.46107186
 20
13.76128253
  0
VERTEX
  8
0
 10
5.48875984
 20
14.83597618
  0
VERTEX
  8
0
 10
6.46494113
 20
15.92173926
  0
VERTEX
  8
0
 10
7.39245161
 20
17.01865895
  0
VERTEX
  8
0
 10
8.27412718
 20
18.12682246
  0
VERTEX
  8
0
 10
9.11280374
 20
19.24631698
  0
VERTEX
  8
0
 10
9.91131718
 20
20.37722972
  0
VERTEX
  8
0
 10
10.67250341
 20
21.51964787
  0
VERTEX
  8
0
 10
11.39919831
 20
22.67365863
  0
VERTEX
  8
0
 10
12.09423778
 20
23.83934919
  0
VERTEX
  8
0
 10
12.76045772
 20
25.01680677
  0
VERTEX
  8
0
 10
13.40069403
 20
26.20611854
  0
VERTEX
  8
0
 10
14.01778259
 20
27.40737172
  0
VERTEX
  8
0
 10
14.61455932
 20
28.62065349
  0
VERTEX
  8
0
 10
15.19386009
 20
29.84605107
  0
VERTEX
  8
0
 10
15.75852082
 20
31.08365163
  0
VERTEX
  8
0
 10
16.31137739
 20
32.33354240
  0
VERTEX
  8
0
 10
16.92271751
 20
33.54365472
  0
VERTEX
  8
0
 10
17.57458671
 20
34.73357219
  0
VERTEX
  8
0
 10
18.26395131
 20
35.90423336
  0
VERTEX
  8
0
 10
18.98777765
 20
37.05657680
  0
VERTEX
  8
0
 10
19.74303204
 20
38.19154109
  0
VERTEX
  8
0
 10
20.52668080
 20
39.31006479
  0
VERTEX
  8
0
 10
21.33569026
 20
40.41308648
  0
VERTEX
  8
0
 10
22.16702673
 20
41.50154472
  0
VERTEX
  8
0
 10
23.01765655
 20
42.57637807
  0
VERTEX
  8
0
 10
23.88454604
 20
43.63852512
  0
VERTEX
  8
0
 10
24.76466151
 20
44.68892443
  0
VERTEX
  8
0
 10
25.65496930
 20
45.72851456
  0
VERTEX
  8
0
 10
27.45402708
 20
47.77902158
  0
VERTEX
  8
0
 10
29.25744999
 20
49.79755474
  0
VERTEX
  8
0
 10
29.85878775
 20
50.27915870
  0
VERTEX
  8
0
 10
30.47905387
 20
50.75462891
  0
VERTEX
  8
0
 10
31.11756908
 20
51.21851415
  0
VERTEX
  8
0
 10
31.77365413
 20
51.66536324
  0
VERTEX
  8
0
 10
32.44662974
 20
52.08972497
  0
VERTEX
  8
0
 10
33.13581665
 20
52.48614815
  0
VERTEX
  8
0
 10
33.84053558
 20
52.84918156
  0
VERTEX
  8
0
 10
34.56010728
 20
53.17337402
  0
VERTEX
  8
0
 10
35.29385248
 20
53.45327432
  0
VERTEX
  8
0
 10
36.04109191
 20
53.68343126
  0
VERTEX
  8
0
 10
36.41955969
 20
53.77815247
  0
VERTEX
  8
0
 10
36.80114630
 20
53.85839364
  0
VERTEX
  8
0
 10
37.18576684
 20
53.92347338
  0
VERTEX
  8
0
 10
37.57333640
 20
53.97271027
  0
VERTEX
  8
0
 10
37.96377006
 20
54.00542292
  0
VERTEX
  8
0
 10
38.35698292
 20
54.02092994
  0
VERTEX
  8
0
 10
38.75289008
 20
54.01854991
  0
VERTEX
  8
0
 10
39.15140661
 20
53.99760145
  0
VERTEX
  8
0
 10
39.55244763
 20
53.95740315
  0
VERTEX
  8
0
 10
39.95592821
 20
53.89727360
  0
VERTEX
  8
0
 10
40.36176344
 20
53.81653142
  0
VERTEX
  8
0
 10
40.76986843
 20
53.71449520
  0
VERTEX
  8
0
 10
41.39941439
 20
53.41897075
  0
VERTEX
  8
0
 10
42.01605535
 20
53.09492413
  0
VERTEX
  8
0
 10
42.61794425
 20
52.74319410
  0
VERTEX
  8
0
 10
43.20323405
 20
52.36461943
  0
VERTEX
  8
0
 10
43.77007770
 20
51.96003889
  0
VERTEX
  8
0
 10
44.31662816
 20
51.53029125
  0
VERTEX
  8
0
 10
44.84103838
 20
51.07621526
  0
VERTEX
  8
0
 10
45.34146132
 20
50.59864970
  0
VERTEX
  8
0
 10
45.81604992
 20
50.09843333
  0
VERTEX
  8
0
 10
46.26295715
 20
49.57640492
  0
VERTEX
  8
0
 10
46.68033595
 20
49.03340323
  0
VERTEX
  8
0
 10
47.06633928
 20
48.47026704
  0
VERTEX
  8
0
 10
47.41912010
 20
47.88783510
  0
VERTEX
  8
0
 10
47.73683135
 20
47.28694619
  0
VERTEX
  8
0
 10
48.01762599
 20
46.66843908
  0
VERTEX
  8
0
 10
48.25965698
 20
46.03315251
  0
VERTEX
  8
0
 10
48.40404673
 20
45.56746260
  0
VERTEX
  8
0
 10
48.52742755
 20
45.06329638
  0
VERTEX
  8
0
 10
48.62975913
 20
44.52321955
  0
VERTEX
  8
0
 10
48.71100120
 20
43.94979780
  0
VERTEX
  8
0
 10
48.77111347
 20
43.34559683
  0
VERTEX
  8
0
 10
48.81005564
 20
42.71318233
  0
VERTEX
  8
0
 10
48.82778742
 20
42.05511999
  0
VERTEX
  8
0
 10
48.82426854
 20
41.37397551
  0
VERTEX
  8
0
 10
48.79945869
 20
40.67231459
  0
VERTEX
  8
0
 10
48.75331759
 20
39.95270290
  0
VERTEX
  8
0
 10
48.68580496
 20
39.21770615
  0
VERTEX
  8
0
 10
48.59688050
 20
38.46989004
  0
VERTEX
  8
0
 10
48.48650392
 20
37.71182025
  0
VERTEX
  8
0
 10
48.35463493
 20
36.94606247
  0
VERTEX
  8
0
 10
48.20123325
 20
36.17518241
  0
VERTEX
  8
0
 10
48.02625859
 20
35.40174575
  0
VERTEX
  8
0
 10
47.82637984
 20
34.61237737
  0
VERTEX
  8
0
 10
47.61454148
 20
33.85393343
  0
VERTEX
  8
0
 10
47.39108009
 20
33.12530085
  0
VERTEX
  8
0
 10
47.15633224
 20
32.42536659
  0
VERTEX
  8
0
 10
46.91063449
 20
31.75301758
  0
VERTEX
  8
0
 10
46.65432340
 20
31.10714076
  0
VERTEX
  8
0
 10
46.38773555
 20
30.48662308
  0
VERTEX
  8
0
 10
46.11120751
 20
29.89035147
  0
VERTEX
  8
0
 10
45.82507583
 20
29.31721288
  0
VERTEX
  8
0
 10
45.52967710
 20
28.76609424
  0
VERTEX
  8
0
 10
45.22534786
 20
28.23588250
  0
VERTEX
  8
0
 10
44.91242470
 20
27.72546459
  0
VERTEX
  8
0
 10
44.59124418
 20
27.23372746
  0
VERTEX
  8
0
 10
44.26214287
 20
26.75955806
  0
VERTEX
  8
0
 10
43.92545733
 20
26.30184331
  0
VERTEX
  8
0
 10
43.58152413
 20
25.85947016
  0
VERTEX
  8
0
 10
42.87326102
 20
25.01629642
  0
VERTEX
  8
0
 10
42.14004609
 20
24.22113237
  0
VERTEX
  8
0
 10
41.38457187
 20
23.46507353
  0
VERTEX
  8
0
 10
40.60953090
 20
22.73921543
  0
VERTEX
  8
0
 10
39.81761571
 20
22.03465360
  0
VERTEX
  8
0
 10
39.01151885
 20
21.34248356
  0
VERTEX
  8
0
 10
37.36755027
 20
19.95970094
  0
VERTEX
  8
0
 10
36.12495346
 20
18.93542828
  0
VERTEX
  8
0
 10
34.86989014
 20
17.94019497
  0
VERTEX
  8
0
 10
33.60595915
 20
16.96609017
  0
VERTEX
  8
0
 10
32.33675933
 20
16.00520303
  0
VERTEX
  8
0
 10
29.79694857
 20
14.09143826
  0
VERTEX
  8
0
 10
28.53353533
 20
13.12273894
  0
VERTEX
  8
0
 10
27.27924863
 20
12.13561385
  0
VERTEX
  8
0
 10
26.03768733
 20
11.12215213
  0
VERTEX
  8
0
 10
24.81245025
 20
10.07444294
  0
VERTEX
  8
0
 10
23.60713626
 20
8.98457541
  0
VERTEX
  8
0
 10
22.42534418
 20
7.84463870
  0
VERTEX
  8
0
 10
21.84439350
 20
7.25342225
  0
VERTEX
  8
0
 10
21.27067286
 20
6.64672194
  0
VERTEX
  8
0
 10
20.70463213
 20
6.02354891
  0
VERTEX
  8
0
 10
20.14672116
 20
5.38291429
  0
VERTEX
  8
0
 10
19.59738980
 20
4.72382924
  0
VERTEX
  8
0
 10
19.05708790
 20
4.04530489
  0
VERTEX
  8
0
 10
18.52626533
 20
3.34635239
  0
VERTEX
  8
0
 10
18.00537194
 20
2.62598288
  0
VERTEX
  8
0
 10
17.04919904
 20
1.36107215
  0
VERTEX
  8
0
 10
16.04035970
 20
0.06582275
  0
VERTEX
  8
0
 10
14.97458153
 20
-1.23010739
  0
VERTEX
  8
0
 10
14.41900527
 20
-1.86905962
  0
VERTEX
  8
0
 10
13.84759216
 20
-2.49706031
  0
VERTEX
  8
0
 10
13.25980815
 20
-3.11040220
  0
VERTEX
  8
0
 10
12.65511919
 20
-3.70537807
  0
VERTEX
  8
0
 10
12.03299124
 20
-4.27828066
  0
VERTEX
  8
0
 10
11.39289025
 20
-4.82540274
  0
VERTEX
  8
0
 10
10.73428217
 20
-5.34303706
  0
VERTEX
  8
0
 10
10.05663296
 20
-5.82747637
  0
VERTEX
  8
0
 10
9.35940856
 20
-6.27501345
  0
VERTEX
  8
0
 10
8.64207493
 20
-6.68194103
  0
SEQEND
  0
POLYLINE
  8
Векторный_слой_3
 66
   1
 39
0.000000
 70
    1
  0
VERTEX
  8
0
 10
61.82543230
 20
15.68899831
  0
VERTEX
  8
0
 10
59.74087256
 20
14.12958476
  0
VERTEX
  8
0
 10
57.45258042
 20
12.41908659
  0
VERTEX
  8
0
 10
56.28011177
 20
11.52532267
  0
VERTEX
  8
0
 10
55.11440251
 20
10.61555788
  0
VERTEX
  8
0
 10
53.97468347
 20
9.69704897
  0
VERTEX
  8
0
 10
52.88018548
 20
8.77705271
  0
VERTEX
  8
0
 10
51.91572541
 20
7.93180109
  0
VERTEX
  8
0
 10
51.01404811
 20
7.11418672
  0
VERTEX
  8
0
 10
50.16834201
 20
6.31908121
  0
VERTEX
  8
0
 10
49.37179554
 20
5.54135618
  0
VERTEX
  8
0
 10
48.61759711
 20
4.77588324
  0
VERTEX
  8
0
 10
47.89893516
 20
4.01753402
  0
VERTEX
  8
0
 10
47.20899811
 20
3.26118013
  0
VERTEX
  8
0
 10
46.54097437
 20
2.50169319
  0
VERTEX
  8
0
 10
45.88805239
 20
1.73394481
  0
VERTEX
  8
0
 10
45.24342058
 20
0.95280662
  0
VERTEX
  8
0
 10
43.95178118
 20
-0.67015274
  0
VERTEX
  8
0
 10
42.61156357
 20
-2.40821194
  0
VERTEX
  8
0
 10
41.16827514
 20
-4.30239804
  0
VERTEX
  8
0
 10
40.38695044
 20
-5.34381157
  0
VERTEX
  8
0
 10
39.61559976
 20
-6.39264506
  0
VERTEX
  8
0
 10
38.08240526
 20
-8.48738731
  0
VERTEX
  8
0
 10
37.31035386
 20
-9.52070377
  0
VERTEX
  8
0
 10
36.52786129
 20
-10.53625558
  0
VERTEX
  8
0
 10
35.72982375
 20
-11.52774660
  0
VERTEX
  8
0
 10
34.91113746
 20
-12.48888068
  0
VERTEX
  8
0
 10
34.06669860
 20
-13.41336165
  0
VERTEX
  8
0
 10
33.19140339
 20
-14.29489338
  0
VERTEX
  8
0
 10
32.74058972
 20
-14.71758573
  0
VERTEX
  8
0
 10
32.28014803
 20
-15.12717971
  0
VERTEX
  8
0
 10
31.80944036
 20
-15.52288830
  0
VERTEX
  8
0
 10
31.32782872
 20
-15.90392449
  0
VERTEX
  8
0
 10
30.83467515
 20
-16.26950125
  0
VERTEX
  8
0
 10
30.32934166
 20
-16.61883156
  0
VERTEX
  8
0
 10
29.81119029
 20
-16.95112841
  0
VERTEX
  8
0
 10
29.27958306
 20
-17.26560479
  0
VERTEX
  8
0
 10
28.73388200
 20
-17.56147366
  0
VERTEX
  8
0
 10
28.17344912
 20
-17.83794801
  0
VERTEX
  8
0
 10
27.59764646
 20
-18.09424082
  0
VERTEX
  8
0
 10
27.00583605
 20
-18.32956507
  0
VERTEX
  8
0
 10
26.13154940
 20
-18.63318489
  0
VERTEX
  8
0
 10
25.26263965
 20
-18.88693417
  0
VERTEX
  8
0
 10
24.40024199
 20
-19.09252918
  0
VERTEX
  8
0
 10
23.54549164
 20
-19.25168618
  0
VERTEX
  8
0
 10
22.69952379
 20
-19.36612142
  0
VERTEX
  8
0
 10
21.86347364
 20
-19.43755117
  0
VERTEX
  8
0
 10
21.03847640
 20
-19.46769169
  0
VERTEX
  8
0
 10
20.22566728
 20
-19.45825924
  0
VERTEX
  8
0
 10
19.42618146
 20
-19.41097007
  0
VERTEX
  8
0
 10
18.64115417
 20
-19.32754044
  0
VERTEX
  8
0
 10
17.87172059
 20
-19.20968663
  0
VERTEX
  8
0
 10
17.11901593
 20
-19.05912488
  0
VERTEX
  8
0
 10
16.38417540
 20
-18.87757146
  0
VERTEX
  8
0
 10
15.66833420
 20
-18.66674263
  0
VERTEX
  8
0
 10
14.97262753
 20
-18.42835465
  0
VERTEX
  8
0
 10
14.29819059
 20
-18.16412377
  0
VERTEX
  8
0
 10
13.64615859
 20
-17.87576627
  0
VERTEX
  8
0
 10
13.01766672
 20
-17.56499839
  0
VERTEX
  8
0
 10
12.41385020
 20
-17.23353639
  0
VERTEX
  8
0
 10
11.83584422
 20
-16.88309655
  0
VERTEX
  8
0
 10
11.28478399
 20
-16.51539512
  0
VERTEX
  8
0
 10
10.76180470
 20
-16.13214835
  0
VERTEX
  8
0
 10
10.26804157
 20
-15.73507251
  0
VERTEX
  8
0
 10
9.80462980
 20
-15.32588386
  0
VERTEX
  8
0
 10
9.37270458
 20
-14.90629866
  0
VERTEX
  8
0
 10
8.97340113
 20
-14.47803317
  0
VERTEX
  8
0
 10
8.60785463
 20
-14.04280365
  0
VERTEX
  8
0
 10
8.27720030
 20
-13.60232636
  0
VERTEX
  8
0
 10
7.98257335
 20
-13.15831756
  0
VERTEX
  8
0
 10
7.72510896
 20
-12.71249350
  0
VERTEX
  8
0
 10
7.50594235
 20
-12.26657046
  0
VERTEX
  8
0
 10
7.32620871
 20
-11.82226469
  0
VERTEX
  8
0
 10
7.44872031
 20
-11.67330461
  0
VERTEX
  8
0
 10
7.58076313
 20
-11.54135568
  0
VERTEX
  8
0
 10
7.72152476
 20
-11.42497336
  0
VERTEX
  8
0
 10
7.87019280
 20
-11.32271308
  0
VERTEX
  8
0
 10
8.18799846
 20
-11.15478044
  0
VERTEX
  8
0
 10
8.52768088
 20
-11.02600133
  0
VERTEX
  8
0
 10
8.88274080
 20
-10.92481932
  0
VERTEX
  8
0
 10
9.24667897
 20
-10.83967798
  0
VERTEX
  8
0
 10
9.97519306
 20
-10.67129156
  0
VERTEX
  8
0
 10
10.72164782
 20
-10.38892145
  0
VERTEX
  8
0
 10
11.43033895
 20
-10.08739609
  0
VERTEX
  8
0
 10
12.10649224
 20
-9.76326837
  0
VERTEX
  8
0
 10
12.75533350
 20
-9.41309116
  0
VERTEX
  8
0
 10
13.38208852
 20
-9.03341734
  0
VERTEX
  8
0
 10
13.99198310
 20
-8.62079979
  0
VERTEX
  8
0
 10
14.59024302
 20
-8.17179138
  0
VERTEX
  8
0
 10
15.18209410
 20
-7.68294499
  0
VERTEX
  8
0
 10
15.77276212
 20
-7.15081350
  0
VERTEX
  8
0
 10
16.36747288
 20
-6.57194978
  0
VERTEX
  8
0
 10
16.97145218
 20
-5.94290672
  0
VERTEX
  8
0
 10
17.58992581
 20
-5.26023718
  0
VERTEX
  8
0
 10
18.22811957
 20
-4.52049405
  0
VERTEX
  8
0
 10
18.89125926
 20
-3.72023020
  0
VERTEX
  8
0
 10
20.31327960
 20
-1.92435187
  0
VERTEX
  8
0
 10
21.81659941
 20
0.21318946
  0
VERTEX
  8
0
 10
22.61383417
 20
1.30684531
  0
VERTEX
  8
0
 10
23.44148925
 20
2.40643401
  0
VERTEX
  8
0
 10
24.29959245
 20
3.50396258
  0
VERTEX
  8
0
 10
25.18817159
 20
4.59143807
  0
VERTEX
  8
0
 10
26.10725447
 20
5.66086752
  0
VERTEX
  8
0
 10
27.05686890
 20
6.70425795
  0
VERTEX
  8
0
 10
28.03704268
 20
7.71361642
  0
VERTEX
  8
0
 10
29.04780364
 20
8.68094995
  0
VERTEX
  8
0
 10
29.56466299
 20
9.14635957
  0
VERTEX
  8
0
 10
30.08917957
 20
9.59826559
  0
VERTEX
  8
0
 10
30.62135684
 20
10.03566889
  0
VERTEX
  8
0
 10
31.16119828
 20
10.45757036
  0
VERTEX
  8
0
 10
31.70870737
 20
10.86297088
  0
VERTEX
  8
0
 10
32.26388758
 20
11.25087132
  0
VERTEX
  8
0
 10
32.82674240
 20
11.62027256
  0
VERTEX
  8
0
 10
33.39727529
 20
11.97017549
  0
VERTEX
  8
0
 10
33.97548973
 20
12.29958098
  0
VERTEX
  8
0
 10
34.56138920
 20
12.60748991
  0
VERTEX
  8
0
 10
35.15497717
 20
12.89290316
  0
VERTEX
  8
0
 10
35.75625712
 20
13.15482162
  0
VERTEX
  8
0
 10
36.78885724
 20
13.96695640
  0
VERTEX
  8
0
 10
37.82830274
 20
14.80852081
  0
VERTEX
  8
0
 10
38.86921452
 20
15.67958312
  0
VERTEX
  8
0
 10
39.90621346
 20
16.58021158
  0
VERTEX
  8
0
 10
40.93392046
 20
17.51047447
  0
VERTEX
  8
0
 10
41.94695641
 20
18.47044005
  0
VERTEX
  8
0
 10
42.93994220
 20
19.46017657
  0
VERTEX
  8
0
 10
43.90749874
 20
20.47975231
  0
VERTEX
  8
0
 10
44.84424690
 20
21.52923552
  0
VERTEX
  8
0
 10
45.74480758
 20
22.60869447
  0
VERTEX
  8
0
 10
46.60380168
 20
23.71819743
  0
VERTEX
  8
0
 10
47.41585009
 20
24.85781265
  0
VERTEX
  8
0
 10
47.80258869
 20
25.43893370
  0
VERTEX
  8
0
 10
48.17557370
 20
26.02760841
  0
VERTEX
  8
0
 10
48.53413273
 20
26.62384532
  0
VERTEX
  8
0
 10
48.87759340
 20
27.22765295
  0
VERTEX
  8
0
 10
49.20528331
 20
27.83903986
  0
VERTEX
  8
0
 10
49.51653008
 20
28.45801456
  0
VERTEX
  8
0
 10
49.81066133
 20
29.08458559
  0
VERTEX
  8
0
 10
50.08700465
 20
29.71876148
  0
VERTEX
  8
0
 10
50.81331986
 20
32.20518977
  0
VERTEX
  8
0
 10
51.53811199
 20
34.70729155
  0
VERTEX
  8
0
 10
51.88040434
 20
35.96716212
  0
VERTEX
  8
0
 10
52.19887686
 20
37.23448162
  0
VERTEX
  8
0
 10
52.48571653
 20
38.51042689
  0
VERTEX
  8
0
 10
52.73311032
 20
39.79617479
  0
VERTEX
  8
0
 10
52.93324522
 20
41.09290216
  0
VERTEX
  8
0
 10
53.01314902
 20
41.74575092
  0
VERTEX
  8
0
 10
53.07830822
 20
42.40178586
  0
VERTEX
  8
0
 10
53.12774618
 20
43.06115411
  0
VERTEX
  8
0
 10
53.16048627
 20
43.72400275
  0
VERTEX
  8
0
 10
53.17555189
 20
44.39047890
  0
VERTEX
  8
0
 10
53.17196638
 20
45.06072966
  0
VERTEX
  8
0
 10
53.14875313
 20
45.73490214
  0
VERTEX
  8
0
 10
53.10493552
 20
46.41314345
  0
VERTEX
  8
0
 10
53.03953690
 20
47.09560069
  0
VERTEX
  8
0
 10
52.95158066
 20
47.78242097
  0
VERTEX
  8
0
 10
52.84009016
 20
48.47375140
  0
VERTEX
  8
0
 10
52.70408879
 20
49.16973908
  0
VERTEX
  8
0
 10
52.54259991
 20
49.87053111
  0
VERTEX
  8
0
 10
52.35464689
 20
50.57627461
  0
VERTEX
  8
0
 10
52.25505050
 20
50.65656677
  0
VERTEX
  8
0
 10
52.72479890
 20
50.63446467
  0
VERTEX
  8
0
 10
53.21743034
 20
50.59357477
  0
VERTEX
  8
0
 10
53.73113469
 20
50.53368259
  0
VERTEX
  8
0
 10
54.26410182
 20
50.45457366
  0
VERTEX
  8
0
 10
54.81452160
 20
50.35603348
  0
VERTEX
  8
0
 10
55.38058389
 20
50.23784758
  0
VERTEX
  8
0
 10
55.96047856
 20
50.09980146
  0
VERTEX
  8
0
 10
56.55239548
 20
49.94168066
  0
VERTEX
  8
0
 10
57.15452452
 20
49.76327068
  0
VERTEX
  8
0
 10
57.76505554
 20
49.56435704
  0
VERTEX
  8
0
 10
58.38217841
 20
49.34472526
  0
VERTEX
  8
0
 10
59.00408300
 20
49.10416085
  0
VERTEX
  8
0
 10
59.62895918
 20
48.84244934
  0
VERTEX
  8
0
 10
60.25499681
 20
48.55937623
  0
VERTEX
  8
0
 10
60.88038576
 20
48.25472705
  0
VERTEX
  8
0
 10
61.50331590
 20
47.92828730
  0
VERTEX
  8
0
 10
62.12197710
 20
47.57984252
  0
VERTEX
  8
0
 10
62.73455922
 20
47.20917821
  0
VERTEX
  8
0
 10
63.33925214
 20
46.81607989
  0
VERTEX
  8
0
 10
63.93424571
 20
46.40033308
  0
VERTEX
  8
0
 10
64.51772981
 20
45.96172330
  0
VERTEX
  8
0
 10
65.08789431
 20
45.50003605
  0
VERTEX
  8
0
 10
65.64292906
 20
45.01505687
  0
VERTEX
  8
0
 10
66.18102395
 20
44.50657125
  0
VERTEX
  8
0
 10
66.70036883
 20
43.97436473
  0
VERTEX
  8
0
 10
67.19915358
 20
43.41822282
  0
VERTEX
  8
0
 10
67.67556807
 20
42.83793104
  0
VERTEX
  8
0
 10
68.12780215
 20
42.23327489
  0
VERTEX
  8
0
 10
68.55404570
 20
41.60403990
  0
VERTEX
  8
0
 10
68.95248858
 20
40.95001159
  0
VERTEX
  8
0
 10
69.32132067
 20
40.27097547
  0
VERTEX
  8
0
 10
69.65873183
 20
39.56671706
  0
VERTEX
  8
0
 10
69.86315580
 20
39.08846518
  0
VERTEX
  8
0
 10
70.04868351
 20
38.60951408
  0
VERTEX
  8
0
 10
70.21572726
 20
38.13005912
  0
VERTEX
  8
0
 10
70.36469937
 20
37.65029569
  0
VERTEX
  8
0
 10
70.49601214
 20
37.17041915
  0
VERTEX
  8
0
 10
70.61007788
 20
36.69062489
  0
VERTEX
  8
0
 10
70.70730890
 20
36.21110826
  0
VERTEX
  8
0
 10
70.78811751
 20
35.73206466
  0
VERTEX
  8
0
 10
70.85291602
 20
35.25368944
  0
VERTEX
  8
0
 10
70.90211674
 20
34.77617798
  0
VERTEX
  8
0
 10
70.95537403
 20
33.82452786
  0
VERTEX
  8
0
 10
70.95118785
 20
32.87867726
  0
VERTEX
  8
0
 10
70.89285667
 20
31.94018919
  0
VERTEX
  8
0
 10
70.78367897
 20
31.01062662
  0
VERTEX
  8
0
 10
70.62695321
 20
30.09155255
  0
VERTEX
  8
0
 10
70.42597786
 20
29.18452996
  0
VERTEX
  8
0
 10
70.18405140
 20
28.29112184
  0
VERTEX
  8
0
 10
69.90447229
 20
27.41289118
  0
VERTEX
  8
0
 10
69.59053901
 20
26.55140096
  0
VERTEX
  8
0
 10
69.24555003
 20
25.70821417
  0
VERTEX
  8
0
 10
68.87280381
 20
24.88489380
  0
VERTEX
  8
0
 10
68.47559883
 20
24.08300283
  0
VERTEX
  8
0
 10
68.05723355
 20
23.30410426
  0
VERTEX
  8
0
 10
67.62100645
 20
22.54976106
  0
VERTEX
  8
0
 10
67.17021600
 20
21.82153624
  0
VERTEX
  8
0
 10
66.70816067
 20
21.12099277
  0
VERTEX
  8
0
 10
66.23813892
 20
20.44969363
  0
VERTEX
  8
0
 10
65.76344923
 20
19.80920183
  0
VERTEX
  8
0
 10
65.28739008
 20
19.20108035
  0
VERTEX
  8
0
 10
64.81325992
 20
18.62689217
  0
VERTEX
  8
0
 10
64.34435723
 20
18.08820027
  0
VERTEX
  8
0
 10
63.88398048
 20
17.58656766
  0
VERTEX
  8
0
 10
63.43542814
 20
17.12355731
  0
VERTEX
  8
0
 10
63.00199868
 20
16.70073221
  0
VERTEX
  8
0
 10
62.58699058
 20
16.31965536
  0
VERTEX
  8
0
 10
62.19370229
 20
15.98188973
  0
VERTEX
  8
0
 10
61.82543230
 20
15.68899831
  0
SEQEND
  0
POLYLINE
  8
Векторный_слой_3
 66
   1
 39
0.000000
 70
    1
  0
VERTEX
  8
0
 10
-33.85198267
 20
-25.29458084
  0
VERTEX
  8
0
 10
-35.00245581
 20
-25.09005582
  0
VERTEX
  8
0
 10
-36.14854475
 20
-24.91400946
  0
VERTEX
  8
0
 10
-37.29326279
 20
-24.76704772
  0
VERTEX
  8
0
 10
-38.43962326
 20
-24.64977655
  0
VERTEX
  8
0
 10
-39.59063947
 20
-24.56280192
  0
VERTEX
  8
0
 10
-40.74932474
 20
-24.50672978
  0
VERTEX
  8
0
 10
-41.91869238
 20
-24.48216610
  0
VERTEX
  8
0
 10
-43.10175571
 20
-24.48971683
  0
VERTEX
  8
0
 10
-42.71174164
 20
-23.72561381
  0
VERTEX
  8
0
 10
-42.35383759
 20
-22.95268901
  0
VERTEX
  8
0
 10
-42.02957064
 20
-22.17214432
  0
VERTEX
  8
0
 10
-41.74046784
 20
-21.38518158
  0
VERTEX
  8
0
 10
-41.48805629
 20
-20.59300265
  0
VERTEX
  8
0
 10
-41.27386305
 20
-19.79680940
  0
VERTEX
  8
0
 10
-41.09941519
 20
-18.99780369
  0
VERTEX
  8
0
 10
-40.96623980
 20
-18.19718738
  0
VERTEX
  8
0
 10
-40.87586394
 20
-17.39616233
  0
VERTEX
  8
0
 10
-40.82981469
 20
-16.59593040
  0
VERTEX
  8
0
 10
-40.82961912
 20
-15.79769344
  0
VERTEX
  8
0
 10
-40.87680431
 20
-15.00265333
  0
VERTEX
  8
0
 10
-40.97289733
 20
-14.21201192
  0
VERTEX
  8
0
 10
-41.11942525
 20
-13.42697107
  0
VERTEX
  8
0
 10
-41.31791516
 20
-12.64873265
  0
VERTEX
  8
0
 10
-41.56989411
 20
-11.87849850
  0
VERTEX
  8
0
 10
-41.76772665
 20
-11.37583369
  0
VERTEX
  8
0
 10
-41.97948596
 20
-10.91490391
  0
VERTEX
  8
0
 10
-42.20499101
 20
-10.49005267
  0
VERTEX
  8
0
 10
-42.44406077
 20
-10.09562346
  0
VERTEX
  8
0
 10
-42.69651422
 20
-9.72595979
  0
VERTEX
  8
0
 10
-42.96217033
 20
-9.37540514
  0
VERTEX
  8
0
 10
-43.24084806
 20
-9.03830302
  0
VERTEX
  8
0
 10
-43.53236639
 20
-8.70899693
  0
VERTEX
  8
0
 10
-44.15320074
 20
-8.05114681
  0
VERTEX
  8
0
 10
-44.82322515
 20
-7.35660276
  0
VERTEX
  8
0
 10
-45.54099138
 20
-6.58011276
  0
VERTEX
  8
0
 10
-45.91732511
 20
-6.14699677
  0
VERTEX
  8
0
 10
-46.30505122
 20
-5.67642479
  0
VERTEX
  8
0
 10
-46.69900063
 20
-6.59915526
  0
VERTEX
  8
0
 10
-47.05505239
 20
-7.53667029
  0
VERTEX
  8
0
 10
-47.38250756
 20
-8.48382141
  0
VERTEX
  8
0
 10
-47.69066720
 20
-9.43546018
  0
VERTEX
  8
0
 10
-48.28630415
 20
-11.33160678
  0
VERTEX
  8
0
 10
-48.59238358
 20
-12.26581771
  0
VERTEX
  8
0
 10
-48.91637173
 20
-13.18392244
  0
VERTEX
  8
0
 10
-49.26756966
 20
-14.08077252
  0
VERTEX
  8
0
 10
-49.65527844
 20
-14.95121948
  0
VERTEX
  8
0
 10
-49.86573098
 20
-15.37493290
  0
VERTEX
  8
0
 10
-50.08879912
 20
-15.79011487
  0
VERTEX
  8
0
 10
-50.32564551
 20
-16.19612183
  0
VERTEX
  8
0
 10
-50.57743277
 20
-16.59231023
  0
VERTEX
  8
0
 10
-50.84532354
 20
-16.97803650
  0
VERTEX
  8
0
 10
-51.13048045
 20
-17.35265709
  0
VERTEX
  8
0
 10
-51.43406614
 20
-17.71552845
  0
VERTEX
  8
0
 10
-51.75724323
 20
-18.06600701
  0
VERTEX
  8
0
 10
-52.10117436
 20
-18.40344922
  0
VERTEX
  8
0
 10
-52.46702216
 20
-18.72721152
  0
VERTEX
  8
0
 10
-52.85594926
 20
-19.03665036
  0
VERTEX
  8
0
 10
-53.26911830
 20
-19.33112216
  0
VERTEX
  8
0
 10
-53.80193971
 20
-19.69573101
  0
VERTEX
  8
0
 10
-54.29895881
 20
-20.07576272
  0
VERTEX
  8
0
 10
-54.76445398
 20
-20.46839587
  0
VERTEX
  8
0
 10
-55.20270358
 20
-20.87080906
  0
VERTEX
  8
0
 10
-55.61798601
 20
-21.28018086
  0
VERTEX
  8
0
 10
-56.01457963
 20
-21.69368986
  0
VERTEX
  8
0
 10
-56.76881396
 20
-22.52183382
  0
VERTEX
  8
0
 10
-57.49963356
 20
-23.33266964
  0
VERTEX
  8
0
 10
-57.86695878
 20
-23.72454346
  0
VERTEX
  8
0
 10
-58.24126544
 20
-24.10362599
  0
VERTEX
  8
0
 10
-58.62683193
 20
-24.46709584
  0
VERTEX
  8
0
 10
-59.02793661
 20
-24.81213159
  0
VERTEX
  8
0
 10
-59.44885787
 20
-25.13591181
  0
VERTEX
  8
0
 10
-59.89387407
 20
-25.43561511
  0
VERTEX
  8
0
 10
-59.68495479
 20
-23.86512446
  0
VERTEX
  8
0
 10
-59.44659400
 20
-22.29054659
  0
VERTEX
  8
0
 10
-59.17991732
 20
-20.71243869
  0
VERTEX
  8
0
 10
-58.88605034
 20
-19.13135795
  0
VERTEX
  8
0
 10
-58.56611867
 20
-17.54786156
  0
VERTEX
  8
0
 10
-58.22124792
 20
-15.96250671
  0
VERTEX
  8
0
 10
-57.85256369
 20
-14.37585058
  0
VERTEX
  8
0
 10
-57.46119159
 20
-12.78845036
  0
VERTEX
  8
0
 10
-58.09709833
 20
-12.95632555
  0
VERTEX
  8
0
 10
-58.75284430
 20
-13.15356922
  0
VERTEX
  8
0
 10
-59.42480849
 20
-13.37715576
  0
VERTEX
  8
0
 10
-60.10936990
 20
-13.62405956
  0
VERTEX
  8
0
 10
-61.50180040
 20
-14.17571645
  0
VERTEX
  8
0
 10
-62.90116778
 20
-14.78433497
  0
VERTEX
  8
0
 10
-64.27850404
 20
-15.42571019
  0
VERTEX
  8
0
 10
-65.60484118
 20
-16.07563718
  0
VERTEX
  8
0
 10
-66.85121118
 20
-16.70991102
  0
VERTEX
  8
0
 10
-67.98864605
 20
-17.30432677
  0
VERTEX
  8
0
 10
-68.10855280
 20
-18.11430324
  0
VERTEX
  8
0
 10
-68.21255980
 20
-18.92323432
  0
VERTEX
  8
0
 10
-68.30070588
 20
-19.73121827
  0
VERTEX
  8
0
 10
-68.37302990
 20
-20.53835332
  0
VERTEX
  8
0
 10
-68.42957070
 20
-21.34473771
  0
VERTEX
  8
0
 10
-68.47036713
 20
-22.15046967
  0
VERTEX
  8
0
 10
-68.49545805
 20
-22.95564746
  0
VERTEX
  8
0
 10
-68.50488229
 20
-23.76036930
  0
VERTEX
  8
0
 10
-68.49867870
 20
-24.56473344
  0
VERTEX
  8
0
 10
-68.47688615
 20
-25.36883811
  0
VERTEX
  8
0
 10
-68.43954346
 20
-26.17278156
  0
VERTEX
  8
0
 10
-68.38668950
 20
-26.97666203
  0
VERTEX
  8
0
 10
-68.31836311
 20
-27.78057775
  0
VERTEX
  8
0
 10
-68.23460313
 20
-28.58462696
  0
VERTEX
  8
0
 10
-68.13544842
 20
-29.38890791
  0
VERTEX
  8
0
 10
-68.02093782
 20
-30.19351883
  0
VERTEX
  8
0
 10
-68.70891821
 20
-30.41220618
  0
VERTEX
  8
0
 10
-69.39999177
 20
-30.61497697
  0
VERTEX
  8
0
 10
-70.79030503
 20
-30.97640773
  0
VERTEX
  8
0
 10
-72.18965090
 20
-31.28508894
  0
VERTEX
  8
0
 10
-73.59580268
 20
-31.54829839
  0
VERTEX
  8
0
 10
-75.00653365
 20
-31.77331388
  0
VERTEX
  8
0
 10
-76.41961711
 20
-31.96741323
  0
VERTEX
  8
0
 10
-77.83282635
 20
-32.13787423
  0
VERTEX
  8
0
 10
-79.24393468
 20
-32.29197469
  0
VERTEX
  8
0
 10
-82.05094173
 20
-32.58020521
  0
VERTEX
  8
0
 10
-83.44238705
 20
-32.72889087
  0
VERTEX
  8
0
 10
-84.82282463
 20
-32.89032721
  0
VERTEX
  8
0
 10
-86.19002775
 20
-33.07179204
  0
VERTEX
  8
0
 10
-87.54176971
 20
-33.28056315
  0
VERTEX
  8
0
 10
-88.87582381
 20
-33.52391834
  0
VERTEX
  8
0
 10
-90.18996334
 20
-33.80913543
  0
VERTEX
  8
0
 10
-89.64770891
 20
-34.40993125
  0
VERTEX
  8
0
 10
-89.09528074
 20
-34.99964963
  0
VERTEX
  8
0
 10
-88.53230663
 20
-35.57767814
  0
VERTEX
  8
0
 10
-87.95841438
 20
-36.14340437
  0
VERTEX
  8
0
 10
-87.37323178
 20
-36.69621590
  0
VERTEX
  8
0
 10
-86.77638663
 20
-37.23550031
  0
VERTEX
  8
0
 10
-86.16750673
 20
-37.76064517
  0
VERTEX
  8
0
 10
-85.54621988
 20
-38.27103806
  0
VERTEX
  8
0
 10
-84.91215388
 20
-38.76606657
  0
VERTEX
  8
0
 10
-84.26493652
 20
-39.24511827
  0
VERTEX
  8
0
 10
-83.60419560
 20
-39.70758074
  0
VERTEX
  8
0
 10
-82.92955893
 20
-40.15284156
  0
VERTEX
  8
0
 10
-82.24065429
 20
-40.58028831
  0
VERTEX
  8
0
 10
-81.53710949
 20
-40.98930857
  0
VERTEX
  8
0
 10
-80.81855233
 20
-41.37928992
  0
VERTEX
  8
0
 10
-80.08461060
 20
-41.74961993
  0
VERTEX
  8
0
 10
-80.61609007
 20
-42.66746376
  0
VERTEX
  8
0
 10
-81.11480529
 20
-43.59091100
  0
VERTEX
  8
0
 10
-81.58110489
 20
-44.51953719
  0
VERTEX
  8
0
 10
-82.01533751
 20
-45.45291786
  0
VERTEX
  8
0
 10
-82.41785179
 20
-46.39062855
  0
VERTEX
  8
0
 10
-82.78899636
 20
-47.33224480
  0
VERTEX
  8
0
 10
-83.12911986
 20
-48.27734215
  0
VERTEX
  8
0
 10
-83.43857093
 20
-49.22549612
  0
VERTEX
  8
0
 10
-83.71769821
 20
-50.17628226
  0
VERTEX
  8
0
 10
-83.96685033
 20
-51.12927610
  0
VERTEX
  8
0
 10
-84.18637592
 20
-52.08405317
  0
VERTEX
  8
0
 10
-84.37662363
 20
-53.04018901
  0
VERTEX
  8
0
 10
-84.53794208
 20
-53.99725917
  0
VERTEX
  8
0
 10
-84.67067993
 20
-54.95483916
  0
VERTEX
  8
0
 10
-84.77518580
 20
-55.91250454
  0
VERTEX
  8
0
 10
-84.85180833
 20
-56.86983083
  0
VERTEX
  8
0
 10
-84.90089616
 20
-57.82639357
  0
VERTEX
  8
0
 10
-84.92279792
 20
-58.78176830
  0
VERTEX
  8
0
 10
-84.91786226
 20
-59.73553055
  0
VERTEX
  8
0
 10
-84.88643780
 20
-60.68725585
  0
VERTEX
  8
0
 10
-84.82887319
 20
-61.63651975
  0
VERTEX
  8
0
 10
-84.74551706
 20
-62.58289779
  0
VERTEX
  8
0
 10
-84.63671804
 20
-63.52596548
  0
VERTEX
  8
0
 10
-84.50282478
 20
-64.46529838
  0
VERTEX
  8
0
 10
-84.34418591
 20
-65.40047202
  0
VERTEX
  8
0
 10
-84.16115007
 20
-66.33106192
  0
VERTEX
  8
0
 10
-83.95406590
 20
-67.25664364
  0
VERTEX
  8
0
 10
-83.72328203
 20
-68.17679270
  0
VERTEX
  8
0
 10
-83.46914709
 20
-69.09108464
  0
VERTEX
  8
0
 10
-83.19200973
 20
-69.99909500
  0
VERTEX
  8
0
 10
-82.89221858
 20
-70.90039931
  0
VERTEX
  8
0
 10
-82.57012228
 20
-71.79457311
  0
VERTEX
  8
0
 10
-82.22606947
 20
-72.68119193
  0
VERTEX
  8
0
 10
-81.86040877
 20
-73.55983131
  0
VERTEX
  8
0
 10
-81.47348884
 20
-74.43006678
  0
VERTEX
  8
0
 10
-81.06565830
 20
-75.29147389
  0
VERTEX
  8
0
 10
-80.63726579
 20
-76.14362816
  0
VERTEX
  8
0
 10
-80.18865995
 20
-76.98610514
  0
VERTEX
  8
0
 10
-79.72018941
 20
-77.81848035
  0
VERTEX
  8
0
 10
-79.23220282
 20
-78.64032933
  0
VERTEX
  8
0
 10
-78.72504881
 20
-79.45122763
  0
VERTEX
  8
0
 10
-78.19907601
 20
-80.25075077
  0
VERTEX
  8
0
 10
-77.65463306
 20
-81.03847430
  0
VERTEX
  8
0
 10
-77.09206860
 20
-81.81397374
  0
VERTEX
  8
0
 10
-76.51173127
 20
-82.57682463
  0
VERTEX
  8
0
 10
-75.91396970
 20
-83.32660251
  0
VERTEX
  8
0
 10
-75.29913253
 20
-84.06288292
  0
VERTEX
  8
0
 10
-74.66756839
 20
-84.78524139
  0
VERTEX
  8
0
 10
-74.01962593
 20
-85.49325345
  0
VERTEX
  8
0
 10
-73.35565378
 20
-86.18649465
  0
VERTEX
  8
0
 10
-72.67600057
 20
-86.86454051
  0
VERTEX
  8
0
 10
-71.98101494
 20
-87.52696658
  0
VERTEX
  8
0
 10
-71.27104553
 20
-88.17334838
  0
VERTEX
  8
0
 10
-70.54644098
 20
-88.80326147
  0
VERTEX
  8
0
 10
-69.80754992
 20
-89.41628136
  0
VERTEX
  8
0
 10
-69.05472099
 20
-90.01198360
  0
VERTEX
  8
0
 10
-68.28830283
 20
-90.58994372
  0
VERTEX
  8
0
 10
-67.50864407
 20
-91.14973726
  0
VERTEX
  8
0
 10
-66.71609335
 20
-91.69093975
  0
VERTEX
  8
0
 10
-65.91099930
 20
-92.21312674
  0
VERTEX
  8
0
 10
-65.09371057
 20
-92.71587375
  0
VERTEX
  8
0
 10
-64.26457578
 20
-93.19875632
  0
VERTEX
  8
0
 10
-63.42394359
 20
-93.66134998
  0
VERTEX
  8
0
 10
-62.57216261
 20
-94.10323029
  0
VERTEX
  8
0
 10
-61.66792936
 20
-94.53164466
  0
VERTEX
  8
0
 10
-60.74169170
 20
-94.91880231
  0
VERTEX
  8
0
 10
-59.79457629
 20
-95.26531003
  0
VERTEX
  8
0
 10
-58.82770980
 20
-95.57177459
  0
VERTEX
  8
0
 10
-57.84221890
 20
-95.83880280
  0
VERTEX
  8
0
 10
-56.83923027
 20
-96.06700143
  0
VERTEX
  8
0
 10
-55.81987058
 20
-96.25697727
  0
VERTEX
  8
0
 10
-54.78526649
 20
-96.40933712
  0
VERTEX
  8
0
 10
-53.73654468
 20
-96.52468776
  0
VERTEX
  8
0
 10
-52.67483182
 20
-96.60363597
  0
VERTEX
  8
0
 10
-51.60125458
 20
-96.64678856
  0
VERTEX
  8
0
 10
-50.51693963
 20
-96.65475230
  0
VERTEX
  8
0
 10
-49.42301364
 20
-96.62813398
  0
VERTEX
  8
0
 10
-48.32060328
 20
-96.56754039
  0
VERTEX
  8
0
 10
-47.21083523
 20
-96.47357832
  0
VERTEX
  8
0
 10
-46.09483614
 20
-96.34685456
  0
VERTEX
  8
0
 10
-44.97373271
 20
-96.18797590
  0
VERTEX
  8
0
 10
-43.84865158
 20
-95.99754911
  0
VERTEX
  8
0
 10
-42.72071945
 20
-95.77618100
  0
VERTEX
  8
0
 10
-41.59106297
 20
-95.52447834
  0
VERTEX
  8
0
 10
-40.46080881
 20
-95.24304794
  0
VERTEX
  8
0
 10
-39.33108366
 20
-94.93249656
  0
VERTEX
  8
0
 10
-38.20301418
 20
-94.59343101
  0
VERTEX
  8
0
 10
-37.07772703
 20
-94.22645807
  0
VERTEX
  8
0
 10
-35.95634890
 20
-93.83218453
  0
VERTEX
  8
0
 10
-34.84000645
 20
-93.41121718
  0
VERTEX
  8
0
 10
-33.72982635
 20
-92.96416280
  0
VERTEX
  8
0
 10
-32.62693528
 20
-92.49162819
  0
VERTEX
  8
0
 10
-31.53245990
 20
-91.99422012
  0
VERTEX
  8
0
 10
-30.44752688
 20
-91.47254540
  0
VERTEX
  8
0
 10
-29.37326290
 20
-90.92721080
  0
VERTEX
  8
0
 10
-28.31079463
 20
-90.35882311
  0
VERTEX
  8
0
 10
-27.26124874
 20
-89.76798913
  0
VERTEX
  8
0
 10
-26.22575189
 20
-89.15531564
  0
VERTEX
  8
0
 10
-25.20543077
 20
-88.52140943
  0
VERTEX
  8
0
 10
-24.20141203
 20
-87.86687728
  0
VERTEX
  8
0
 10
-23.21482236
 20
-87.19232599
  0
VERTEX
  8
0
 10
-22.24678841
 20
-86.49836235
  0
VERTEX
  8
0
 10
-21.29843687
 20
-85.78559313
  0
VERTEX
  8
0
 10
-20.37089441
 20
-85.05462513
  0
VERTEX
  8
0
 10
-19.46528769
 20
-84.30606514
  0
VERTEX
  8
0
 10
-18.58274338
 20
-83.54051995
  0
VERTEX
  8
0
 10
-17.72438816
 20
-82.75859633
  0
VERTEX
  8
0
 10
-16.89134870
 20
-81.96090109
  0
VERTEX
  8
0
 10
-16.08475166
 20
-81.14804101
  0
VERTEX
  8
0
 10
-15.30572373
 20
-80.32062287
  0
VERTEX
  8
0
 10
-14.55539156
 20
-79.47925347
  0
VERTEX
  8
0
 10
-13.83488183
 20
-78.62453959
  0
VERTEX
  8
0
 10
-13.14532122
 20
-77.75708802
  0
VERTEX
  8
0
 10
-12.48783639
 20
-76.87750556
  0
VERTEX
  8
0
 10
-11.86355401
 20
-75.98639897
  0
VERTEX
  8
0
 10
-11.27360075
 20
-75.08437507
  0
VERTEX
  8
0
 10
-10.71910329
 20
-74.17204062
  0
VERTEX
  8
0
 10
-10.20118829
 20
-73.25000243
  0
VERTEX
  8
0
 10
-9.72098243
 20
-72.31886728
  0
VERTEX
  8
0
 10
-9.27961238
 20
-71.37924195
  0
VERTEX
  8
0
 10
-8.87820480
 20
-70.43173324
  0
VERTEX
  8
0
 10
-8.51788638
 20
-69.47694793
  0
VERTEX
  8
0
 10
-8.19978377
 20
-68.51549281
  0
VERTEX
  8
0
 10
-7.92502365
 20
-67.54797467
  0
VERTEX
  8
0
 10
-7.69473270
 20
-66.57500030
  0
VERTEX
  8
0
 10
-7.51003758
 20
-65.59717648
  0
VERTEX
  8
0
 10
-7.37206496
 20
-64.61511000
  0
VERTEX
  8
0
 10
-7.28194151
 20
-63.62940766
  0
VERTEX
  8
0
 10
-7.23226544
 20
-62.69573880
  0
VERTEX
  8
0
 10
-7.20797873
 20
-61.76789667
  0
VERTEX
  8
0
 10
-7.20856687
 20
-60.84611345
  0
VERTEX
  8
0
 10
-7.23351540
 20
-59.93062131
  0
VERTEX
  8
0
 10
-7.28230981
 20
-59.02165242
  0
VERTEX
  8
0
 10
-7.35443562
 20
-58.11943896
  0
VERTEX
  8
0
 10
-7.44937834
 20
-57.22421310
  0
VERTEX
  8
0
 10
-7.56662348
 20
-56.33620702
  0
VERTEX
  8
0
 10
-7.70565656
 20
-55.45565288
  0
VERTEX
  8
0
 10
-7.86596309
 20
-54.58278287
  0
VERTEX
  8
0
 10
-8.04702858
 20
-53.71782915
  0
VERTEX
  8
0
 10
-8.24833855
 20
-52.86102390
  0
VERTEX
  8
0
 10
-8.46937849
 20
-52.01259930
  0
VERTEX
  8
0
 10
-8.70963394
 20
-51.17278751
  0
VERTEX
  8
0
 10
-8.96859039
 20
-50.34182072
  0
VERTEX
  8
0
 10
-9.24573337
 20
-49.51993109
  0
VERTEX
  8
0
 10
-9.54054837
 20
-48.70735080
  0
VERTEX
  8
0
 10
-9.85252093
 20
-47.90431202
  0
VERTEX
  8
0
 10
-10.18113654
 20
-47.11104693
  0
VERTEX
  8
0
 10
-10.52588072
 20
-46.32778770
  0
VERTEX
  8
0
 10
-10.88623898
 20
-45.55476650
  0
VERTEX
  8
0
 10
-11.26169683
 20
-44.79221551
  0
VERTEX
  8
0
 10
-11.65173980
 20
-44.04036690
  0
VERTEX
  8
0
 10
-12.05585337
 20
-43.29945285
  0
VERTEX
  8
0
 10
-12.47352308
 20
-42.56970553
  0
VERTEX
  8
0
 10
-12.90423444
 20
-41.85135710
  0
VERTEX
  8
0
 10
-13.34747294
 20
-41.14463976
  0
VERTEX
  8
0
 10
-13.80272412
 20
-40.44978566
  0
VERTEX
  8
0
 10
-14.26947347
 20
-39.76702699
  0
VERTEX
  8
0
 10
-14.74720651
 20
-39.09659592
  0
VERTEX
  8
0
 10
-15.23540876
 20
-38.43872462
  0
VERTEX
  8
0
 10
-15.73356572
 20
-37.79364526
  0
VERTEX
  8
0
 10
-16.24116291
 20
-37.16159003
  0
VERTEX
  8
0
 10
-16.75768584
 20
-36.54279108
  0
VERTEX
  8
0
 10
-17.28262002
 20
-35.93748060
  0
VERTEX
  8
0
 10
-17.81545096
 20
-35.34589077
  0
VERTEX
  8
0
 10
-18.90274518
 20
-34.20480171
  0
VERTEX
  8
0
 10
-20.01545261
 20
-33.12138130
  0
VERTEX
  8
0
 10
-21.14945733
 20
-32.09748693
  0
VERTEX
  8
0
 10
-22.30064345
 20
-31.13497598
  0
VERTEX
  8
0
 10
-23.46489506
 20
-30.23570585
  0
VERTEX
  8
0
 10
-24.63809626
 20
-29.40153393
  0
VERTEX
  8
0
 10
-25.81613114
 20
-28.63431760
  0
VERTEX
  8
0
 10
-26.99488381
 20
-27.93591427
  0
VERTEX
  8
0
 10
-27.58324309
 20
-27.61309791
  0
VERTEX
  8
0
 10
-28.17023835
 20
-27.30818131
  0
VERTEX
  8
0
 10
-28.75535511
 20
-27.02139666
  0
VERTEX
  8
0
 10
-29.33807887
 20
-26.75297612
  0
VERTEX
  8
0
 10
-29.91789516
 20
-26.50315187
  0
VERTEX
  8
0
 10
-30.49428947
 20
-26.27215609
  0
VERTEX
  8
0
 10
-31.06674733
 20
-26.06022094
  0
VERTEX
  8
0
 10
-31.63475424
 20
-25.86757860
  0
VERTEX
  8
0
 10
-32.19779571
 20
-25.69446125
  0
VERTEX
  8
0
 10
-32.75535727
 20
-25.54110106
  0
VERTEX
  8
0
 10
-33.30692442
 20
-25.40773020
  0
VERTEX
  8
0
 10
-33.85198267
 20
-25.29458084
  0
SEQEND
  0
POLYLINE
  8
Векторный_слой_3
 66
   1
 39
0.000000
 70
    1
  0
VERTEX
  8
0
 10
-64.02975984
 20
-71.37335610
  0
VERTEX
  8
0
 10
-64.27078170
 20
-71.28978623
  0
VERTEX
  8
0
 10
-64.51113147
 20
-71.19021330
  0
VERTEX
  8
0
 10
-64.98899572
 20
-70.94586060
  0
VERTEX
  8
0
 10
-65.46171451
 20
-70.64590273
  0
VERTEX
  8
0
 10
-65.92764977
 20
-70.29594444
  0
VERTEX
  8
0
 10
-66.38516344
 20
-69.90159047
  0
VERTEX
  8
0
 10
-66.83261745
 20
-69.46844558
  0
VERTEX
  8
0
 10
-67.26837372
 20
-69.00211449
  0
VERTEX
  8
0
 10
-67.69079418
 20
-68.50820196
  0
VERTEX
  8
0
 10
-68.09824077
 20
-67.99231273
  0
VERTEX
  8
0
 10
-68.48907541
 20
-67.46005154
  0
VERTEX
  8
0
 10
-68.86166004
 20
-66.91702313
  0
VERTEX
  8
0
 10
-69.21435658
 20
-66.36883226
  0
VERTEX
  8
0
 10
-69.54552696
 20
-65.82108366
  0
VERTEX
  8
0
 10
-69.85353312
 20
-65.27938208
  0
VERTEX
  8
0
 10
-70.13673698
 20
-64.74933226
  0
VERTEX
  8
0
 10
-70.39350047
 20
-64.23653895
  0
VERTEX
  8
0
 10
-70.53620393
 20
-63.11987805
  0
VERTEX
  8
0
 10
-70.63041625
 20
-61.98222157
  0
VERTEX
  8
0
 10
-70.65651279
 20
-61.40858606
  0
VERTEX
  8
0
 10
-70.66709602
 20
-60.83338091
  0
VERTEX
  8
0
 10
-70.66103574
 20
-60.25783257
  0
VERTEX
  8
0
 10
-70.63720180
 20
-59.68316744
  0
VERTEX
  8
0
 10
-70.59446400
 20
-59.11061197
  0
VERTEX
  8
0
 10
-70.53169217
 20
-58.54139255
  0
VERTEX
  8
0
 10
-70.44775613
 20
-57.97673563
  0
VERTEX
  8
0
 10
-70.34152570
 20
-57.41786762
  0
VERTEX
  8
0
 10
-70.21187071
 20
-56.86601495
  0
VERTEX
  8
0
 10
-70.05766098
 20
-56.32240403
  0
VERTEX
  8
0
 10
-69.87776632
 20
-55.78826130
  0
VERTEX
  8
0
 10
-69.67105657
 20
-55.26481317
  0
VERTEX
  8
0
 10
-69.27259665
 20
-56.22137221
  0
VERTEX
  8
0
 10
-68.84482884
 20
-57.30833623
  0
VERTEX
  8
0
 10
-67.93173385
 20
-59.76744353
  0
VERTEX
  8
0
 10
-66.99250034
 20
-62.43006363
  0
VERTEX
  8
0
 10
-66.08785700
 20
-65.08412510
  0
VERTEX
  8
0
 10
-65.27853257
 20
-67.51755652
  0
VERTEX
  8
0
 10
-64.62525575
 20
-69.51828644
  0
VERTEX
  8
0
 10
-64.02975984
 20
-71.37335610
  0
SEQEND
  0
POLYLINE
  8
Векторный_слой_3
 66
   1
 39
0.000000
 70
    1
  0
VERTEX
  8
0
 10
-57.67069097
 20
-49.36647817
  0
VERTEX
  8
0
 10
-57.88185390
 20
-50.49846464
  0
VERTEX
  8
0
 10
-58.12586953
 20
-51.54056348
  0
VERTEX
  8
0
 10
-58.40684262
 20
-52.50717301
  0
VERTEX
  8
0
 10
-58.72887791
 20
-53.41269153
  0
VERTEX
  8
0
 10
-59.09608013
 20
-54.27151738
  0
VERTEX
  8
0
 10
-59.51255403
 20
-55.09804886
  0
VERTEX
  8
0
 10
-59.98240436
 20
-55.90668429
  0
VERTEX
  8
0
 10
-60.50973585
 20
-56.71182198
  0
VERTEX
  8
0
 10
-60.65436626
 20
-56.40432662
  0
VERTEX
  8
0
 10
-60.76534116
 20
-56.08454653
  0
VERTEX
  8
0
 10
-60.84745949
 20
-55.75307146
  0
VERTEX
  8
0
 10
-60.90552019
 20
-55.41049117
  0
VERTEX
  8
0
 10
-60.94432220
 20
-55.05739539
  0
VERTEX
  8
0
 10
-60.96866446
 20
-54.69437388
  0
VERTEX
  8
0
 10
-60.99316548
 20
-53.94091263
  0
VERTEX
  8
0
 10
-61.01741478
 20
-53.15482540
  0
VERTEX
  8
0
 10
-61.04144237
 20
-52.75102141
  0
VERTEX
  8
0
 10
-61.07980385
 20
-52.34083016
  0
VERTEX
  8
0
 10
-61.13729816
 20
-51.92484141
  0
VERTEX
  8
0
 10
-61.21872423
 20
-51.50364490
  0
VERTEX
  8
0
 10
-61.32888101
 20
-51.07783037
  0
VERTEX
  8
0
 10
-61.47256743
 20
-50.64798757
  0
VERTEX
  8
0
 10
-61.69388935
 20
-49.94195181
  0
VERTEX
  8
0
 10
-61.88711972
 20
-49.23271875
  0
VERTEX
  8
0
 10
-62.05259627
 20
-48.52045293
  0
VERTEX
  8
0
 10
-62.19065676
 20
-47.80531888
  0
VERTEX
  8
0
 10
-62.30163892
 20
-47.08748112
  0
VERTEX
  8
0
 10
-62.38588052
 20
-46.36710419
  0
VERTEX
  8
0
 10
-62.44371930
 20
-45.64435261
  0
VERTEX
  8
0
 10
-62.47549300
 20
-44.91939091
  0
VERTEX
  8
0
 10
-62.48153937
 20
-44.19238362
  0
VERTEX
  8
0
 10
-62.46219616
 20
-43.46349527
  0
VERTEX
  8
0
 10
-62.41780112
 20
-42.73289040
  0
VERTEX
  8
0
 10
-62.34869200
 20
-42.00073352
  0
VERTEX
  8
0
 10
-62.25520654
 20
-41.26718917
  0
VERTEX
  8
0
 10
-62.13768249
 20
-40.53242187
  0
VERTEX
  8
0
 10
-61.99645760
 20
-39.79659616
  0
VERTEX
  8
0
 10
-61.83186962
 20
-39.05987657
  0
VERTEX
  8
0
 10
-62.29409932
 20
-39.14354898
  0
VERTEX
  8
0
 10
-62.72768642
 20
-39.26093956
  0
VERTEX
  8
0
 10
-63.13442016
 20
-39.41008158
  0
VERTEX
  8
0
 10
-63.51608979
 20
-39.58900831
  0
VERTEX
  8
0
 10
-63.87448457
 20
-39.79575303
  0
VERTEX
  8
0
 10
-64.21139373
 20
-40.02834899
  0
VERTEX
  8
0
 10
-64.52860654
 20
-40.28482948
  0
VERTEX
  8
0
 10
-64.82791223
 20
-40.56322776
  0
VERTEX
  8
0
 10
-65.11110007
 20
-40.86157711
  0
VERTEX
  8
0
 10
-65.37995929
 20
-41.17791079
  0
VERTEX
  8
0
 10
-65.63627915
 20
-41.51026207
  0
VERTEX
  8
0
 10
-65.88184890
 20
-41.85666423
  0
VERTEX
  8
0
 10
-66.34789505
 20
-42.58375426
  0
VERTEX
  8
0
 10
-66.79241173
 20
-43.34344704
  0
VERTEX
  8
0
 10
-67.67411269
 20
-44.89770550
  0
VERTEX
  8
0
 10
-68.13992495
 20
-45.66080351
  0
VERTEX
  8
0
 10
-68.38533389
 20
-46.03196116
  0
VERTEX
  8
0
 10
-68.64146372
 20
-46.39356893
  0
VERTEX
  8
0
 10
-68.91010367
 20
-46.74366010
  0
VERTEX
  8
0
 10
-69.19304300
 20
-47.08026792
  0
VERTEX
  8
0
 10
-69.49207095
 20
-47.40142569
  0
VERTEX
  8
0
 10
-69.80897678
 20
-47.70516665
  0
VERTEX
  8
0
 10
-70.14554973
 20
-47.98952409
  0
VERTEX
  8
0
 10
-70.50357905
 20
-48.25253128
  0
VERTEX
  8
0
 10
-70.88485400
 20
-48.49222148
  0
VERTEX
  8
0
 10
-71.29116381
 20
-48.70662797
  0
VERTEX
  8
0
 10
-71.67245353
 20
-48.92600886
  0
VERTEX
  8
0
 10
-72.08126109
 20
-49.12504465
  0
VERTEX
  8
0
 10
-72.51488048
 20
-49.30519495
  0
VERTEX
  8
0
 10
-72.97060565
 20
-49.46791941
  0
VERTEX
  8
0
 10
-73.44573059
 20
-49.61467762
  0
VERTEX
  8
0
 10
-73.93754925
 20
-49.74692923
  0
VERTEX
  8
0
 10
-74.96044362
 20
-49.97375111
  0
VERTEX
  8
0
 10
-76.01764051
 20
-50.16006202
  0
VERTEX
  8
0
 10
-77.08749167
 20
-50.31753895
  0
VERTEX
  8
0
 10
-79.17856376
 20
-50.59269879
  0
VERTEX
  8
0
 10
-79.01695367
 20
-50.34278559
  0
VERTEX
  8
0
 10
-78.82847942
 20
-50.10799651
  0
VERTEX
  8
0
 10
-78.61618192
 20
-49.88651026
  0
VERTEX
  8
0
 10
-78.38310212
 20
-49.67650555
  0
VERTEX
  8
0
 10
-78.13228092
 20
-49.47616109
  0
VERTEX
  8
0
 10
-77.86675927
 20
-49.28365559
  0
VERTEX
  8
0
 10
-77.30377825
 20
-48.91487627
  0
VERTEX
  8
0
 10
-76.01744446
 20
-48.07411692
  0
VERTEX
  8
0
 10
-75.43755159
 20
-47.66732743
  0
VERTEX
  8
0
 10
-74.89812440
 20
-47.26488298
  0
VERTEX
  8
0
 10
-74.39787517
 20
-46.86324727
  0
VERTEX
  8
0
 10
-73.93551614
 20
-46.45888399
  0
VERTEX
  8
0
 10
-73.50975957
 20
-46.04825683
  0
VERTEX
  8
0
 10
-73.11931772
 20
-45.62782948
  0
VERTEX
  8
0
 10
-72.76290285
 20
-45.19406565
  0
VERTEX
  8
0
 10
-72.43922721
 20
-44.74342901
  0
VERTEX
  8
0
 10
-72.14700306
 20
-44.27238327
  0
VERTEX
  8
0
 10
-71.88494266
 20
-43.77739211
  0
VERTEX
  8
0
 10
-71.65175827
 20
-43.25491923
  0
VERTEX
  8
0
 10
-71.44616213
 20
-42.70142832
  0
VERTEX
  8
0
 10
-71.26686652
 20
-42.11338307
  0
VERTEX
  8
0
 10
-71.11258369
 20
-41.48724718
  0
VERTEX
  8
0
 10
-70.86909702
 20
-40.23653917
  0
VERTEX
  8
0
 10
-70.75186845
 20
-39.61615364
  0
VERTEX
  8
0
 10
-70.62196541
 20
-39.00502522
  0
VERTEX
  8
0
 10
-70.46762469
 20
-38.40761249
  0
VERTEX
  8
0
 10
-70.27708306
 20
-37.82837404
  0
VERTEX
  8
0
 10
-70.16456091
 20
-37.54696348
  0
VERTEX
  8
0
 10
-70.03857731
 20
-37.27176846
  0
VERTEX
  8
0
 10
-69.89766188
 20
-37.00334631
  0
VERTEX
  8
0
 10
-69.74034421
 20
-36.74225434
  0
VERTEX
  8
0
 10
-69.91920439
 20
-36.65431048
  0
VERTEX
  8
0
 10
-70.10042413
 20
-36.58956050
  0
VERTEX
  8
0
 10
-70.28380465
 20
-36.54634437
  0
VERTEX
  8
0
 10
-70.46914719
 20
-36.52300209
  0
VERTEX
  8
0
 10
-70.65625295
 20
-36.51787364
  0
VERTEX
  8
0
 10
-70.84492318
 20
-36.52929901
  0
VERTEX
  8
0
 10
-71.22616189
 20
-36.59517112
  0
VERTEX
  8
0
 10
-71.95504048
 20
-36.78861856
  0
VERTEX
  8
0
 10
-72.49921133
 20
-36.97150840
  0
VERTEX
  8
0
 10
-72.91453461
 20
-37.14001717
  0
VERTEX
  8
0
 10
-73.25687055
 20
-37.29032139
  0
VERTEX
  8
0
 10
-73.58207933
 20
-37.41859758
  0
VERTEX
  8
0
 10
-73.94602115
 20
-37.52102227
  0
VERTEX
  8
0
 10
-74.40455623
 20
-37.59377199
  0
VERTEX
  8
0
 10
-75.01354475
 20
-37.63302326
  0
VERTEX
  8
0
 10
-75.64568151
 20
-37.64346814
  0
VERTEX
  8
0
 10
-76.24908895
 20
-37.63743365
  0
VERTEX
  8
0
 10
-76.82681791
 20
-37.61384984
  0
VERTEX
  8
0
 10
-77.38191927
 20
-37.57164679
  0
VERTEX
  8
0
 10
-77.91744388
 20
-37.50975454
  0
VERTEX
  8
0
 10
-78.43644261
 20
-37.42710315
  0
VERTEX
  8
0
 10
-78.94196632
 20
-37.32262270
  0
VERTEX
  8
0
 10
-79.43706587
 20
-37.19524322
  0
VERTEX
  8
0
 10
-79.92479212
 20
-37.04389478
  0
VERTEX
  8
0
 10
-80.40819594
 20
-36.86750745
  0
VERTEX
  8
0
 10
-80.89032819
 20
-36.66501128
  0
VERTEX
  8
0
 10
-81.37423972
 20
-36.43533632
  0
VERTEX
  8
0
 10
-81.86298141
 20
-36.17741264
  0
VERTEX
  8
0
 10
-82.35960412
 20
-35.89017029
  0
VERTEX
  8
0
 10
-82.86715870
 20
-35.57253934
  0
VERTEX
  8
0
 10
-83.38869601
 20
-35.22344984
  0
VERTEX
  8
0
 10
-82.79472493
 20
-35.30463110
  0
VERTEX
  8
0
 10
-82.20093861
 20
-35.37031426
  0
VERTEX
  8
0
 10
-81.60742965
 20
-35.42073997
  0
VERTEX
  8
0
 10
-81.01429061
 20
-35.45614888
  0
VERTEX
  8
0
 10
-79.82949266
 20
-35.48287898
  0
VERTEX
  8
0
 10
-78.64728540
 20
-35.45242983
  0
VERTEX
  8
0
 10
-77.46840947
 20
-35.36672671
  0
VERTEX
  8
0
 10
-76.29360551
 20
-35.22769489
  0
VERTEX
  8
0
 10
-75.12361416
 20
-35.03725966
  0
VERTEX
  8
0
 10
-73.95917606
 20
-34.79734628
  0
VERTEX
  8
0
 10
-72.80103186
 20
-34.50988003
  0
VERTEX
  8
0
 10
-71.64992218
 20
-34.17678620
  0
VERTEX
  8
0
 10
-70.50658769
 20
-33.79999005
  0
VERTEX
  8
0
 10
-69.37176900
 20
-33.38141686
  0
VERTEX
  8
0
 10
-68.24620678
 20
-32.92299191
  0
VERTEX
  8
0
 10
-67.13064165
 20
-32.42664048
  0
VERTEX
  8
0
 10
-66.02581426
 20
-31.89428784
  0
VERTEX
  8
0
 10
-64.93246525
 20
-31.32785926
  0
VERTEX
  8
0
 10
-64.94583792
 20
-31.03744748
  0
VERTEX
  8
0
 10
-65.00451420
 20
-30.60903011
  0
VERTEX
  8
0
 10
-65.22301106
 20
-29.41137331
  0
VERTEX
  8
0
 10
-65.51842276
 20
-27.88127830
  0
VERTEX
  8
0
 10
-65.82121622
 20
-26.16513446
  0
VERTEX
  8
0
 10
-65.95365203
 20
-25.28304092
  0
VERTEX
  8
0
 10
-66.06185837
 20
-24.40933121
  0
VERTEX
  8
0
 10
-66.13714363
 20
-23.56230399
  0
VERTEX
  8
0
 10
-66.17081616
 20
-22.76025795
  0
VERTEX
  8
0
 10
-66.15418433
 20
-22.02149176
  0
VERTEX
  8
0
 10
-66.12428814
 20
-21.68155694
  0
VERTEX
  8
0
 10
-66.07855650
 20
-21.36430409
  0
VERTEX
  8
0
 10
-66.01590295
 20
-21.07202054
  0
VERTEX
  8
0
 10
-65.93524105
 20
-20.80699363
  0
VERTEX
  8
0
 10
-65.83548432
 20
-20.57151068
  0
VERTEX
  8
0
 10
-65.71554633
 20
-20.36785904
  0
VERTEX
  8
0
 10
-65.62313674
 20
-20.27307488
  0
VERTEX
  8
0
 10
-65.45854398
 20
-20.14444024
  0
VERTEX
  8
0
 10
-64.95593953
 20
-19.80767773
  0
VERTEX
  8
0
 10
-64.29399399
 20
-19.40168779
  0
VERTEX
  8
0
 10
-63.55896837
 20
-18.97058675
  0
VERTEX
  8
0
 10
-62.21472103
 20
-18.20951653
  0
VERTEX
  8
0
 10
-61.61328565
 20
-17.87739747
  0
VERTEX
  8
0
 10
-61.88454537
 20
-19.51953198
  0
VERTEX
  8
0
 10
-62.17417433
 20
-21.16472853
  0
VERTEX
  8
0
 10
-62.31040171
 20
-21.98729691
  0
VERTEX
  8
0
 10
-62.43265073
 20
-22.80921701
  0
VERTEX
  8
0
 10
-62.53473114
 20
-23.63001756
  0
VERTEX
  8
0
 10
-62.61045273
 20
-24.44922730
  0
VERTEX
  8
0
 10
-62.65362527
 20
-25.26637497
  0
VERTEX
  8
0
 10
-62.65805854
 20
-26.08098930
  0
VERTEX
  8
0
 10
-62.61756230
 20
-26.89259902
  0
VERTEX
  8
0
 10
-62.52594633
 20
-27.70073288
  0
VERTEX
  8
0
 10
-62.45903400
 20
-28.10334909
  0
VERTEX
  8
0
 10
-62.37702040
 20
-28.50491960
  0
VERTEX
  8
0
 10
-62.27913176
 20
-28.90538552
  0
VERTEX
  8
0
 10
-62.16459429
 20
-29.30468793
  0
VERTEX
  8
0
 10
-62.03263422
 20
-29.70276792
  0
VERTEX
  8
0
 10
-61.88247777
 20
-30.09956659
  0
VERTEX
  8
0
 10
-61.71335116
 20
-30.49502503
  0
VERTEX
  8
0
 10
-61.52448061
 20
-30.88908433
  0
VERTEX
  8
0
 10
-61.31899810
 20
-30.99686583
  0
VERTEX
  8
0
 10
-61.10717984
 20
-31.08776662
  0
VERTEX
  8
0
 10
-60.66725374
 20
-31.22577280
  0
VERTEX
  8
0
 10
-60.21013756
 20
-31.31679639
  0
VERTEX
  8
0
 10
-59.74126656
 20
-31.37453089
  0
VERTEX
  8
0
 10
-58.79000107
 20
-31.44490673
  0
VERTEX
  8
0
 10
-58.31847709
 20
-31.48493509
  0
VERTEX
  8
0
 10
-57.85693928
 20
-31.54644842
  0
VERTEX
  8
0
 10
-57.83400730
 20
-31.13540461
  0
VERTEX
  8
0
 10
-57.79314012
 20
-30.73460451
  0
VERTEX
  8
0
 10
-57.73500438
 20
-30.34369484
  0
VERTEX
  8
0
 10
-57.66026670
 20
-29.96232231
  0
VERTEX
  8
0
 10
-57.56959370
 20
-29.59013363
  0
VERTEX
  8
0
 10
-57.46365199
 20
-29.22677549
  0
VERTEX
  8
0
 10
-57.34310821
 20
-28.87189461
  0
VERTEX
  8
0
 10
-57.20862898
 20
-28.52513769
  0
VERTEX
  8
0
 10
-56.90053063
 20
-27.85458259
  0
VERTEX
  8
0
 10
-56.54468992
 20
-27.21228382
  0
VERTEX
  8
0
 10
-56.14643983
 20
-26.59541505
  0
VERTEX
  8
0
 10
-55.71111332
 20
-26.00114993
  0
VERTEX
  8
0
 10
-55.24404338
 20
-25.42666213
  0
VERTEX
  8
0
 10
-54.75056298
 20
-24.86912528
  0
VERTEX
  8
0
 10
-54.23600509
 20
-24.32571306
  0
VERTEX
  8
0
 10
-53.70570269
 20
-23.79359912
  0
VERTEX
  8
0
 10
-52.61919625
 20
-22.75196069
  0
VERTEX
  8
0
 10
-51.53370746
 20
-21.72159925
  0
VERTEX
  8
0
 10
-50.87716112
 20
-21.04861250
  0
VERTEX
  8
0
 10
-50.23454433
 20
-20.31454403
  0
VERTEX
  8
0
 10
-49.60977968
 20
-19.53381302
  0
VERTEX
  8
0
 10
-49.00678976
 20
-18.72083863
  0
VERTEX
  8
0
 10
-48.42949717
 20
-17.89004003
  0
VERTEX
  8
0
 10
-47.88182452
 20
-17.05583640
  0
VERTEX
  8
0
 10
-47.36769439
 20
-16.23264689
  0
VERTEX
  8
0
 10
-46.89102939
 20
-15.43489069
  0
VERTEX
  8
0
 10
-46.06578516
 20
-13.97335485
  0
VERTEX
  8
0
 10
-45.43747260
 20
-12.78658225
  0
VERTEX
  8
0
 10
-45.03747249
 20
-11.98992622
  0
VERTEX
  8
0
 10
-44.89716562
 20
-11.69874014
  0
VERTEX
  8
0
 10
-44.78859574
 20
-12.02931644
  0
VERTEX
  8
0
 10
-44.69362980
 20
-12.36925821
  0
VERTEX
  8
0
 10
-44.54385648
 20
-13.07446338
  0
VERTEX
  8
0
 10
-44.44653900
 20
-13.80880609
  0
VERTEX
  8
0
 10
-44.40037072
 20
-14.56673677
  0
VERTEX
  8
0
 10
-44.40404501
 20
-15.34270587
  0
VERTEX
  8
0
 10
-44.45625523
 20
-16.13116381
  0
VERTEX
  8
0
 10
-44.55569474
 20
-16.92656103
  0
VERTEX
  8
0
 10
-44.70105689
 20
-17.72334797
  0
VERTEX
  8
0
 10
-44.89103504
 20
-18.51597506
  0
VERTEX
  8
0
 10
-45.12432256
 20
-19.29889273
  0
VERTEX
  8
0
 10
-45.39961280
 20
-20.06655143
  0
VERTEX
  8
0
 10
-45.71559912
 20
-20.81340158
  0
VERTEX
  8
0
 10
-46.07097489
 20
-21.53389363
  0
VERTEX
  8
0
 10
-46.46443345
 20
-22.22247800
  0
VERTEX
  8
0
 10
-46.89466818
 20
-22.87360513
  0
VERTEX
  8
0
 10
-47.36037243
 20
-23.48172547
  0
VERTEX
  8
0
 10
-48.30930338
 20
-24.35578955
  0
VERTEX
  8
0
 10
-49.25726103
 20
-25.24238359
  0
VERTEX
  8
0
 10
-50.18144989
 20
-26.15396564
  0
VERTEX
  8
0
 10
-50.62750745
 20
-26.62302031
  0
VERTEX
  8
0
 10
-51.05907452
 20
-27.10299377
  0
VERTEX
  8
0
 10
-51.47330165
 20
-27.59544326
  0
VERTEX
  8
0
 10
-51.86733942
 20
-28.10192604
  0
VERTEX
  8
0
 10
-52.23833840
 20
-28.62399938
  0
VERTEX
  8
0
 10
-52.58344914
 20
-29.16322053
  0
VERTEX
  8
0
 10
-52.89982222
 20
-29.72114674
  0
VERTEX
  8
0
 10
-53.18460819
 20
-30.29933529
  0
VERTEX
  8
0
 10
-53.43495764
 20
-30.89934342
  0
VERTEX
  8
0
 10
-53.64802112
 20
-31.52272839
  0
VERTEX
  8
0
 10
-53.37770901
 20
-31.63524802
  0
VERTEX
  8
0
 10
-53.11802216
 20
-31.70648318
  0
VERTEX
  8
0
 10
-52.86736327
 20
-31.74111365
  0
VERTEX
  8
0
 10
-52.62413506
 20
-31.74381924
  0
VERTEX
  8
0
 10
-52.38674024
 20
-31.71927974
  0
VERTEX
  8
0
 10
-52.15358151
 20
-31.67217497
  0
VERTEX
  8
0
 10
-51.69358318
 20
-31.52898876
  0
VERTEX
  8
0
 10
-51.23136176
 20
-31.35169900
  0
VERTEX
  8
0
 10
-50.75413893
 20
-31.17774408
  0
VERTEX
  8
0
 10
-50.50590876
 20
-31.10371669
  0
VERTEX
  8
0
 10
-50.24913637
 20
-31.04456241
  0
VERTEX
  8
0
 10
-49.98222447
 20
-31.00496103
  0
VERTEX
  8
0
 10
-49.70357576
 20
-30.98959236
  0
VERTEX
  8
0
 10
-49.13171843
 20
-31.01586856
  0
VERTEX
  8
0
 10
-48.57618555
 20
-31.07587522
  0
VERTEX
  8
0
 10
-48.03599672
 20
-31.16753629
  0
VERTEX
  8
0
 10
-47.51017152
 20
-31.28877572
  0
VERTEX
  8
0
 10
-46.99772952
 20
-31.43751744
  0
VERTEX
  8
0
 10
-46.49769032
 20
-31.61168540
  0
VERTEX
  8
0
 10
-46.00907348
 20
-31.80920356
  0
VERTEX
  8
0
 10
-45.53089860
 20
-32.02799585
  0
VERTEX
  8
0
 10
-45.06218526
 20
-32.26598622
  0
VERTEX
  8
0
 10
-44.60195304
 20
-32.52109861
  0
VERTEX
  8
0
 10
-44.14922151
 20
-32.79125698
  0
VERTEX
  8
0
 10
-43.70301027
 20
-33.07438526
  0
VERTEX
  8
0
 10
-42.82622697
 20
-33.67124735
  0
VERTEX
  8
0
 10
-41.96375978
 20
-34.29507645
  0
VERTEX
  8
0
 10
-40.25040037
 20
-35.55720193
  0
VERTEX
  8
0
 10
-39.38382146
 20
-36.16228143
  0
VERTEX
  8
0
 10
-38.50018530
 20
-36.72789420
  0
VERTEX
  8
0
 10
-38.04951970
 20
-36.99071041
  0
VERTEX
  8
0
 10
-37.59164854
 20
-37.23743178
  0
VERTEX
  8
0
 10
-37.12559138
 20
-37.46598225
  0
VERTEX
  8
0
 10
-36.65036783
 20
-37.67428575
  0
VERTEX
  8
0
 10
-36.16499745
 20
-37.86026624
  0
VERTEX
  8
0
 10
-35.66849983
 20
-38.02184767
  0
VERTEX
  8
0
 10
-35.15989455
 20
-38.15695397
  0
VERTEX
  8
0
 10
-34.63820119
 20
-38.26350910
  0
VERTEX
  8
0
 10
-34.14201485
 20
-38.34117824
  0
VERTEX
  8
0
 10
-33.64902082
 20
-38.40247586
  0
VERTEX
  8
0
 10
-32.67893261
 20
-38.48057458
  0
VERTEX
  8
0
 10
-31.74058239
 20
-38.50704136
  0
VERTEX
  8
0
 10
-30.84661595
 20
-38.49111229
  0
VERTEX
  8
0
 10
-30.00967909
 20
-38.44202347
  0
VERTEX
  8
0
 10
-29.24241761
 20
-38.36901099
  0
VERTEX
  8
0
 10
-28.55747731
 20
-38.28131094
  0
VERTEX
  8
0
 10
-27.96750400
 20
-38.18815943
  0
VERTEX
  8
0
 10
-27.73792391
 20
-38.15905521
  0
VERTEX
  8
0
 10
-27.58865500
 20
-38.15965139
  0
VERTEX
  8
0
 10
-27.50964623
 20
-38.18457395
  0
VERTEX
  8
0
 10
-27.49084651
 20
-38.22844884
  0
VERTEX
  8
0
 10
-27.52220480
 20
-38.28590203
  0
VERTEX
  8
0
 10
-27.59367003
 20
-38.35155949
  0
VERTEX
  8
0
 10
-27.81671707
 20
-38.48599105
  0
VERTEX
  8
0
 10
-28.45014834
 20
-38.78219844
  0
VERTEX
  8
0
 10
-29.09049134
 20
-39.05361161
  0
VERTEX
  8
0
 10
-29.73720679
 20
-39.30030854
  0
VERTEX
  8
0
 10
-30.38975547
 20
-39.52236717
  0
VERTEX
  8
0
 10
-31.04759811
 20
-39.71986549
  0
VERTEX
  8
0
 10
-31.71019547
 20
-39.89288144
  0
VERTEX
  8
0
 10
-32.37700830
 20
-40.04149300
  0
VERTEX
  8
0
 10
-33.04749734
 20
-40.16577812
  0
VERTEX
  8
0
 10
-33.72112335
 20
-40.26581476
  0
VERTEX
  8
0
 10
-34.39734707
 20
-40.34168090
  0
VERTEX
  8
0
 10
-35.07562926
 20
-40.39345450
  0
VERTEX
  8
0
 10
-35.75543067
 20
-40.42121351
  0
VERTEX
  8
0
 10
-36.43621204
 20
-40.42503590
  0
VERTEX
  8
0
 10
-37.11743412
 20
-40.40499963
  0
VERTEX
  8
0
 10
-37.79855767
 20
-40.36118268
  0
VERTEX
  8
0
 10
-38.47904343
 20
-40.29366298
  0
VERTEX
  8
0
 10
-39.15835216
 20
-40.20251853
  0
VERTEX
  8
0
 10
-39.83594460
 20
-40.08782726
  0
VERTEX
  8
0
 10
-40.51128150
 20
-39.94966716
  0
VERTEX
  8
0
 10
-41.18382362
 20
-39.78811617
  0
VERTEX
  8
0
 10
-41.85303170
 20
-39.60325227
  0
VERTEX
  8
0
 10
-42.51836649
 20
-39.39515342
  0
VERTEX
  8
0
 10
-43.17928874
 20
-39.16389758
  0
VERTEX
  8
0
 10
-43.83525921
 20
-38.90956271
  0
VERTEX
  8
0
 10
-44.48573863
 20
-38.63222677
  0
VERTEX
  8
0
 10
-45.13018777
 20
-38.33196774
  0
VERTEX
  8
0
 10
-45.76806737
 20
-38.00886356
  0
VERTEX
  8
0
 10
-46.39883818
 20
-37.66299222
  0
VERTEX
  8
0
 10
-47.02196095
 20
-37.29443166
  0
VERTEX
  8
0
 10
-47.63689643
 20
-36.90325985
  0
VERTEX
  8
0
 10
-48.24310537
 20
-36.48955475
  0
VERTEX
  8
0
 10
-48.84004852
 20
-36.05339433
  0
VERTEX
  8
0
 10
-49.14261496
 20
-35.75255827
  0
VERTEX
  8
0
 10
-49.43858140
 20
-35.49368093
  0
VERTEX
  8
0
 10
-49.72812220
 20
-35.27503798
  0
VERTEX
  8
0
 10
-50.01141174
 20
-35.09490508
  0
VERTEX
  8
0
 10
-50.28862438
 20
-34.95155789
  0
VERTEX
  8
0
 10
-50.55993450
 20
-34.84327210
  0
VERTEX
  8
0
 10
-50.82551645
 20
-34.76832336
  0
VERTEX
  8
0
 10
-51.08554461
 20
-34.72498734
  0
VERTEX
  8
0
 10
-51.34019334
 20
-34.71153972
  0
VERTEX
  8
0
 10
-51.58963701
 20
-34.72625614
  0
VERTEX
  8
0
 10
-51.83404999
 20
-34.76741230
  0
VERTEX
  8
0
 10
-52.07360664
 20
-34.83328385
  0
VERTEX
  8
0
 10
-52.30848133
 20
-34.92214645
  0
VERTEX
  8
0
 10
-52.53884844
 20
-35.03227579
  0
VERTEX
  8
0
 10
-52.76488232
 20
-35.16194751
  0
VERTEX
  8
0
 10
-52.98675735
 20
-35.30943730
  0
VERTEX
  8
0
 10
-53.41872831
 20
-35.65097374
  0
VERTEX
  8
0
 10
-53.83615626
 20
-36.04309043
  0
VERTEX
  8
0
 10
-54.24043614
 20
-36.47199272
  0
VERTEX
  8
0
 10
-54.63296289
 20
-36.92388595
  0
VERTEX
  8
0
 10
-55.38833675
 20
-37.84146657
  0
VERTEX
  8
0
 10
-55.75397375
 20
-38.27956464
  0
VERTEX
  8
0
 10
-56.11343736
 20
-38.68547501
  0
VERTEX
  8
0
 10
-56.32380068
 20
-38.97603516
  0
VERTEX
  8
0
 10
-56.51191692
 20
-39.27197644
  0
VERTEX
  8
0
 10
-56.67896758
 20
-39.57303957
  0
VERTEX
  8
0
 10
-56.82613414
 20
-39.87896529
  0
VERTEX
  8
0
 10
-56.95459809
 20
-40.18949433
  0
VERTEX
  8
0
 10
-57.06554091
 20
-40.50436743
  0
VERTEX
  8
0
 10
-57.16014410
 20
-40.82332531
  0
VERTEX
  8
0
 10
-57.23958914
 20
-41.14610873
  0
VERTEX
  8
0
 10
-57.35773071
 20
-41.80211507
  0
VERTEX
  8
0
 10
-57.42941752
 20
-42.47031233
  0
VERTEX
  8
0
 10
-57.46410147
 20
-43.14862639
  0
VERTEX
  8
0
 10
-57.47123446
 20
-43.83498311
  0
VERTEX
  8
0
 10
-57.44065510
 20
-45.22352807
  0
VERTEX
  8
0
 10
-57.41329463
 20
-46.61935423
  0
VERTEX
  8
0
 10
-57.42445121
 20
-47.31481245
  0
VERTEX
  8
0
 10
-57.46476820
 20
-48.00586859
  0
VERTEX
  8
0
 10
-57.54369748
 20
-48.69044854
  0
VERTEX
  8
0
 10
-57.67069097
 20
-49.36647817
  0
SEQEND
  0
POLYLINE
  8
Векторный_слой_3
 66
   1
 39
0.000000
 70
    1
  0
VERTEX
  8
0
 10
-15.73017439
 20
-66.49524772
  0
VERTEX
  8
0
 10
-15.93107657
 20
-67.51822192
  0
VERTEX
  8
0
 10
-16.18345403
 20
-68.50957082
  0
VERTEX
  8
0
 10
-16.48451869
 20
-69.46936751
  0
VERTEX
  8
0
 10
-16.83148250
 20
-70.39768510
  0
VERTEX
  8
0
 10
-17.22155738
 20
-71.29459669
  0
VERTEX
  8
0
 10
-17.65195526
 20
-72.16017537
  0
VERTEX
  8
0
 10
-18.11988807
 20
-72.99449424
  0
VERTEX
  8
0
 10
-18.62256776
 20
-73.79762641
  0
VERTEX
  8
0
 10
-19.15720625
 20
-74.56964498
  0
VERTEX
  8
0
 10
-19.72101547
 20
-75.31062305
  0
VERTEX
  8
0
 10
-20.31120735
 20
-76.02063371
  0
VERTEX
  8
0
 10
-20.92499383
 20
-76.69975006
  0
VERTEX
  8
0
 10
-21.55958684
 20
-77.34804521
  0
VERTEX
  8
0
 10
-22.21219830
 20
-77.96559226
  0
VERTEX
  8
0
 10
-22.88004016
 20
-78.55246430
  0
VERTEX
  8
0
 10
-23.56032435
 20
-79.10873444
  0
VERTEX
  8
0
 10
-24.25026279
 20
-79.63447578
  0
VERTEX
  8
0
 10
-24.94706742
 20
-80.12976141
  0
VERTEX
  8
0
 10
-25.64795017
 20
-80.59466444
  0
VERTEX
  8
0
 10
-26.35012297
 20
-81.02925796
  0
VERTEX
  8
0
 10
-27.05079776
 20
-81.43361508
  0
VERTEX
  8
0
 10
-27.74718646
 20
-81.80780890
  0
VERTEX
  8
0
 10
-28.43650101
 20
-82.15191251
  0
VERTEX
  8
0
 10
-29.11595334
 20
-82.46599902
  0
VERTEX
  8
0
 10
-29.78275539
 20
-82.75014152
  0
VERTEX
  8
0
 10
-30.43411908
 20
-83.00441312
  0
VERTEX
  8
0
 10
-31.06725634
 20
-83.22888691
  0
VERTEX
  8
0
 10
-31.67937911
 20
-83.42363601
  0
VERTEX
  8
0
 10
-32.26769933
 20
-83.58873350
  0
VERTEX
  8
0
 10
-32.82942891
 20
-83.72425248
  0
VERTEX
  8
0
 10
-33.36177980
 20
-83.83026606
  0
VERTEX
  8
0
 10
-33.86196393
 20
-83.90684734
  0
VERTEX
  8
0
 10
-31.70850911
 20
-82.10904405
  0
VERTEX
  8
0
 10
-30.63237937
 20
-81.17950782
  0
VERTEX
  8
0
 10
-29.56829889
 20
-80.22549540
  0
VERTEX
  8
0
 10
-28.52500577
 20
-79.24396694
  0
VERTEX
  8
0
 10
-27.51123813
 20
-78.23188262
  0
VERTEX
  8
0
 10
-26.53573407
 20
-77.18620257
  0
VERTEX
  8
0
 10
-26.06506154
 20
-76.64981421
  0
VERTEX
  8
0
 10
-25.60723169
 20
-76.10388697
  0
VERTEX
  8
0
 10
-25.16333680
 20
-75.54804088
  0
VERTEX
  8
0
 10
-24.73446912
 20
-74.98189595
  0
VERTEX
  8
0
 10
-24.32172092
 20
-74.40507222
  0
VERTEX
  8
0
 10
-23.92618446
 20
-73.81718969
  0
VERTEX
  8
0
 10
-23.54895200
 20
-73.21786839
  0
VERTEX
  8
0
 10
-23.19111581
 20
-72.60672833
  0
VERTEX
  8
0
 10
-22.85376815
 20
-71.98338954
  0
VERTEX
  8
0
 10
-22.53800129
 20
-71.34747203
  0
VERTEX
  8
0
 10
-22.24490748
 20
-70.69859583
  0
VERTEX
  8
0
 10
-21.97557899
 20
-70.03638095
  0
VERTEX
  8
0
 10
-21.73110809
 20
-69.36044741
  0
VERTEX
  8
0
 10
-21.51258704
 20
-68.67041524
  0
VERTEX
  8
0
 10
-21.32110810
 20
-67.96590445
  0
VERTEX
  8
0
 10
-21.15776354
 20
-67.24653506
  0
VERTEX
  8
0
 10
-21.02364562
 20
-66.51192709
  0
VERTEX
  8
0
 10
-20.91984660
 20
-65.76170057
  0
VERTEX
  8
0
 10
-20.65558711
 20
-64.54431812
  0
VERTEX
  8
0
 10
-20.42755763
 20
-63.32931196
  0
VERTEX
  8
0
 10
-20.23480446
 20
-62.11671499
  0
VERTEX
  8
0
 10
-20.07637394
 20
-60.90656010
  0
VERTEX
  8
0
 10
-19.95131237
 20
-59.69888017
  0
VERTEX
  8
0
 10
-19.85866608
 20
-58.49370812
  0
VERTEX
  8
0
 10
-19.79748139
 20
-57.29107683
  0
VERTEX
  8
0
 10
-19.76680461
 20
-56.09101918
  0
VERTEX
  8
0
 10
-19.76568207
 20
-54.89356809
  0
VERTEX
  8
0
 10
-19.79316009
 20
-53.69875644
  0
VERTEX
  8
0
 10
-19.84828497
 20
-52.50661712
  0
VERTEX
  8
0
 10
-19.93010305
 20
-51.31718303
  0
VERTEX
  8
0
 10
-20.03766064
 20
-50.13048707
  0
VERTEX
  8
0
 10
-20.17000407
 20
-48.94656212
  0
VERTEX
  8
0
 10
-20.32617964
 20
-47.76544108
  0
VERTEX
  8
0
 10
-20.50523368
 20
-46.58715684
  0
VERTEX
  8
0
 10
-19.95691287
 20
-47.14973443
  0
VERTEX
  8
0
 10
-19.44507710
 20
-47.72669937
  0
VERTEX
  8
0
 10
-18.96865271
 20
-48.31699712
  0
VERTEX
  8
0
 10
-18.52656602
 20
-48.91957314
  0
VERTEX
  8
0
 10
-18.11774339
 20
-49.53337289
  0
VERTEX
  8
0
 10
-17.74111114
 20
-50.15734183
  0
VERTEX
  8
0
 10
-17.39559561
 20
-50.79042542
  0
VERTEX
  8
0
 10
-17.08012313
 20
-51.43156912
  0
VERTEX
  8
0
 10
-16.79362005
 20
-52.07971839
  0
VERTEX
  8
0
 10
-16.53501269
 20
-52.73381869
  0
VERTEX
  8
0
 10
-16.30322740
 20
-53.39281549
  0
VERTEX
  8
0
 10
-16.09719051
 20
-54.05565423
  0
VERTEX
  8
0
 10
-15.91582836
 20
-54.72128039
  0
VERTEX
  8
0
 10
-15.75806728
 20
-55.38863942
  0
VERTEX
  8
0
 10
-15.62283360
 20
-56.05667679
  0
VERTEX
  8
0
 10
-15.50905368
 20
-56.72433794
  0
VERTEX
  8
0
 10
-15.41565383
 20
-57.39056835
  0
VERTEX
  8
0
 10
-15.34156040
 20
-58.05431347
  0
VERTEX
  8
0
 10
-15.28569973
 20
-58.71451876
  0
VERTEX
  8
0
 10
-15.24699814
 20
-59.37012969
  0
VERTEX
  8
0
 10
-15.22438198
 20
-60.02009171
  0
VERTEX
  8
0
 10
-15.21677758
 20
-60.66335028
  0
VERTEX
  8
0
 10
-15.24230941
 20
-61.92553893
  0
VERTEX
  8
0
 10
-15.31500431
 20
-63.14825932
  0
VERTEX
  8
0
 10
-15.42627299
 20
-64.32307512
  0
VERTEX
  8
0
 10
-15.56752612
 20
-65.44155003
  0
VERTEX
  8
0
 10
-15.73017439
 20
-66.49524772
  0
SEQEND
  0
POLYLINE
  8
Векторный_слой_3
 66
   1
 39
0.000000
 70
    1
  0
VERTEX
  8
0
 10
0.00000000
 20
244.99992727
  0
VERTEX
  8
0
 10
-2.22619286
 20
244.80274167
  0
VERTEX
  8
0
 10
-4.36865954
 20
244.57975157
  0
VERTEX
  8
0
 10
-6.42857415
 20
244.33266110
  0
VERTEX
  8
0
 10
-8.40711081
 20
244.06317438
  0
VERTEX
  8
0
 10
-10.30544365
 20
243.77299554
  0
VERTEX
  8
0
 10
-12.12474678
 20
243.46382868
  0
VERTEX
  8
0
 10
-13.86619433
 20
243.13737793
  0
VERTEX
  8
0
 10
-15.53096041
 20
242.79534742
  0
VERTEX
  8
0
 10
-17.12021914
 20
242.43944126
  0
VERTEX
  8
0
 10
-18.63514464
 20
242.07136357
  0
VERTEX
  8
0
 10
-20.07691104
 20
241.69281848
  0
VERTEX
  8
0
 10
-21.44669244
 20
241.30551010
  0
VERTEX
  8
0
 10
-22.74566298
 20
240.91114256
  0
VERTEX
  8
0
 10
-23.97499676
 20
240.51141997
  0
VERTEX
  8
0
 10
-25.13586792
 20
240.10804645
  0
VERTEX
  8
0
 10
-26.22945056
 20
239.70272614
  0
VERTEX
  8
0
 10
-27.25691881
 20
239.29716314
  0
VERTEX
  8
0
 10
-28.21944679
 20
238.89306158
  0
VERTEX
  8
0
 10
-29.11820862
 20
238.49212558
  0
VERTEX
  8
0
 10
-29.95437842
 20
238.09605925
  0
VERTEX
  8
0
 10
-30.72913030
 20
237.70656673
  0
VERTEX
  8
0
 10
-31.44363839
 20
237.32535213
  0
VERTEX
  8
0
 10
-32.09907681
 20
236.95411956
  0
VERTEX
  8
0
 10
-32.69661967
 20
236.59457316
  0
VERTEX
  8
0
 10
-33.23744110
 20
236.24841704
  0
VERTEX
  8
0
 10
-33.72271521
 20
235.91735532
  0
VERTEX
  8
0
 10
-34.15361612
 20
235.60309213
  0
VERTEX
  8
0
 10
-34.53131796
 20
235.30733158
  0
VERTEX
  8
0
 10
-34.85699484
 20
235.03177779
  0
VERTEX
  8
0
 10
-35.13182089
 20
234.77813489
  0
VERTEX
  8
0
 10
-35.35697022
 20
234.54810699
  0
VERTEX
  8
0
 10
-35.53361695
 20
234.34339822
  0
VERTEX
  8
0
 10
-35.83424625
 20
234.06464058
  0
VERTEX
  8
0
 10
-36.12397604
 20
233.77402687
  0
VERTEX
  8
0
 10
-36.40128994
 20
233.47135667
  0
VERTEX
  8
0
 10
-36.66467161
 20
233.15642956
  0
VERTEX
  8
0
 10
-36.91260466
 20
232.82904514
  0
VERTEX
  8
0
 10
-37.14357275
 20
232.48900300
  0
VERTEX
  8
0
 10
-37.35605951
 20
232.13610271
  0
VERTEX
  8
0
 10
-37.54854857
 20
231.77014387
  0
VERTEX
  8
0
 10
-37.71952358
 20
231.39092606
  0
VERTEX
  8
0
 10
-37.86746818
 20
230.99824887
  0
VERTEX
  8
0
 10
-37.99086599
 20
230.59191189
  0
VERTEX
  8
0
 10
-38.08820066
 20
230.17171470
  0
VERTEX
  8
0
 10
-38.15795583
 20
229.73745690
  0
VERTEX
  8
0
 10
-38.19861513
 20
229.28893807
  0
VERTEX
  8
0
 10
-38.20866220
 20
228.82595779
  0
VERTEX
  8
0
 10
-38.18658067
 20
228.34831565
  0
VERTEX
  8
0
 10
-37.77814777
 20
221.85011332
  0
VERTEX
  8
0
 10
-37.39231672
 20
215.89908018
  0
VERTEX
  8
0
 10
-36.90946450
 20
208.98793487
  0
VERTEX
  8
0
 10
-36.63729339
 20
205.36947074
  0
VERTEX
  8
0
 10
-36.34763251
 20
201.74755927
  0
VERTEX
  8
0
 10
-36.04273705
 20
198.20106070
  0
VERTEX
  8
0
 10
-35.72486219
 20
194.80883525
  0
VERTEX
  8
0
 10
-35.39626309
 20
191.64974316
  0
VERTEX
  8
0
 10
-35.05919493
 20
188.80264467
  0
VERTEX
  8
0
 10
-34.88818970
 20
187.52073685
  0
VERTEX
  8
0
 10
-34.71591290
 20
186.34640001
  0
VERTEX
  8
0
 10
-34.54264642
 20
185.28949168
  0
VERTEX
  8
0
 10
-34.36867217
 20
184.35986940
  0
VERTEX
  8
0
 10
-33.89442274
 20
183.71253866
  0
VERTEX
  8
0
 10
-33.43552385
 20
183.04968720
  0
VERTEX
  8
0
 10
-32.99160707
 20
182.37151980
  0
VERTEX
  8
0
 10
-32.56230399
 20
181.67824122
  0
VERTEX
  8
0
 10
-32.14724620
 20
180.97005621
  0
VERTEX
  8
0
 10
-31.74606528
 20
180.24716953
  0
VERTEX
  8
0
 10
-31.35839283
 20
179.50978593
  0
VERTEX
  8
0
 10
-30.98386043
 20
178.75811019
  0
VERTEX
  8
0
 10
-30.62209967
 20
177.99234705
  0
VERTEX
  8
0
 10
-30.27274214
 20
177.21270127
  0
VERTEX
  8
0
 10
-29.93541942
 20
176.41937763
  0
VERTEX
  8
0
 10
-29.60976310
 20
175.61258086
  0
VERTEX
  8
0
 10
-28.99197601
 20
173.95938700
  0
VERTEX
  8
0
 10
-28.41643358
 20
172.25475778
  0
VERTEX
  8
0
 10
-27.88018849
 20
170.50033126
  0
VERTEX
  8
0
 10
-27.38029345
 20
168.69774552
  0
VERTEX
  8
0
 10
-26.91380116
 20
166.84863861
  0
VERTEX
  8
0
 10
-26.47776432
 20
164.95464861
  0
VERTEX
  8
0
 10
-26.06923562
 20
163.01741359
  0
VERTEX
  8
0
 10
-25.68526776
 20
161.03857162
  0
VERTEX
  8
0
 10
-25.32291345
 20
159.01976076
  0
VERTEX
  8
0
 10
-24.97922538
 20
156.96261908
  0
VERTEX
  8
0
 10
-24.85141831
 20
156.07472101
  0
VERTEX
  8
0
 10
-24.74962462
 20
155.15422419
  0
VERTEX
  8
0
 10
-24.67409576
 20
154.20254159
  0
VERTEX
  8
0
 10
-24.62508322
 20
153.22108620
  0
VERTEX
  8
0
 10
-24.60283847
 20
152.21127097
  0
VERTEX
  8
0
 10
-24.60761298
 20
151.17450889
  0
VERTEX
  8
0
 10
-24.63965824
 20
150.11221293
  0
VERTEX
  8
0
 10
-24.69922572
 20
149.02579606
  0
VERTEX
  8
0
 10
-24.78656689
 20
147.91667125
  0
VERTEX
  8
0
 10
-24.90193323
 20
146.78625147
  0
VERTEX
  8
0
 10
-25.04557621
 20
145.63594971
  0
VERTEX
  8
0
 10
-25.21774732
 20
144.46717892
  0
VERTEX
  8
0
 10
-25.41869802
 20
143.28135209
  0
VERTEX
  8
0
 10
-25.64867979
 20
142.07988218
  0
VERTEX
  8
0
 10
-25.90794411
 20
140.86418218
  0
VERTEX
  8
0
 10
-26.19674245
 20
139.63566504
  0
VERTEX
  8
0
 10
-26.51532629
 20
138.39574375
  0
VERTEX
  8
0
 10
-26.86394710
 20
137.14583128
  0
VERTEX
  8
0
 10
-27.24285636
 20
135.88734060
  0
VERTEX
  8
0
 10
-27.65230555
 20
134.62168468
  0
VERTEX
  8
0
 10
-28.09254613
 20
133.35027649
  0
VERTEX
  8
0
 10
-28.56382959
 20
132.07452902
  0
VERTEX
  8
0
 10
-29.06640740
 20
130.79585522
  0
VERTEX
  8
0
 10
-29.60053104
 20
129.51566808
  0
VERTEX
  8
0
 10
-30.16645197
 20
128.23538056
  0
VERTEX
  8
0
 10
-30.76442169
 20
126.95640565
  0
VERTEX
  8
0
 10
-31.39469166
 20
125.68015631
  0
VERTEX
  8
0
 10
-32.05751336
 20
124.40804551
  0
VERTEX
  8
0
 10
-32.75313826
 20
123.14148623
  0
VERTEX
  8
0
 10
-33.48181784
 20
121.88189144
  0
VERTEX
  8
0
 10
-34.24380357
 20
120.63067411
  0
VERTEX
  8
0
 10
-35.03934694
 20
119.38924722
  0
VERTEX
  8
0
 10
-35.90110366
 20
118.12759780
  0
VERTEX
  8
0
 10
-36.80023069
 20
116.90500480
  0
VERTEX
  8
0
 10
-37.73407942
 20
115.72087751
  0
VERTEX
  8
0
 10
-38.70000125
 20
114.57462523
  0
VERTEX
  8
0
 10
-39.69534759
 20
113.46565728
  0
VERTEX
  8
0
 10
-40.71746984
 20
112.39338294
  0
VERTEX
  8
0
 10
-41.76371941
 20
111.35721153
  0
VERTEX
  8
0
 10
-42.83144769
 20
110.35655234
  0
VERTEX
  8
0
 10
-43.91800610
 20
109.39081469
  0
VERTEX
  8
0
 10
-45.02074603
 20
108.45940787
  0
VERTEX
  8
0
 10
-46.13701888
 20
107.56174118
  0
VERTEX
  8
0
 10
-47.26417607
 20
106.69722393
  0
VERTEX
  8
0
 10
-48.39956899
 20
105.86526543
  0
VERTEX
  8
0
 10
-49.54054904
 20
105.06527497
  0
VERTEX
  8
0
 10
-50.68446764
 20
104.29666186
  0
VERTEX
  8
0
 10
-51.82867617
 20
103.55883540
  0
VERTEX
  8
0
 10
-52.97052605
 20
102.85120489
  0
VERTEX
  8
0
 10
-54.10736868
 20
102.17317964
  0
VERTEX
  8
0
 10
-55.23655547
 20
101.52416895
  0
VERTEX
  8
0
 10
-56.35543780
 20
100.90358212
  0
VERTEX
  8
0
 10
-57.46136710
 20
100.31082846
  0
VERTEX
  8
0
 10
-58.55169475
 20
99.74531727
  0
VERTEX
  8
0
 10
-60.67495076
 20
98.69365950
  0
VERTEX
  8
0
 10
-62.70401705
 20
97.74388324
  0
VERTEX
  8
0
 10
-64.61770484
 20
96.89126291
  0
VERTEX
  8
0
 10
-66.39482536
 20
96.13107294
  0
VERTEX
  8
0
 10
-68.01418984
 20
95.45858775
  0
VERTEX
  8
0
 10
-70.08474772
 20
94.91619829
  0
VERTEX
  8
0
 10
-72.10567410
 20
94.41919830
  0
VERTEX
  8
0
 10
-74.07842400
 20
93.96449038
  0
VERTEX
  8
0
 10
-76.00445248
 20
93.54897718
  0
VERTEX
  8
0
 10
-77.88521456
 20
93.16956129
  0
VERTEX
  8
0
 10
-79.72216530
 20
92.82314536
  0
VERTEX
  8
0
 10
-81.51675974
 20
92.50663199
  0
VERTEX
  8
0
 10
-83.27045291
 20
92.21692381
  0
VERTEX
  8
0
 10
-84.98469986
 20
91.95092343
  0
VERTEX
  8
0
 10
-86.66095564
 20
91.70553349
  0
VERTEX
  8
0
 10
-89.90531381
 20
91.26419537
  0
VERTEX
  8
0
 10
-96.00215784
 20
90.49255958
  0
VERTEX
  8
0
 10
-98.87792437
 20
90.11270384
  0
VERTEX
  8
0
 10
-101.65410768
 20
89.70378416
  0
VERTEX
  8
0
 10
-103.00849323
 20
89.48068190
  0
VERTEX
  8
0
 10
-104.34234810
 20
89.24102151
  0
VERTEX
  8
0
 10
-105.65712734
 20
88.98170562
  0
VERTEX
  8
0
 10
-106.95428598
 20
88.69963685
  0
VERTEX
  8
0
 10
-108.23527907
 20
88.39171781
  0
VERTEX
  8
0
 10
-109.50156165
 20
88.05485114
  0
VERTEX
  8
0
 10
-110.75458876
 20
87.68593944
  0
VERTEX
  8
0
 10
-111.99581544
 20
87.28188535
  0
VERTEX
  8
0
 10
-113.22669673
 20
86.83959147
  0
VERTEX
  8
0
 10
-114.44868768
 20
86.35596044
  0
VERTEX
  8
0
 10
-115.66324332
 20
85.82789487
  0
VERTEX
  8
0
 10
-116.87181870
 20
85.25229739
  0
VERTEX
  8
0
 10
-116.65507101
 20
84.47291315
  0
VERTEX
  8
0
 10
-116.44587198
 20
83.63216226
  0
VERTEX
  8
0
 10
-116.24416492
 20
82.73164880
  0
VERTEX
  8
0
 10
-116.04989313
 20
81.77297686
  0
VERTEX
  8
0
 10
-115.86299989
 20
80.75775051
  0
VERTEX
  8
0
 10
-115.68342852
 20
79.68757386
  0
VERTEX
  8
0
 10
-115.34602455
 20
77.38878593
  0
VERTEX
  8
0
 10
-115.03722760
 20
74.88944576
  0
VERTEX
  8
0
 10
-114.75658405
 20
72.20238602
  0
VERTEX
  8
0
 10
-114.50364030
 20
69.34043937
  0
VERTEX
  8
0
 10
-114.27794273
 20
66.31643850
  0
VERTEX
  8
0
 10
-114.07903771
 20
63.14321608
  0
VERTEX
  8
0
 10
-113.90647165
 20
59.83360477
  0
VERTEX
  8
0
 10
-113.75979092
 20
56.40043727
  0
VERTEX
  8
0
 10
-113.63854191
 20
52.85654623
  0
VERTEX
  8
0
 10
-113.54227100
 20
49.21476434
  0
VERTEX
  8
0
 10
-113.47052459
 20
45.48792427
  0
VERTEX
  8
0
 10
-113.42284906
 20
41.68885870
  0
VERTEX
  8
0
 10
-113.39879078
 20
37.83040029
  0
VERTEX
  8
0
 10
-113.39789616
 20
33.92538172
  0
VERTEX
  8
0
 10
-113.41971157
 20
29.98663567
  0
VERTEX
  8
0
 10
-113.46378339
 20
26.02699481
  0
VERTEX
  8
0
 10
-113.52965803
 20
22.05929182
  0
VERTEX
  8
0
 10
-113.61688185
 20
18.09635936
  0
VERTEX
  8
0
 10
-113.72500125
 20
14.15103011
  0
VERTEX
  8
0
 10
-113.85356262
 20
10.23613676
  0
VERTEX
  8
0
 10
-114.00211233
 20
6.36451196
  0
VERTEX
  8
0
 10
-114.17019677
 20
2.54898840
  0
VERTEX
  8
0
 10
-114.35736234
 20
-1.19760125
  0
VERTEX
  8
0
 10
-114.56315541
 20
-4.86242432
  0
VERTEX
  8
0
 10
-114.78712236
 20
-8.43264812
  0
VERTEX
  8
0
 10
-115.02880960
 20
-11.89544000
  0
VERTEX
  8
0
 10
-115.28776350
 20
-15.23796727
  0
VERTEX
  8
0
 10
-115.56353044
 20
-18.44739725
  0
VERTEX
  8
0
 10
-115.85565682
 20
-21.51089729
  0
VERTEX
  8
0
 10
-116.17839940
 20
-24.49788620
  0
VERTEX
  8
0
 10
-116.54454474
 20
-27.48605267
  0
VERTEX
  8
0
 10
-116.95143388
 20
-30.47496878
  0
VERTEX
  8
0
 10
-117.39640786
 20
-33.46420661
  0
VERTEX
  8
0
 10
-117.87680774
 20
-36.45333826
  0
VERTEX
  8
0
 10
-118.38997455
 20
-39.44193580
  0
VERTEX
  8
0
 10
-118.93324934
 20
-42.42957133
  0
VERTEX
  8
0
 10
-119.50397316
 20
-45.41581692
  0
VERTEX
  8
0
 10
-120.09948705
 20
-48.40024466
  0
VERTEX
  8
0
 10
-120.71713206
 20
-51.38242664
  0
VERTEX
  8
0
 10
-121.35424923
 20
-54.36193494
  0
VERTEX
  8
0
 10
-122.00817961
 20
-57.33834165
  0
VERTEX
  8
0
 10
-123.35584418
 20
-63.28013863
  0
VERTEX
  8
0
 10
-124.73885414
 20
-69.20439426
  0
VERTEX
  8
0
 10
-127.52582366
 20
-80.98658820
  0
VERTEX
  8
0
 10
-128.88723995
 20
-86.83767987
  0
VERTEX
  8
0
 10
-130.19891508
 20
-92.65753692
  0
VERTEX
  8
0
 10
-130.82945232
 20
-95.55468267
  0
VERTEX
  8
0
 10
-131.43957741
 20
-98.44273602
  0
VERTEX
  8
0
 10
-132.02663139
 20
-101.32126905
  0
VERTEX
  8
0
 10
-132.58795531
 20
-104.18985385
  0
VERTEX
  8
0
 10
-133.12089021
 20
-107.04806251
  0
VERTEX
  8
0
 10
-133.62277714
 20
-109.89546711
  0
VERTEX
  8
0
 10
-134.09095715
 20
-112.73163973
  0
VERTEX
  8
0
 10
-134.52277127
 20
-115.55615247
  0
VERTEX
  8
0
 10
-135.34442192
 20
-121.00134081
  0
VERTEX
  8
0
 10
-136.14775585
 20
-126.11431788
  0
VERTEX
  8
0
 10
-136.91681524
 20
-130.97244260
  0
VERTEX
  8
0
 10
-137.63564227
 20
-135.65307391
  0
VERTEX
  8
0
 10
-137.97123183
 20
-137.95100421
  0
VERTEX
  8
0
 10
-138.28827912
 20
-140.23357075
  0
VERTEX
  8
0
 10
-138.58478941
 20
-142.51044341
  0
VERTEX
  8
0
 10
-138.85876796
 20
-144.79129206
  0
VERTEX
  8
0
 10
-139.10822007
 20
-147.08578655
  0
VERTEX
  8
0
 10
-139.33115099
 20
-149.40359676
  0
VERTEX
  8
0
 10
-139.52556599
 20
-151.75439256
  0
VERTEX
  8
0
 10
-139.68947036
 20
-154.14784381
  0
VERTEX
  8
0
 10
-139.82086936
 20
-156.59362038
  0
VERTEX
  8
0
 10
-139.91776827
 20
-159.10139213
  0
VERTEX
  8
0
 10
-139.97817236
 20
-161.68082894
  0
VERTEX
  8
0
 10
-140.00008689
 20
-164.34160067
  0
VERTEX
  8
0
 10
-139.98151715
 20
-167.09337718
  0
VERTEX
  8
0
 10
-139.92046841
 20
-169.94582835
  0
VERTEX
  8
0
 10
-139.81494593
 20
-172.90862404
  0
VERTEX
  8
0
 10
-139.66295499
 20
-175.99143412
  0
VERTEX
  8
0
 10
-139.46250086
 20
-179.20392845
  0
VERTEX
  8
0
 10
-139.21158882
 20
-182.55577691
  0
VERTEX
  8
0
 10
-138.90822413
 20
-186.05664936
  0
VERTEX
  8
0
 10
-138.55041208
 20
-189.71621566
  0
VERTEX
  8
0
 10
-138.13615792
 20
-193.54414569
  0
VERTEX
  8
0
 10
-137.66346694
 20
-197.55010931
  0
VERTEX
  8
0
 10
-137.13034440
 20
-201.74377639
  0
VERTEX
  8
0
 10
-136.53479559
 20
-206.13481679
  0
VERTEX
  8
0
 10
-135.54116087
 20
-207.07810120
  0
VERTEX
  8
0
 10
-134.47901044
 20
-208.02058079
  0
VERTEX
  8
0
 10
-133.34990883
 20
-208.96177833
  0
VERTEX
  8
0
 10
-132.15542061
 20
-209.90121663
  0
VERTEX
  8
0
 10
-130.89711033
 20
-210.83841847
  0
VERTEX
  8
0
 10
-129.57654253
 20
-211.77290663
  0
VERTEX
  8
0
 10
-128.19528178
 20
-212.70420390
  0
VERTEX
  8
0
 10
-126.75489262
 20
-213.63183308
  0
VERTEX
  8
0
 10
-125.25693961
 20
-214.55531695
  0
VERTEX
  8
0
 10
-123.70298730
 20
-215.47417829
  0
VERTEX
  8
0
 10
-122.09460024
 20
-216.38793990
  0
VERTEX
  8
0
 10
-120.43334298
 20
-217.29612457
  0
VERTEX
  8
0
 10
-118.72078009
 20
-218.19825507
  0
VERTEX
  8
0
 10
-116.95847610
 20
-219.09385421
  0
VERTEX
  8
0
 10
-115.14799557
 20
-219.98244476
  0
VERTEX
  8
0
 10
-113.29090306
 20
-220.86354952
  0
VERTEX
  8
0
 10
-111.38876312
 20
-221.73669127
  0
VERTEX
  8
0
 10
-109.44314030
 20
-222.60139280
  0
VERTEX
  8
0
 10
-107.45559916
 20
-223.45717690
  0
VERTEX
  8
0
 10
-105.42770423
 20
-224.30356636
  0
VERTEX
  8
0
 10
-103.36102009
 20
-225.14008397
  0
VERTEX
  8
0
 10
-101.25711128
 20
-225.96625250
  0
VERTEX
  8
0
 10
-99.11754235
 20
-226.78159476
  0
VERTEX
  8
0
 10
-96.94387786
 20
-227.58563353
  0
VERTEX
  8
0
 10
-94.73768236
 20
-228.37789159
  0
VERTEX
  8
0
 10
-92.50052040
 20
-229.15789174
  0
VERTEX
  8
0
 10
-90.23395653
 20
-229.92515676
  0
VERTEX
  8
0
 10
-87.93955531
 20
-230.67920945
  0
VERTEX
  8
0
 10
-85.61888129
 20
-231.41957258
  0
VERTEX
  8
0
 10
-83.27349902
 20
-232.14576895
  0
VERTEX
  8
0
 10
-80.90497305
 20
-232.85732134
  0
VERTEX
  8
0
 10
-78.51486795
 20
-233.55375255
  0
VERTEX
  8
0
 10
-76.10474825
 20
-234.23458535
  0
VERTEX
  8
0
 10
-73.67617851
 20
-234.89934255
  0
VERTEX
  8
0
 10
-71.23072329
 20
-235.54754692
  0
VERTEX
  8
0
 10
-68.76994714
 20
-236.17872126
  0
VERTEX
  8
0
 10
-66.29541461
 20
-236.79238834
  0
VERTEX
  8
0
 10
-63.80869025
 20
-237.38807097
  0
VERTEX
  8
0
 10
-61.31133862
 20
-237.96529193
  0
VERTEX
  8
0
 10
-58.80492426
 20
-238.52357400
  0
VERTEX
  8
0
 10
-56.29101174
 20
-239.06243998
  0
VERTEX
  8
0
 10
-53.77116560
 20
-239.58141265
  0
VERTEX
  8
0
 10
-51.24695039
 20
-240.08001480
  0
VERTEX
  8
0
 10
-48.71993068
 20
-240.55776921
  0
VERTEX
  8
0
 10
-46.19167100
 20
-241.01419869
  0
VERTEX
  8
0
 10
-43.66373592
 20
-241.44882600
  0
VERTEX
  8
0
 10
-41.13768999
 20
-241.86117395
  0
VERTEX
  8
0
 10
-38.61509775
 20
-242.25076532
  0
VERTEX
  8
0
 10
-36.09752377
 20
-242.61712290
  0
VERTEX
  8
0
 10
-33.58653259
 20
-242.95976947
  0
VERTEX
  8
0
 10
-31.08368877
 20
-243.27822782
  0
VERTEX
  8
0
 10
-28.59055685
 20
-243.57202075
  0
VERTEX
  8
0
 10
-26.10870140
 20
-243.84067104
  0
VERTEX
  8
0
 10
-23.63968697
 20
-244.08370147
  0
VERTEX
  8
0
 10
-21.18507810
 20
-244.30063484
  0
VERTEX
  8
0
 10
-18.74643935
 20
-244.49099393
  0
VERTEX
  8
0
 10
-16.32533527
 20
-244.65430154
  0
VERTEX
  8
0
 10
-13.92333042
 20
-244.79008044
  0
VERTEX
  8
0
 10
-11.54198935
 20
-244.89785343
  0
VERTEX
  8
0
 10
-9.18287661
 20
-244.97714330
  0
VERTEX
  8
0
 10
-6.84755675
 20
-245.02747283
  0
VERTEX
  8
0
 10
-4.53759433
 20
-245.04836481
  0
VERTEX
  8
0
 10
-2.25455389
 20
-245.03934203
  0
VERTEX
  8
0
 10
0.00000000
 20
-244.99992727
  0
VERTEX
  8
0
 10
2.25455389
 20
-245.03934203
  0
VERTEX
  8
0
 10
4.53759433
 20
-245.04836481
  0
VERTEX
  8
0
 10
6.84755675
 20
-245.02747283
  0
VERTEX
  8
0
 10
9.18287661
 20
-244.97714330
  0
VERTEX
  8
0
 10
11.54198935
 20
-244.89785343
  0
VERTEX
  8
0
 10
13.92333042
 20
-244.79008044
  0
VERTEX
  8
0
 10
16.32533527
 20
-244.65430154
  0
VERTEX
  8
0
 10
18.74643935
 20
-244.49099393
  0
VERTEX
  8
0
 10
21.18507810
 20
-244.30063484
  0
VERTEX
  8
0
 10
23.63968697
 20
-244.08370147
  0
VERTEX
  8
0
 10
26.10870140
 20
-243.84067104
  0
VERTEX
  8
0
 10
28.59055685
 20
-243.57202075
  0
VERTEX
  8
0
 10
31.08368877
 20
-243.27822782
  0
VERTEX
  8
0
 10
33.58653259
 20
-242.95976947
  0
VERTEX
  8
0
 10
36.09752377
 20
-242.61712290
  0
VERTEX
  8
0
 10
38.61509775
 20
-242.25076532
  0
VERTEX
  8
0
 10
41.13768999
 20
-241.86117395
  0
VERTEX
  8
0
 10
43.66373592
 20
-241.44882600
  0
VERTEX
  8
0
 10
46.19167100
 20
-241.01419869
  0
VERTEX
  8
0
 10
48.71993068
 20
-240.55776921
  0
VERTEX
  8
0
 10
51.24695039
 20
-240.08001480
  0
VERTEX
  8
0
 10
53.77116560
 20
-239.58141265
  0
VERTEX
  8
0
 10
56.29101174
 20
-239.06243998
  0
VERTEX
  8
0
 10
58.80492426
 20
-238.52357400
  0
VERTEX
  8
0
 10
61.31133862
 20
-237.96529193
  0
VERTEX
  8
0
 10
63.80869025
 20
-237.38807097
  0
VERTEX
  8
0
 10
66.29541461
 20
-236.79238834
  0
VERTEX
  8
0
 10
68.76994714
 20
-236.17872126
  0
VERTEX
  8
0
 10
71.23072329
 20
-235.54754692
  0
VERTEX
  8
0
 10
73.67617851
 20
-234.89934255
  0
VERTEX
  8
0
 10
76.10474825
 20
-234.23458535
  0
VERTEX
  8
0
 10
78.51486795
 20
-233.55375255
  0
VERTEX
  8
0
 10
80.90497305
 20
-232.85732134
  0
VERTEX
  8
0
 10
83.27349902
 20
-232.14576895
  0
VERTEX
  8
0
 10
85.61888129
 20
-231.41957258
  0
VERTEX
  8
0
 10
87.93955531
 20
-230.67920945
  0
VERTEX
  8
0
 10
90.23395653
 20
-229.92515676
  0
VERTEX
  8
0
 10
92.50052040
 20
-229.15789174
  0
VERTEX
  8
0
 10
94.73768236
 20
-228.37789159
  0
VERTEX
  8
0
 10
96.94387786
 20
-227.58563353
  0
VERTEX
  8
0
 10
99.11754235
 20
-226.78159476
  0
VERTEX
  8
0
 10
101.25711128
 20
-225.96625250
  0
VERTEX
  8
0
 10
103.36102009
 20
-225.14008397
  0
VERTEX
  8
0
 10
105.42770423
 20
-224.30356636
  0
VERTEX
  8
0
 10
107.45559916
 20
-223.45717690
  0
VERTEX
  8
0
 10
109.44314030
 20
-222.60139280
  0
VERTEX
  8
0
 10
111.38876312
 20
-221.73669127
  0
VERTEX
  8
0
 10
113.29090306
 20
-220.86354952
  0
VERTEX
  8
0
 10
115.14799557
 20
-219.98244476
  0
VERTEX
  8
0
 10
116.95847610
 20
-219.09385421
  0
VERTEX
  8
0
 10
118.72078009
 20
-218.19825507
  0
VERTEX
  8
0
 10
120.43334298
 20
-217.29612457
  0
VERTEX
  8
0
 10
122.09460024
 20
-216.38793990
  0
VERTEX
  8
0
 10
123.70298730
 20
-215.47417829
  0
VERTEX
  8
0
 10
125.25693961
 20
-214.55531695
  0
VERTEX
  8
0
 10
126.75489262
 20
-213.63183308
  0
VERTEX
  8
0
 10
128.19528178
 20
-212.70420390
  0
VERTEX
  8
0
 10
129.57654253
 20
-211.77290663
  0
VERTEX
  8
0
 10
130.89711033
 20
-210.83841847
  0
VERTEX
  8
0
 10
132.15542061
 20
-209.90121663
  0
VERTEX
  8
0
 10
133.34990883
 20
-208.96177833
  0
VERTEX
  8
0
 10
134.47901044
 20
-208.02058079
  0
VERTEX
  8
0
 10
135.54116087
 20
-207.07810120
  0
VERTEX
  8
0
 10
136.53479559
 20
-206.13481679
  0
VERTEX
  8
0
 10
137.13034440
 20
-201.74377639
  0
VERTEX
  8
0
 10
137.66346694
 20
-197.55010931
  0
VERTEX
  8
0
 10
138.13615792
 20
-193.54414569
  0
VERTEX
  8
0
 10
138.55041208
 20
-189.71621566
  0
VERTEX
  8
0
 10
138.90822413
 20
-186.05664936
  0
VERTEX
  8
0
 10
139.21158882
 20
-182.55577691
  0
VERTEX
  8
0
 10
139.46250086
 20
-179.20392845
  0
VERTEX
  8
0
 10
139.66295499
 20
-175.99143412
  0
VERTEX
  8
0
 10
139.81494593
 20
-172.90862404
  0
VERTEX
  8
0
 10
139.92046841
 20
-169.94582835
  0
VERTEX
  8
0
 10
139.98151715
 20
-167.09337718
  0
VERTEX
  8
0
 10
140.00008689
 20
-164.34160067
  0
VERTEX
  8
0
 10
139.97817236
 20
-161.68082894
  0
VERTEX
  8
0
 10
139.91776827
 20
-159.10139213
  0
VERTEX
  8
0
 10
139.82086936
 20
-156.59362038
  0
VERTEX
  8
0
 10
139.68947036
 20
-154.14784381
  0
VERTEX
  8
0
 10
139.52556599
 20
-151.75439256
  0
VERTEX
  8
0
 10
139.33115099
 20
-149.40359676
  0
VERTEX
  8
0
 10
139.10822007
 20
-147.08578655
  0
VERTEX
  8
0
 10
138.85876796
 20
-144.79129206
  0
VERTEX
  8
0
 10
138.58478941
 20
-142.51044341
  0
VERTEX
  8
0
 10
138.28827912
 20
-140.23357075
  0
VERTEX
  8
0
 10
137.97123183
 20
-137.95100421
  0
VERTEX
  8
0
 10
137.63564227
 20
-135.65307391
  0
VERTEX
  8
0
 10
136.91681524
 20
-130.97244260
  0
VERTEX
  8
0
 10
136.14775585
 20
-126.11431788
  0
VERTEX
  8
0
 10
135.34442192
 20
-121.00134081
  0
VERTEX
  8
0
 10
134.52277127
 20
-115.55615247
  0
VERTEX
  8
0
 10
134.09095715
 20
-112.73163973
  0
VERTEX
  8
0
 10
133.62277714
 20
-109.89546711
  0
VERTEX
  8
0
 10
133.12089021
 20
-107.04806251
  0
VERTEX
  8
0
 10
132.58795531
 20
-104.18985385
  0
VERTEX
  8
0
 10
132.02663139
 20
-101.32126905
  0
VERTEX
  8
0
 10
131.43957741
 20
-98.44273602
  0
VERTEX
  8
0
 10
130.82945232
 20
-95.55468267
  0
VERTEX
  8
0
 10
130.19891508
 20
-92.65753692
  0
VERTEX
  8
0
 10
128.88723995
 20
-86.83767987
  0
VERTEX
  8
0
 10
127.52582366
 20
-80.98658820
  0
VERTEX
  8
0
 10
124.73885414
 20
-69.20439426
  0
VERTEX
  8
0
 10
123.35584418
 20
-63.28013863
  0
VERTEX
  8
0
 10
122.00817961
 20
-57.33834165
  0
VERTEX
  8
0
 10
121.35424923
 20
-54.36193494
  0
VERTEX
  8
0
 10
120.71713206
 20
-51.38242664
  0
VERTEX
  8
0
 10
120.09948705
 20
-48.40024466
  0
VERTEX
  8
0
 10
119.50397316
 20
-45.41581692
  0
VERTEX
  8
0
 10
118.93324934
 20
-42.42957133
  0
VERTEX
  8
0
 10
118.38997455
 20
-39.44193580
  0
VERTEX
  8
0
 10
117.87680774
 20
-36.45333826
  0
VERTEX
  8
0
 10
117.39640786
 20
-33.46420661
  0
VERTEX
  8
0
 10
116.95143388
 20
-30.47496878
  0
VERTEX
  8
0
 10
116.54454474
 20
-27.48605267
  0
VERTEX
  8
0
 10
116.17839940
 20
-24.49788620
  0
VERTEX
  8
0
 10
115.85565682
 20
-21.51089729
  0
VERTEX
  8
0
 10
115.56353044
 20
-18.44739725
  0
VERTEX
  8
0
 10
115.28776350
 20
-15.23796727
  0
VERTEX
  8
0
 10
115.02880960
 20
-11.89544000
  0
VERTEX
  8
0
 10
114.78712236
 20
-8.43264812
  0
VERTEX
  8
0
 10
114.56315541
 20
-4.86242432
  0
VERTEX
  8
0
 10
114.35736234
 20
-1.19760125
  0
VERTEX
  8
0
 10
114.17019677
 20
2.54898840
  0
VERTEX
  8
0
 10
114.00211233
 20
6.36451196
  0
VERTEX
  8
0
 10
113.85356262
 20
10.23613676
  0
VERTEX
  8
0
 10
113.72500125
 20
14.15103011
  0
VERTEX
  8
0
 10
113.61688185
 20
18.09635936
  0
VERTEX
  8
0
 10
113.52965803
 20
22.05929182
  0
VERTEX
  8
0
 10
113.46378339
 20
26.02699481
  0
VERTEX
  8
0
 10
113.41971157
 20
29.98663567
  0
VERTEX
  8
0
 10
113.39789616
 20
33.92538172
  0
VERTEX
  8
0
 10
113.39879078
 20
37.83040029
  0
VERTEX
  8
0
 10
113.42284906
 20
41.68885870
  0
VERTEX
  8
0
 10
113.47052459
 20
45.48792427
  0
VERTEX
  8
0
 10
113.54227100
 20
49.21476434
  0
VERTEX
  8
0
 10
113.63854191
 20
52.85654623
  0
VERTEX
  8
0
 10
113.75979092
 20
56.40043727
  0
VERTEX
  8
0
 10
113.90647165
 20
59.83360477
  0
VERTEX
  8
0
 10
114.07903771
 20
63.14321608
  0
VERTEX
  8
0
 10
114.27794273
 20
66.31643850
  0
VERTEX
  8
0
 10
114.50364030
 20
69.34043937
  0
VERTEX
  8
0
 10
114.75658405
 20
72.20238602
  0
VERTEX
  8
0
 10
115.03722760
 20
74.88944576
  0
VERTEX
  8
0
 10
115.34602455
 20
77.38878593
  0
VERTEX
  8
0
 10
115.68342852
 20
79.68757386
  0
VERTEX
  8
0
 10
115.86299989
 20
80.75775051
  0
VERTEX
  8
0
 10
116.04989313
 20
81.77297686
  0
VERTEX
  8
0
 10
116.24416492
 20
82.73164880
  0
VERTEX
  8
0
 10
116.44587198
 20
83.63216226
  0
VERTEX
  8
0
 10
116.65507101
 20
84.47291315
  0
VERTEX
  8
0
 10
116.87181870
 20
85.25229739
  0
VERTEX
  8
0
 10
115.66324332
 20
85.82789487
  0
VERTEX
  8
0
 10
114.44868768
 20
86.35596044
  0
VERTEX
  8
0
 10
113.22669673
 20
86.83959147
  0
VERTEX
  8
0
 10
111.99581544
 20
87.28188535
  0
VERTEX
  8
0
 10
110.75458876
 20
87.68593944
  0
VERTEX
  8
0
 10
109.50156165
 20
88.05485114
  0
VERTEX
  8
0
 10
108.23527907
 20
88.39171781
  0
VERTEX
  8
0
 10
106.95428598
 20
88.69963685
  0
VERTEX
  8
0
 10
105.65712734
 20
88.98170562
  0
VERTEX
  8
0
 10
104.34234810
 20
89.24102151
  0
VERTEX
  8
0
 10
103.00849323
 20
89.48068190
  0
VERTEX
  8
0
 10
101.65410768
 20
89.70378416
  0
VERTEX
  8
0
 10
98.87792437
 20
90.11270384
  0
VERTEX
  8
0
 10
96.00215784
 20
90.49255958
  0
VERTEX
  8
0
 10
89.90531381
 20
91.26419537
  0
VERTEX
  8
0
 10
86.66095564
 20
91.70553349
  0
VERTEX
  8
0
 10
84.98469986
 20
91.95092343
  0
VERTEX
  8
0
 10
83.27045291
 20
92.21692381
  0
VERTEX
  8
0
 10
81.51675974
 20
92.50663199
  0
VERTEX
  8
0
 10
79.72216530
 20
92.82314536
  0
VERTEX
  8
0
 10
77.88521456
 20
93.16956129
  0
VERTEX
  8
0
 10
76.00445248
 20
93.54897718
  0
VERTEX
  8
0
 10
74.07842400
 20
93.96449038
  0
VERTEX
  8
0
 10
72.10567410
 20
94.41919830
  0
VERTEX
  8
0
 10
70.08474772
 20
94.91619829
  0
VERTEX
  8
0
 10
68.01418984
 20
95.45858775
  0
VERTEX
  8
0
 10
66.39482536
 20
96.13107294
  0
VERTEX
  8
0
 10
64.61770484
 20
96.89126291
  0
VERTEX
  8
0
 10
62.70401705
 20
97.74388324
  0
VERTEX
  8
0
 10
60.67495076
 20
98.69365950
  0
VERTEX
  8
0
 10
58.55169475
 20
99.74531727
  0
VERTEX
  8
0
 10
57.46136710
 20
100.31082846
  0
VERTEX
  8
0
 10
56.35543780
 20
100.90358212
  0
VERTEX
  8
0
 10
55.23655547
 20
101.52416895
  0
VERTEX
  8
0
 10
54.10736868
 20
102.17317964
  0
VERTEX
  8
0
 10
52.97052605
 20
102.85120489
  0
VERTEX
  8
0
 10
51.82867617
 20
103.55883540
  0
VERTEX
  8
0
 10
50.68446764
 20
104.29666186
  0
VERTEX
  8
0
 10
49.54054904
 20
105.06527497
  0
VERTEX
  8
0
 10
48.39956899
 20
105.86526543
  0
VERTEX
  8
0
 10
47.26417607
 20
106.69722393
  0
VERTEX
  8
0
 10
46.13701888
 20
107.56174118
  0
VERTEX
  8
0
 10
45.02074603
 20
108.45940787
  0
VERTEX
  8
0
 10
43.91800610
 20
109.39081469
  0
VERTEX
  8
0
 10
42.83144769
 20
110.35655234
  0
VERTEX
  8
0
 10
41.76371941
 20
111.35721153
  0
VERTEX
  8
0
 10
40.71746984
 20
112.39338294
  0
VERTEX
  8
0
 10
39.69534759
 20
113.46565728
  0
VERTEX
  8
0
 10
38.70000125
 20
114.57462523
  0
VERTEX
  8
0
 10
37.73407942
 20
115.72087751
  0
VERTEX
  8
0
 10
36.80023069
 20
116.90500480
  0
VERTEX
  8
0
 10
35.90110366
 20
118.12759780
  0
VERTEX
  8
0
 10
35.03934694
 20
119.38924722
  0
VERTEX
  8
0
 10
34.24380357
 20
120.63067411
  0
VERTEX
  8
0
 10
33.48181784
 20
121.88189144
  0
VERTEX
  8
0
 10
32.75313826
 20
123.14148623
  0
VERTEX
  8
0
 10
32.05751336
 20
124.40804551
  0
VERTEX
  8
0
 10
31.39469166
 20
125.68015631
  0
VERTEX
  8
0
 10
30.76442169
 20
126.95640565
  0
VERTEX
  8
0
 10
30.16645197
 20
128.23538056
  0
VERTEX
  8
0
 10
29.60053104
 20
129.51566808
  0
VERTEX
  8
0
 10
29.06640740
 20
130.79585522
  0
VERTEX
  8
0
 10
28.56382959
 20
132.07452902
  0
VERTEX
  8
0
 10
28.09254613
 20
133.35027649
  0
VERTEX
  8
0
 10
27.65230555
 20
134.62168468
  0
VERTEX
  8
0
 10
27.24285636
 20
135.88734060
  0
VERTEX
  8
0
 10
26.86394710
 20
137.14583128
  0
VERTEX
  8
0
 10
26.51532629
 20
138.39574375
  0
VERTEX
  8
0
 10
26.19674245
 20
139.63566504
  0
VERTEX
  8
0
 10
25.90794411
 20
140.86418218
  0
VERTEX
  8
0
 10
25.64867979
 20
142.07988218
  0
VERTEX
  8
0
 10
25.41869802
 20
143.28135209
  0
VERTEX
  8
0
 10
25.21774732
 20
144.46717892
  0
VERTEX
  8
0
 10
25.04557621
 20
145.63594971
  0
VERTEX
  8
0
 10
24.90193323
 20
146.78625147
  0
VERTEX
  8
0
 10
24.78656689
 20
147.91667125
  0
VERTEX
  8
0
 10
24.69922572
 20
149.02579606
  0
VERTEX
  8
0
 10
24.63965824
 20
150.11221293
  0
VERTEX
  8
0
 10
24.60761298
 20
151.17450889
  0
VERTEX
  8
0
 10
24.60283847
 20
152.21127097
  0
VERTEX
  8
0
 10
24.62508322
 20
153.22108620
  0
VERTEX
  8
0
 10
24.67409576
 20
154.20254159
  0
VERTEX
  8
0
 10
24.74962462
 20
155.15422419
  0
VERTEX
  8
0
 10
24.85141831
 20
156.07472101
  0
VERTEX
  8
0
 10
24.97922538
 20
156.96261908
  0
VERTEX
  8
0
 10
25.32291345
 20
159.01976076
  0
VERTEX
  8
0
 10
25.68526776
 20
161.03857162
  0
VERTEX
  8
0
 10
26.06923562
 20
163.01741359
  0
VERTEX
  8
0
 10
26.47776432
 20
164.95464861
  0
VERTEX
  8
0
 10
26.91380116
 20
166.84863861
  0
VERTEX
  8
0
 10
27.38029345
 20
168.69774552
  0
VERTEX
  8
0
 10
27.88018849
 20
170.50033126
  0
VERTEX
  8
0
 10
28.41643358
 20
172.25475778
  0
VERTEX
  8
0
 10
28.99197601
 20
173.95938700
  0
VERTEX
  8
0
 10
29.60976310
 20
175.61258086
  0
VERTEX
  8
0
 10
29.93541942
 20
176.41937763
  0
VERTEX
  8
0
 10
30.27274214
 20
177.21270127
  0
VERTEX
  8
0
 10
30.62209967
 20
177.99234705
  0
VERTEX
  8
0
 10
30.98386043
 20
178.75811019
  0
VERTEX
  8
0
 10
31.35839283
 20
179.50978593
  0
VERTEX
  8
0
 10
31.74606528
 20
180.24716953
  0
VERTEX
  8
0
 10
32.14724620
 20
180.97005621
  0
VERTEX
  8
0
 10
32.56230399
 20
181.67824122
  0
VERTEX
  8
0
 10
32.99160707
 20
182.37151980
  0
VERTEX
  8
0
 10
33.43552385
 20
183.04968720
  0
VERTEX
  8
0
 10
33.89442274
 20
183.71253866
  0
VERTEX
  8
0
 10
34.36867217
 20
184.35986940
  0
VERTEX
  8
0
 10
34.54264642
 20
185.28949168
  0
VERTEX
  8
0
 10
34.71591290
 20
186.34640001
  0
VERTEX
  8
0
 10
34.88818970
 20
187.52073685
  0
VERTEX
  8
0
 10
35.05919493
 20
188.80264467
  0
VERTEX
  8
0
 10
35.39626309
 20
191.64974316
  0
VERTEX
  8
0
 10
35.72486219
 20
194.80883525
  0
VERTEX
  8
0
 10
36.04273705
 20
198.20106070
  0
VERTEX
  8
0
 10
36.34763251
 20
201.74755927
  0
VERTEX
  8
0
 10
36.63729339
 20
205.36947074
  0
VERTEX
  8
0
 10
36.90946450
 20
208.98793487
  0
VERTEX
  8
0
 10
37.39231672
 20
215.89908018
  0
VERTEX
  8
0
 10
37.77814777
 20
221.85011332
  0
VERTEX
  8
0
 10
38.18658067
 20
228.34831565
  0
VERTEX
  8
0
 10
38.20866220
 20
228.82595779
  0
VERTEX
  8
0
 10
38.19861513
 20
229.28893807
  0
VERTEX
  8
0
 10
38.15795583
 20
229.73745690
  0
VERTEX
  8
0
 10
38.08820066
 20
230.17171470
  0
VERTEX
  8
0
 10
37.99086599
 20
230.59191189
  0
VERTEX
  8
0
 10
37.86746818
 20
230.99824887
  0
VERTEX
  8
0
 10
37.71952358
 20
231.39092606
  0
VERTEX
  8
0
 10
37.54854857
 20
231.77014387
  0
VERTEX
  8
0
 10
37.35605951
 20
232.13610271
  0
VERTEX
  8
0
 10
37.14357275
 20
232.48900300
  0
VERTEX
  8
0
 10
36.91260466
 20
232.82904514
  0
VERTEX
  8
0
 10
36.66467161
 20
233.15642956
  0
VERTEX
  8
0
 10
36.40128994
 20
233.47135667
  0
VERTEX
  8
0
 10
36.12397604
 20
233.77402687
  0
VERTEX
  8
0
 10
35.83424625
 20
234.06464058
  0
VERTEX
  8
0
 10
35.53361695
 20
234.34339822
  0
VERTEX
  8
0
 10
35.35697022
 20
234.54810699
  0
VERTEX
  8
0
 10
35.13182089
 20
234.77813489
  0
VERTEX
  8
0
 10
34.85699484
 20
235.03177779
  0
VERTEX
  8
0
 10
34.53131796
 20
235.30733158
  0
VERTEX
  8
0
 10
34.15361612
 20
235.60309213
  0
VERTEX
  8
0
 10
33.72271521
 20
235.91735532
  0
VERTEX
  8
0
 10
33.23744110
 20
236.24841704
  0
VERTEX
  8
0
 10
32.69661967
 20
236.59457316
  0
VERTEX
  8
0
 10
32.09907681
 20
236.95411956
  0
VERTEX
  8
0
 10
31.44363839
 20
237.32535213
  0
VERTEX
  8
0
 10
30.72913030
 20
237.70656673
  0
VERTEX
  8
0
 10
29.95437842
 20
238.09605925
  0
VERTEX
  8
0
 10
29.11820862
 20
238.49212558
  0
VERTEX
  8
0
 10
28.21944679
 20
238.89306158
  0
VERTEX
  8
0
 10
27.25691881
 20
239.29716314
  0
VERTEX
  8
0
 10
26.22945056
 20
239.70272614
  0
VERTEX
  8
0
 10
25.13586792
 20
240.10804645
  0
VERTEX
  8
0
 10
23.97499676
 20
240.51141997
  0
VERTEX
  8
0
 10
22.74566298
 20
240.91114256
  0
VERTEX
  8
0
 10
21.44669244
 20
241.30551010
  0
VERTEX
  8
0
 10
20.07691104
 20
241.69281848
  0
VERTEX
  8
0
 10
18.63514464
 20
242.07136357
  0
VERTEX
  8
0
 10
17.12021914
 20
242.43944126
  0
VERTEX
  8
0
 10
15.53096041
 20
242.79534742
  0
VERTEX
  8
0
 10
13.86619433
 20
243.13737793
  0
VERTEX
  8
0
 10
12.12474678
 20
243.46382868
  0
VERTEX
  8
0
 10
10.30544365
 20
243.77299554
  0
VERTEX
  8
0
 10
8.40711081
 20
244.06317438
  0
VERTEX
  8
0
 10
6.42857415
 20
244.33266110
  0
VERTEX
  8
0
 10
4.36865954
 20
244.57975157
  0
VERTEX
  8
0
 10
2.22619286
 20
244.80274167
  0
VERTEX
  8
0
 10
0.00000000
 20
244.99992727
  0
SEQEND
  0
ENDSEC
  0
EOF
