  0
SECTION
  2
HEADER
  9
$ACADVER
  1
AC1021
  9
$ACADMAINTVER
 70
    25
  9
$DWGCODEPAGE
  3
ANSI_1251
  9
$INSBASE
 10
0.0
 20
0.0
 30
0.0
  9
$EXTMIN
 10
-8.26255
 20
-12.71692
 30
0.0
  9
$EXTMAX
 10
67.52135
 20
22.92075
 30
0.0
  9
$LIMMIN
 10
0.0
 20
0.0
  9
$LIMMAX
 10
12.0
 20
9.0
  9
$ORTHOMODE
 70
     0
  9
$REGENMODE
 70
     1
  9
$FILLMODE
 70
     1
  9
$QTEXTMODE
 70
     0
  9
$MIRRTEXT
 70
     1
  9
$LTSCALE
 40
1.0
  9
$ATTMODE
 70
     1
  9
$TEXTSIZE
 40
0.2
  9
$TRACEWID
 40
0.05
  9
$TEXTSTYLE
  7
Standard
  9
$CLAYER
  8
0
  9
$CELTYPE
  6
ByLayer
  9
$CECOLOR
 62
   256
  9
$CELTSCALE
 40
1.0
  9
$DISPSILH
 70
     0
  9
$DIMSCALE
 40
1.0
  9
$DIMASZ
 40
0.18
  9
$DIMEXO
 40
0.0625
  9
$DIMDLI
 40
0.38
  9
$DIMRND
 40
0.0
  9
$DIMDLE
 40
0.0
  9
$DIMEXE
 40
0.18
  9
$DIMTP
 40
0.0
  9
$DIMTM
 40
0.0
  9
$DIMTXT
 40
0.18
  9
$DIMCEN
 40
0.09
  9
$DIMTSZ
 40
0.0
  9
$DIMTOL
 70
     0
  9
$DIMLIM
 70
     0
  9
$DIMTIH
 70
     1
  9
$DIMTOH
 70
     1
  9
$DIMSE1
 70
     0
  9
$DIMSE2
 70
     0
  9
$DIMTAD
 70
     0
  9
$DIMZIN
 70
     0
  9
$DIMBLK
  1

  9
$DIMASO
 70
     1
  9
$DIMSHO
 70
     1
  9
$DIMPOST
  1

  9
$DIMAPOST
  1

  9
$DIMALT
 70
     0
  9
$DIMALTD
 70
     2
  9
$DIMALTF
 40
25.4
  9
$DIMLFAC
 40
1.0
  9
$DIMTOFL
 70
     0
  9
$DIMTVP
 40
0.0
  9
$DIMTIX
 70
     0
  9
$DIMSOXD
 70
     0
  9
$DIMSAH
 70
     0
  9
$DIMBLK1
  1

  9
$DIMBLK2
  1

  9
$DIMSTYLE
  2
Standard
  9
$DIMCLRD
 70
     0
  9
$DIMCLRE
 70
     0
  9
$DIMCLRT
 70
     0
  9
$DIMTFAC
 40
1.0
  9
$DIMGAP
 40
0.09
  9
$DIMJUST
 70
     0
  9
$DIMSD1
 70
     0
  9
$DIMSD2
 70
     0
  9
$DIMTOLJ
 70
     1
  9
$DIMTZIN
 70
     0
  9
$DIMALTZ
 70
     0
  9
$DIMALTTZ
 70
     0
  9
$DIMUPT
 70
     0
  9
$DIMDEC
 70
     4
  9
$DIMTDEC
 70
     4
  9
$DIMALTU
 70
     2
  9
$DIMALTTD
 70
     2
  9
$DIMTXSTY
  7
Standard
  9
$DIMAUNIT
 70
     0
  9
$DIMADEC
 70
     0
  9
$DIMALTRND
 40
0.0
  9
$DIMAZIN
 70
     0
  9
$DIMDSEP
 70
    46
  9
$DIMATFIT
 70
     3
  9
$DIMFRAC
 70
     0
  9
$DIMLDRBLK
  1

  9
$DIMLUNIT
 70
     2
  9
$DIMLWD
 70
    -2
  9
$DIMLWE
 70
    -2
  9
$DIMTMOVE
 70
     0
  9
$DIMFXL
 40
1.0
  9
$DIMFXLON
 70
     0
  9
$DIMJOGANG
 40
0.7853981633974483
  9
$DIMTFILL
 70
     0
  9
$DIMTFILLCLR
 70
     0
  9
$DIMARCSYM
 70
     0
  9
$DIMLTYPE
  6

  9
$DIMLTEX1
  6

  9
$DIMLTEX2
  6

  9
$LUNITS
 70
     2
  9
$LUPREC
 70
     4
  9
$SKETCHINC
 40
0.1
  9
$FILLETRAD
 40
0.5
  9
$AUNITS
 70
     0
  9
$AUPREC
 70
     0
  9
$MENU
  1
.
  9
$ELEVATION
 40
0.0
  9
$PELEVATION
 40
0.0
  9
$THICKNESS
 40
0.0
  9
$LIMCHECK
 70
     0
  9
$CHAMFERA
 40
0.0
  9
$CHAMFERB
 40
0.0
  9
$CHAMFERC
 40
0.0
  9
$CHAMFERD
 40
0.0
  9
$SKPOLY
 70
     0
  9
$TDCREATE
 40
2457306.791503275
  9
$TDUCREATE
 40
2457306.541503275
  9
$TDUPDATE
 40
2457306.79150478
  9
$TDUUPDATE
 40
2457306.54150478
  9
$TDINDWG
 40
0.0000000116
  9
$TDUSRTIMER
 40
0.0000000116
  9
$USRTIMER
 70
     1
  9
$ANGBASE
 50
0.0
  9
$ANGDIR
 70
     0
  9
$PDMODE
 70
     0
  9
$PDSIZE
 40
0.0
  9
$PLINEWID
 40
0.0
  9
$SPLFRAME
 70
     0
  9
$SPLINETYPE
 70
     6
  9
$SPLINESEGS
 70
     8
  9
$HANDSEED
  5
BE
  9
$SURFTAB1
 70
     6
  9
$SURFTAB2
 70
     6
  9
$SURFTYPE
 70
     6
  9
$SURFU
 70
     6
  9
$SURFV
 70
     6
  9
$UCSBASE
  2

  9
$UCSNAME
  2

  9
$UCSORG
 10
0.0
 20
0.0
 30
0.0
  9
$UCSXDIR
 10
1.0
 20
0.0
 30
0.0
  9
$UCSYDIR
 10
0.0
 20
1.0
 30
0.0
  9
$UCSORTHOREF
  2

  9
$UCSORTHOVIEW
 70
     0
  9
$UCSORGTOP
 10
0.0
 20
0.0
 30
0.0
  9
$UCSORGBOTTOM
 10
0.0
 20
0.0
 30
0.0
  9
$UCSORGLEFT
 10
0.0
 20
0.0
 30
0.0
  9
$UCSORGRIGHT
 10
0.0
 20
0.0
 30
0.0
  9
$UCSORGFRONT
 10
0.0
 20
0.0
 30
0.0
  9
$UCSORGBACK
 10
0.0
 20
0.0
 30
0.0
  9
$PUCSBASE
  2

  9
$PUCSNAME
  2

  9
$PUCSORG
 10
0.0
 20
0.0
 30
0.0
  9
$PUCSXDIR
 10
1.0
 20
0.0
 30
0.0
  9
$PUCSYDIR
 10
0.0
 20
1.0
 30
0.0
  9
$PUCSORTHOREF
  2

  9
$PUCSORTHOVIEW
 70
     0
  9
$PUCSORGTOP
 10
0.0
 20
0.0
 30
0.0
  9
$PUCSORGBOTTOM
 10
0.0
 20
0.0
 30
0.0
  9
$PUCSORGLEFT
 10
0.0
 20
0.0
 30
0.0
  9
$PUCSORGRIGHT
 10
0.0
 20
0.0
 30
0.0
  9
$PUCSORGFRONT
 10
0.0
 20
0.0
 30
0.0
  9
$PUCSORGBACK
 10
0.0
 20
0.0
 30
0.0
  9
$USERI1
 70
     0
  9
$USERI2
 70
     0
  9
$USERI3
 70
     0
  9
$USERI4
 70
     0
  9
$USERI5
 70
     0
  9
$USERR1
 40
0.0
  9
$USERR2
 40
0.0
  9
$USERR3
 40
0.0
  9
$USERR4
 40
0.0
  9
$USERR5
 40
0.0
  9
$WORLDVIEW
 70
     1
  9
$SHADEDGE
 70
     3
  9
$SHADEDIF
 70
    70
  9
$TILEMODE
 70
     1
  9
$MAXACTVP
 70
    64
  9
$PINSBASE
 10
0.0
 20
0.0
 30
0.0
  9
$PLIMCHECK
 70
     0
  9
$PEXTMIN
 10
1.000000000000000E+20
 20
1.000000000000000E+20
 30
1.000000000000000E+20
  9
$PEXTMAX
 10
-1.000000000000000E+20
 20
-1.000000000000000E+20
 30
-1.000000000000000E+20
  9
$PLIMMIN
 10
0.0
 20
0.0
  9
$PLIMMAX
 10
12.0
 20
9.0
  9
$UNITMODE
 70
     0
  9
$VISRETAIN
 70
     1
  9
$PLINEGEN
 70
     0
  9
$PSLTSCALE
 70
     1
  9
$TREEDEPTH
 70
  3020
  9
$CMLSTYLE
  2
Standard
  9
$CMLJUST
 70
     0
  9
$CMLSCALE
 40
1.0
  9
$PROXYGRAPHICS
 70
     1
  9
$MEASUREMENT
 70
     0
  9
$CELWEIGHT
370
    -1
  9
$ENDCAPS
280
     0
  9
$JOINSTYLE
280
     0
  9
$LWDISPLAY
290
     0
  9
$INSUNITS
 70
     5
  9
$HYPERLINKBASE
  1

  9
$STYLESHEET
  1

  9
$XEDIT
290
     1
  9
$CEPSNTYPE
380
     0
  9
$PSTYLEMODE
290
     1
  9
$FINGERPRINTGUID
  2
{E2B2A042-2160-4940-AF57-9BE7A8A64AC7}
  9
$VERSIONGUID
  2
{FAEB1C32-E019-11D5-929B-00C0DF256EC4}
  9
$EXTNAMES
290
     1
  9
$PSVPSCALE
 40
0.0
  9
$OLESTARTUP
290
     0
  9
$SORTENTS
280
   127
  9
$INDEXCTL
280
     0
  9
$HIDETEXT
280
     1
  9
$XCLIPFRAME
290
     0
  9
$HALOGAP
280
     0
  9
$OBSCOLOR
 70
   257
  9
$OBSLTYPE
280
     0
  9
$INTERSECTIONDISPLAY
280
     0
  9
$INTERSECTIONCOLOR
 70
   257
  9
$DIMASSOC
280
     2
  9
$PROJECTNAME
  1

  9
$CAMERADISPLAY
290
     0
  9
$LENSLENGTH
 40
50.0
  9
$CAMERAHEIGHT
 40
0.0
  9
$STEPSPERSEC
 40
2.0
  9
$STEPSIZE
 40
6.0
  9
$3DDWFPREC
 40
2.0
  9
$PSOLWIDTH
 40
0.25
  9
$PSOLHEIGHT
 40
4.0
  9
$LOFTANG1
 40
1.570796326794897
  9
$LOFTANG2
 40
1.570796326794897
  9
$LOFTMAG1
 40
0.0
  9
$LOFTMAG2
 40
0.0
  9
$LOFTPARAM
 70
     7
  9
$LOFTNORMALS
280
     1
  9
$LATITUDE
 40
37.795
  9
$LONGITUDE
 40
-122.394
  9
$NORTHDIRECTION
 40
0.0
  9
$TIMEZONE
 70
 -8000
  9
$LIGHTGLYPHDISPLAY
280
     1
  9
$TILEMODELIGHTSYNCH
280
     1
  9
$CMATERIAL
347
44
  9
$SOLIDHIST
280
     0
  9
$SHOWHIST
280
     1
  9
$DWFFRAME
280
     2
  9
$DGNFRAME
280
     2
  9
$REALWORLDSCALE
290
     1
  9
$INTERFERECOLOR
 62
   256
  9
$CSHADOW
280
     0
  9
$SHADOWPLANELOCATION
 40
0.0
  0
ENDSEC
  0
SECTION
  2
CLASSES
  0
CLASS
  1
ACDBDICTIONARYWDFLT
  2
AcDbDictionaryWithDefault
  3
ObjectDBX Classes
 90
        0
 91
        4
280
     0
281
     0
  0
CLASS
  1
VISUALSTYLE
  2
AcDbVisualStyle
  3
ObjectDBX Classes
 90
     4095
 91
        4
280
     0
281
     0
  0
CLASS
  1
MATERIAL
  2
AcDbMaterial
  3
ObjectDBX Classes
 90
     1153
 91
        4
280
     0
281
     0
  0
CLASS
  1
SCALE
  2
AcDbScale
  3
ObjectDBX Classes
 90
     1153
 91
        4
280
     0
281
     0
  0
CLASS
  1
TABLESTYLE
  2
AcDbTableStyle
  3
ObjectDBX Classes
 90
     4095
 91
        4
280
     0
281
     0
  0
CLASS
  1
MLEADERSTYLE
  2
AcDbMLeaderStyle
  3
ACDB_MLEADERSTYLE_CLASS
 90
     4095
 91
        4
280
     0
281
     0
  0
CLASS
  1
SUN
  2
AcDbSun
  3
SCENEOE
 90
     1153
 91
        4
280
     0
281
     0
  0
CLASS
  1
DICTIONARYVAR
  2
AcDbDictionaryVar
  3
ObjectDBX Classes
 90
        0
 91
        4
280
     0
281
     0
  0
CLASS
  1
CELLSTYLEMAP
  2
AcDbCellStyleMap
  3
ObjectDBX Classes
 90
     1152
 91
        4
280
     0
281
     0
  0
ENDSEC
  0
SECTION
  2
TABLES
  0
TABLE
  2
VPORT
  5
8
330
0
100
AcDbSymbolTable
 70
     1
  0
VPORT
  5
29
330
8
100
AcDbSymbolTableRecord
100
AcDbViewportTableRecord
  2
*Active
 70
     0
 10
0.0
 20
0.0
 11
1.0
 21
1.0
 12
10.42990654205607
 22
4.5
 13
0.0
 23
0.0
 14
0.5
 24
0.5
 15
0.5
 25
0.5
 16
0.0
 26
0.0
 36
1.0
 17
0.0
 27
0.0
 37
0.0
 40
9.0
 41
1.972972972850329
 42
50.0
 43
0.0
 44
0.0
 50
0.0
 51
0.0
 71
     0
 72
   100
 73
     1
 74
     3
 75
     0
 76
     0
 77
     0
 78
     0
281
     0
 65
     1
110
0.0
120
0.0
130
0.0
111
1.0
121
0.0
131
0.0
112
0.0
122
1.0
132
0.0
 79
     0
146
0.0
 60
     3
 61
     5
292
     1
282
     1
141
0.0
142
0.0
 63
   250
361
6D
  0
ENDTAB
  0
TABLE
  2
LTYPE
  5
5
330
0
100
AcDbSymbolTable
 70
     1
  0
LTYPE
  5
14
330
5
100
AcDbSymbolTableRecord
100
AcDbLinetypeTableRecord
  2
ByBlock
 70
     0
  3

 72
    65
 73
     0
 40
0.0
  0
LTYPE
  5
15
330
5
100
AcDbSymbolTableRecord
100
AcDbLinetypeTableRecord
  2
ByLayer
 70
     0
  3

 72
    65
 73
     0
 40
0.0
  0
LTYPE
  5
16
330
5
100
AcDbSymbolTableRecord
100
AcDbLinetypeTableRecord
  2
Continuous
 70
     0
  3
Solid line
 72
    65
 73
     0
 40
0.0
  0
ENDTAB
  0
TABLE
  2
LAYER
  5
2
330
0
100
AcDbSymbolTable
 70
     2
  0
LAYER
  5
10
330
2
100
AcDbSymbolTableRecord
100
AcDbLayerTableRecord
  2
0
 70
     0
 62
     7
  6
Continuous
370
    -3
390
F
347
46
  0
LAYER
  5
6F
330
2
100
AcDbSymbolTableRecord
100
AcDbLayerTableRecord
  2
layer 1
 70
     0
 62
     7
  6
Continuous
370
    -3
390
F
347
46
  0
ENDTAB
  0
TABLE
  2
STYLE
  5
3
330
0
100
AcDbSymbolTable
 70
     1
  0
STYLE
  5
11
330
3
100
AcDbSymbolTableRecord
100
AcDbTextStyleTableRecord
  2
Standard
 70
     0
 40
0.0
 41
1.0
 50
0.0
 71
     0
 42
0.2
  3
txt
  4

  0
ENDTAB
  0
TABLE
  2
VIEW
  5
6
330
0
100
AcDbSymbolTable
 70
     0
  0
ENDTAB
  0
TABLE
  2
UCS
  5
7
330
0
100
AcDbSymbolTable
 70
     0
  0
ENDTAB
  0
TABLE
  2
APPID
  5
9
330
0
100
AcDbSymbolTable
 70
     3
  0
APPID
  5
12
330
9
100
AcDbSymbolTableRecord
100
AcDbRegAppTableRecord
  2
ACAD
 70
     0
  0
APPID
  5
6E
330
9
100
AcDbSymbolTableRecord
100
AcDbRegAppTableRecord
  2
ODA
 70
     0
  0
APPID
  5
B6
330
9
100
AcDbSymbolTableRecord
100
AcDbRegAppTableRecord
  2
ACAD_MLEADERVER
 70
     0
  0
ENDTAB
  0
TABLE
  2
DIMSTYLE
  5
A
330
0
100
AcDbSymbolTable
 70
     1
100
AcDbDimStyleTable
  0
DIMSTYLE
105
27
330
A
100
AcDbSymbolTableRecord
100
AcDbDimStyleTableRecord
  2
Standard
 70
     0
178
     0
340
11
  0
ENDTAB
  0
TABLE
  2
BLOCK_RECORD
  5
1
330
0
100
AcDbSymbolTable
 70
     1
  0
BLOCK_RECORD
  5
1F
330
1
100
AcDbSymbolTableRecord
100
AcDbBlockTableRecord
  2
*Model_Space
340
22
 70
     0
280
     1
281
     0
  0
BLOCK_RECORD
  5
1B
330
1
100
AcDbSymbolTableRecord
100
AcDbBlockTableRecord
  2
*Paper_Space
340
1E
 70
     0
280
     1
281
     0
  0
BLOCK_RECORD
  5
23
330
1
100
AcDbSymbolTableRecord
100
AcDbBlockTableRecord
  2
*Paper_Space0
340
26
 70
     0
280
     1
281
     0
  0
ENDTAB
  0
ENDSEC
  0
SECTION
  2
BLOCKS
  0
BLOCK
  5
20
330
1F
100
AcDbEntity
  8
0
100
AcDbBlockBegin
  2
*Model_Space
 70
     0
 10
0.0
 20
0.0
 30
0.0
  3
*Model_Space
  1

  0
ENDBLK
  5
21
330
1F
100
AcDbEntity
  8
0
100
AcDbBlockEnd
  0
BLOCK
  5
1C
330
1B
100
AcDbEntity
 67
     1
  8
0
100
AcDbBlockBegin
  2
*Paper_Space
 70
     0
 10
0.0
 20
0.0
 30
0.0
  3
*Paper_Space
  1

  0
ENDBLK
  5
1D
330
1B
100
AcDbEntity
 67
     1
  8
0
100
AcDbBlockEnd
  0
BLOCK
  5
24
330
23
100
AcDbEntity
  8
0
100
AcDbBlockBegin
  2
*Paper_Space0
 70
     0
 10
0.0
 20
0.0
 30
0.0
  3
*Paper_Space0
  1

  0
ENDBLK
  5
25
330
23
100
AcDbEntity
  8
0
100
AcDbBlockEnd
  0
ENDSEC
  0
SECTION
  2
ENTITIES
  0
SPLINE
  5
70
330
1F
100
AcDbEntity
  8
layer 1
 62
     5
370
     0
100
AcDbSpline
210
0.0
220
0.0
230
1.0
 70
    11
 71
     3
 72
   196
 73
   192
 74
     0
 42
0.000000001
 43
0.0000000001
 40
0.0
 40
0.0
 40
0.0
 40
0.0
 40
0.0204081632653061
 40
0.0204081632653061
 40
0.0204081632653061
 40
0.0204081632653061
 40
0.0408163265306122
 40
0.0408163265306122
 40
0.0408163265306122
 40
0.0408163265306122
 40
0.0612244897959184
 40
0.0612244897959184
 40
0.0612244897959184
 40
0.0612244897959184
 40
0.0816326530612245
 40
0.0816326530612245
 40
0.0816326530612245
 40
0.0816326530612245
 40
0.1020408163265306
 40
0.1020408163265306
 40
0.1020408163265306
 40
0.1020408163265306
 40
0.1224489795918367
 40
0.1224489795918367
 40
0.1224489795918367
 40
0.1224489795918367
 40
0.1428571428571428
 40
0.1428571428571428
 40
0.1428571428571428
 40
0.1428571428571428
 40
0.163265306122449
 40
0.163265306122449
 40
0.163265306122449
 40
0.163265306122449
 40
0.1836734693877551
 40
0.1836734693877551
 40
0.1836734693877551
 40
0.1836734693877551
 40
0.2040816326530612
 40
0.2040816326530612
 40
0.2040816326530612
 40
0.2040816326530612
 40
0.2244897959183673
 40
0.2244897959183673
 40
0.2244897959183673
 40
0.2244897959183673
 40
0.2448979591836735
 40
0.2448979591836735
 40
0.2448979591836735
 40
0.2448979591836735
 40
0.2653061224489796
 40
0.2653061224489796
 40
0.2653061224489796
 40
0.2653061224489796
 40
0.2857142857142857
 40
0.2857142857142857
 40
0.2857142857142857
 40
0.2857142857142857
 40
0.3061224489795918
 40
0.3061224489795918
 40
0.3061224489795918
 40
0.3061224489795918
 40
0.3265306122448979
 40
0.3265306122448979
 40
0.3265306122448979
 40
0.3265306122448979
 40
0.3469387755102041
 40
0.3469387755102041
 40
0.3469387755102041
 40
0.3469387755102041
 40
0.3673469387755102
 40
0.3673469387755102
 40
0.3673469387755102
 40
0.3673469387755102
 40
0.3877551020408163
 40
0.3877551020408163
 40
0.3877551020408163
 40
0.3877551020408163
 40
0.4081632653061225
 40
0.4081632653061225
 40
0.4081632653061225
 40
0.4081632653061225
 40
0.4285714285714285
 40
0.4285714285714285
 40
0.4285714285714285
 40
0.4285714285714285
 40
0.4489795918367347
 40
0.4489795918367347
 40
0.4489795918367347
 40
0.4489795918367347
 40
0.4693877551020408
 40
0.4693877551020408
 40
0.4693877551020408
 40
0.4693877551020408
 40
0.4897959183673469
 40
0.4897959183673469
 40
0.4897959183673469
 40
0.4897959183673469
 40
0.5102040816326531
 40
0.5102040816326531
 40
0.5102040816326531
 40
0.5102040816326531
 40
0.5306122448979592
 40
0.5306122448979592
 40
0.5306122448979592
 40
0.5306122448979592
 40
0.5510204081632653
 40
0.5510204081632653
 40
0.5510204081632653
 40
0.5510204081632653
 40
0.5714285714285714
 40
0.5714285714285714
 40
0.5714285714285714
 40
0.5714285714285714
 40
0.5918367346938775
 40
0.5918367346938775
 40
0.5918367346938775
 40
0.5918367346938775
 40
0.6122448979591837
 40
0.6122448979591837
 40
0.6122448979591837
 40
0.6122448979591837
 40
0.6326530612244898
 40
0.6326530612244898
 40
0.6326530612244898
 40
0.6326530612244898
 40
0.6530612244897959
 40
0.6530612244897959
 40
0.6530612244897959
 40
0.6530612244897959
 40
0.673469387755102
 40
0.673469387755102
 40
0.673469387755102
 40
0.673469387755102
 40
0.6938775510204082
 40
0.6938775510204082
 40
0.6938775510204082
 40
0.6938775510204082
 40
0.7142857142857143
 40
0.7142857142857143
 40
0.7142857142857143
 40
0.7142857142857143
 40
0.7346938775510204
 40
0.7346938775510204
 40
0.7346938775510204
 40
0.7346938775510204
 40
0.7551020408163265
 40
0.7551020408163265
 40
0.7551020408163265
 40
0.7551020408163265
 40
0.7755102040816326
 40
0.7755102040816326
 40
0.7755102040816326
 40
0.7755102040816326
 40
0.7959183673469388
 40
0.7959183673469388
 40
0.7959183673469388
 40
0.7959183673469388
 40
0.8163265306122449
 40
0.8163265306122449
 40
0.8163265306122449
 40
0.8163265306122449
 40
0.8367346938775511
 40
0.8367346938775511
 40
0.8367346938775511
 40
0.8367346938775511
 40
0.8571428571428571
 40
0.8571428571428571
 40
0.8571428571428571
 40
0.8571428571428571
 40
0.8775510204081632
 40
0.8775510204081632
 40
0.8775510204081632
 40
0.8775510204081632
 40
0.8979591836734694
 40
0.8979591836734694
 40
0.8979591836734694
 40
0.8979591836734694
 40
0.9183673469387755
 40
0.9183673469387755
 40
0.9183673469387755
 40
0.9183673469387755
 40
0.9387755102040817
 40
0.9387755102040817
 40
0.9387755102040817
 40
0.9387755102040817
 40
0.9591836734693877
 40
0.9591836734693877
 40
0.9591836734693877
 40
0.9591836734693877
 40
1.0
 40
1.0
 40
1.0
 40
1.0
 10
-4.31328
 20
19.72782
 30
0.0
 10
-4.29937
 20
19.75197
 30
0.0
 10
-4.2686
 20
19.76036
 30
0.0
 10
-4.24432
 20
19.74666
 30
0.0
 10
-4.24432
 20
19.74666
 30
0.0
 10
-3.98793
 20
19.60189
 30
0.0
 10
-3.73155
 20
19.45716
 30
0.0
 10
-3.47516
 20
19.31244
 30
0.0
 10
-3.47516
 20
19.31244
 30
0.0
 10
-3.37856
 20
19.21708
 30
0.0
 10
-3.27493
 20
19.15854
 30
0.0
 10
-3.1434
 20
19.12509
 30
0.0
 10
-3.1434
 20
19.12509
 30
0.0
 10
-2.85673
 20
19.79509
 30
0.0
 10
-2.85673
 20
20.55322
 30
0.0
 10
-3.1434
 20
21.22322
 30
0.0
 10
-3.1434
 20
21.22322
 30
0.0
 10
-3.27493
 20
21.18981
 30
0.0
 10
-3.37856
 20
21.13127
 30
0.0
 10
-3.47516
 20
21.03592
 30
0.0
 10
-3.47516
 20
21.03592
 30
0.0
 10
-3.73155
 20
20.8912
 30
0.0
 10
-3.98793
 20
20.74642
 30
0.0
 10
-4.24432
 20
20.60169
 30
0.0
 10
-4.24432
 20
20.60169
 30
0.0
 10
-4.2686
 20
20.58803
 30
0.0
 10
-4.29937
 20
20.59639
 30
0.0
 10
-4.31329
 20
20.62054
 30
0.0
 10
-4.31329
 20
20.62054
 30
0.0
 10
-4.39814
 20
20.76744
 30
0.0
 10
-4.48296
 20
20.9144
 30
0.0
 10
-4.56781
 20
21.0613
 30
0.0
 10
-4.56781
 20
21.0613
 30
0.0
 10
-4.58173
 20
21.08547
 30
0.0
 10
-4.5736
 20
21.11629
 30
0.0
 10
-4.54962
 20
21.13048
 30
0.0
 10
-4.54962
 20
21.13048
 30
0.0
 10
-4.29606
 20
21.28014
 30
0.0
 10
-4.0425
 20
21.42979
 30
0.0
 10
-3.78898
 20
21.57945
 30
0.0
 10
-3.78898
 20
21.57945
 30
0.0
 10
-3.6581
 20
21.61542
 30
0.0
 10
-3.55557
 20
21.67594
 30
0.0
 10
-3.4609
 20
21.77313
 30
0.0
 10
-3.4609
 20
21.77313
 30
0.0
 10
-3.89781
 20
22.35639
 30
0.0
 10
-4.55434
 20
22.73545
 30
0.0
 10
-5.27792
 20
22.82223
 30
0.0
 10
-5.27792
 20
22.82223
 30
0.0
 10
-5.3147
 20
22.69161
 30
0.0
 10
-5.31588
 20
22.57253
 30
0.0
 10
-5.28157
 20
22.4412
 30
0.0
 10
-5.28157
 20
22.4412
 30
0.0
 10
-5.28442
 20
22.1468
 30
0.0
 10
-5.28729
 20
21.8524
 30
0.0
 10
-5.29011
 20
21.55798
 30
0.0
 10
-5.29011
 20
21.55798
 30
0.0
 10
-5.29011
 20
21.53011
 30
0.0
 10
-5.31306
 20
21.50765
 30
0.0
 10
-5.34089
 20
21.50765
 30
0.0
 10
-5.34089
 20
21.50765
 30
0.0
 10
-5.34089
 20
21.50765
 30
0.0
 10
-5.84987
 20
21.50767
 30
0.0
 10
-5.84987
 20
21.50767
 30
0.0
 10
-5.84987
 20
21.50767
 30
0.0
 10
-5.87774
 20
21.50767
 30
0.0
 10
-5.90068
 20
21.53011
 30
0.0
 10
-5.90068
 20
21.55798
 30
0.0
 10
-5.90068
 20
21.55798
 30
0.0
 10
-5.90355
 20
21.85241
 30
0.0
 10
-5.90637
 20
22.14678
 30
0.0
 10
-5.90919
 20
22.4412
 30
0.0
 10
-5.90919
 20
22.4412
 30
0.0
 10
-5.87491
 20
22.57254
 30
0.0
 10
-5.87605
 20
22.69159
 30
0.0
 10
-5.91292
 20
22.82223
 30
0.0
 10
-5.91292
 20
22.82223
 30
0.0
 10
-6.63645
 20
22.73546
 30
0.0
 10
-7.29302
 20
22.35638
 30
0.0
 10
-7.72993
 20
21.77313
 30
0.0
 10
-7.72993
 20
21.77313
 30
0.0
 10
-7.63519
 20
21.67594
 30
0.0
 10
-7.53266
 20
21.61541
 30
0.0
 10
-7.40182
 20
21.57945
 30
0.0
 10
-7.40182
 20
21.57945
 30
0.0
 10
-7.14826
 20
21.4298
 30
0.0
 10
-6.8947
 20
21.28013
 30
0.0
 10
-6.64117
 20
21.13048
 30
0.0
 10
-6.64117
 20
21.13048
 30
0.0
 10
-6.61716
 20
21.11629
 30
0.0
 10
-6.60907
 20
21.08546
 30
0.0
 10
-6.62302
 20
21.0613
 30
0.0
 10
-6.62302
 20
21.0613
 30
0.0
 10
-6.70783
 20
20.91442
 30
0.0
 10
-6.79265
 20
20.76744
 30
0.0
 10
-6.87747
 20
20.62054
 30
0.0
 10
-6.87747
 20
20.62054
 30
0.0
 10
-6.89139
 20
20.5964
 30
0.0
 10
-6.92219
 20
20.58802
 30
0.0
 10
-6.94644
 20
20.60169
 30
0.0
 10
-6.94644
 20
20.60169
 30
0.0
 10
-7.20282
 20
20.74642
 30
0.0
 10
-7.45921
 20
20.89118
 30
0.0
 10
-7.71563
 20
21.03592
 30
0.0
 10
-7.71563
 20
21.03592
 30
0.0
 10
-7.8122
 20
21.13127
 30
0.0
 10
-7.91589
 20
21.18981
 30
0.0
 10
-8.04743
 20
21.22322
 30
0.0
 10
-8.04743
 20
21.22322
 30
0.0
 10
-8.33406
 20
20.55322
 30
0.0
 10
-8.33406
 20
19.79509
 30
0.0
 10
-8.04743
 20
19.12509
 30
0.0
 10
-8.04743
 20
19.12509
 30
0.0
 10
-7.91589
 20
19.15855
 30
0.0
 10
-7.8122
 20
19.21707
 30
0.0
 10
-7.71563
 20
19.31244
 30
0.0
 10
-7.71563
 20
19.31244
 30
0.0
 10
-7.45921
 20
19.45717
 30
0.0
 10
-7.20283
 20
19.60189
 30
0.0
 10
-6.94644
 20
19.74666
 30
0.0
 10
-6.94644
 20
19.74666
 30
0.0
 10
-6.92219
 20
19.76037
 30
0.0
 10
-6.89139
 20
19.75196
 30
0.0
 10
-6.87747
 20
19.72781
 30
0.0
 10
-6.87747
 20
19.72781
 30
0.0
 10
-6.79265
 20
19.58088
 30
0.0
 10
-6.70784
 20
19.43398
 30
0.0
 10
-6.62302
 20
19.28701
 30
0.0
 10
-6.62302
 20
19.28701
 30
0.0
 10
-6.60907
 20
19.2629
 30
0.0
 10
-6.61716
 20
19.23203
 30
0.0
 10
-6.64117
 20
19.2179
 30
0.0
 10
-6.64117
 20
19.2179
 30
0.0
 10
-6.8947
 20
19.06822
 30
0.0
 10
-7.14826
 20
18.91853
 30
0.0
 10
-7.40182
 20
18.76887
 30
0.0
 10
-7.40182
 20
18.76887
 30
0.0
 10
-7.53266
 20
18.73292
 30
0.0
 10
-7.63519
 20
18.67241
 30
0.0
 10
-7.72993
 20
18.57518
 30
0.0
 10
-7.72993
 20
18.57518
 30
0.0
 10
-7.29302
 20
17.99193
 30
0.0
 10
-6.63645
 20
17.6129
 30
0.0
 10
-5.91292
 20
17.52615
 30
0.0
 10
-5.91292
 20
17.52615
 30
0.0
 10
-5.87605
 20
17.65679
 30
0.0
 10
-5.87491
 20
17.77579
 30
0.0
 10
-5.90919
 20
17.90711
 30
0.0
 10
-5.90919
 20
17.90711
 30
0.0
 10
-5.90637
 20
18.20154
 30
0.0
 10
-5.90355
 20
18.49595
 30
0.0
 10
-5.90068
 20
18.79036
 30
0.0
 10
-5.90068
 20
18.79036
 30
0.0
 10
-5.90068
 20
18.81821
 30
0.0
 10
-5.87774
 20
18.84066
 30
0.0
 10
-5.84987
 20
18.84066
 30
0.0
 10
-5.84987
 20
18.84066
 30
0.0
 10
-5.84987
 20
18.84066
 30
0.0
 10
-5.34089
 20
18.84067
 30
0.0
 10
-5.34089
 20
18.84067
 30
0.0
 10
-5.34089
 20
18.84067
 30
0.0
 10
-5.31305
 20
18.84067
 30
0.0
 10
-5.29011
 20
18.8182
 30
0.0
 10
-5.29011
 20
18.79036
 30
0.0
 10
-5.29011
 20
18.79036
 30
0.0
 10
-5.28728
 20
18.49596
 30
0.0
 10
-5.28442
 20
18.20153
 30
0.0
 10
-5.28157
 20
17.90711
 30
0.0
 10
-5.28157
 20
17.90711
 30
0.0
 10
-5.31588
 20
17.77579
 30
0.0
 10
-5.31471
 20
17.65679
 30
0.0
 10
-5.27792
 20
17.52615
 30
0.0
 10
-5.27792
 20
17.52615
 30
0.0
 10
-4.55434
 20
17.61292
 30
0.0
 10
-3.89781
 20
17.99193
 30
0.0
 10
-3.4609
 20
18.57518
 30
0.0
 10
-3.4609
 20
18.57518
 30
0.0
 10
-3.55557
 20
18.67241
 30
0.0
 10
-3.6581
 20
18.7329
 30
0.0
 10
-3.78898
 20
18.76887
 30
0.0
 10
-3.78898
 20
18.76887
 30
0.0
 10
-4.0425
 20
18.91854
 30
0.0
 10
-4.29606
 20
19.06821
 30
0.0
 10
-4.54962
 20
19.2179
 30
0.0
 10
-4.54962
 20
19.2179
 30
0.0
 10
-4.5736
 20
19.23203
 30
0.0
 10
-4.58173
 20
19.26289
 30
0.0
 10
-4.56781
 20
19.28701
 30
0.0
 10
-4.56781
 20
19.28701
 30
0.0
 10
-4.48296
 20
19.434
 30
0.0
 10
-4.39814
 20
19.58087
 30
0.0
 10
-4.31328
 20
19.72782
 30
0.0
  0
SPLINE
  5
71
330
1F
100
AcDbEntity
  8
layer 1
 62
     5
370
     0
100
AcDbSpline
210
0.0
220
0.0
230
1.0
 70
    11
 71
     3
 72
    20
 73
    16
 74
     0
 42
0.000000001
 43
0.0000000001
 40
0.0
 40
0.0
 40
0.0
 40
0.0
 40
0.2
 40
0.2
 40
0.2
 40
0.2
 40
0.4
 40
0.4
 40
0.4
 40
0.4
 40
0.6
 40
0.6
 40
0.6
 40
0.6
 40
1.0
 40
1.0
 40
1.0
 40
1.0
 10
-5.59541
 20
19.81859
 30
0.0
 10
-5.7918
 20
19.81859
 30
0.0
 10
-5.95102
 20
19.9778
 30
0.0
 10
-5.95102
 20
20.17419
 30
0.0
 10
-5.95102
 20
20.17419
 30
0.0
 10
-5.95102
 20
20.3706
 30
0.0
 10
-5.7918
 20
20.52979
 30
0.0
 10
-5.59542
 20
20.52979
 30
0.0
 10
-5.59542
 20
20.52979
 30
0.0
 10
-5.39903
 20
20.52981
 30
0.0
 10
-5.23981
 20
20.3706
 30
0.0
 10
-5.23981
 20
20.17419
 30
0.0
 10
-5.23981
 20
20.17419
 30
0.0
 10
-5.23981
 20
19.97781
 30
0.0
 10
-5.39903
 20
19.81859
 30
0.0
 10
-5.59541
 20
19.81859
 30
0.0
  0
SPLINE
  5
72
330
1F
100
AcDbEntity
  8
layer 1
 62
     5
370
     0
100
AcDbSpline
210
0.0
220
0.0
230
1.0
 70
    11
 71
     3
 72
    20
 73
    16
 74
     0
 42
0.000000001
 43
0.0000000001
 40
0.0
 40
0.0
 40
0.0
 40
0.0
 40
0.2
 40
0.2
 40
0.2
 40
0.2
 40
0.4
 40
0.4
 40
0.4
 40
0.4
 40
0.6
 40
0.6
 40
0.6
 40
0.6
 40
1.0
 40
1.0
 40
1.0
 40
1.0
 10
15.21482
 20
22.9206
 30
0.0
 10
13.72433
 20
22.9206
 30
0.0
 10
12.51606
 20
21.71232
 30
0.0
 10
12.51606
 20
20.22184
 30
0.0
 10
12.51606
 20
20.22184
 30
0.0
 10
12.51606
 20
18.73137
 30
0.0
 10
13.72432
 20
17.52309
 30
0.0
 10
15.21481
 20
17.52309
 30
0.0
 10
15.21481
 20
17.52309
 30
0.0
 10
16.7053
 20
17.5231
 30
0.0
 10
17.91356
 20
18.73135
 30
0.0
 10
17.91356
 20
20.22184
 30
0.0
 10
17.91356
 20
20.22184
 30
0.0
 10
17.91356
 20
21.71234
 30
0.0
 10
16.70529
 20
22.92059
 30
0.0
 10
15.21482
 20
22.9206
 30
0.0
  0
SPLINE
  5
73
330
1F
100
AcDbEntity
  8
layer 1
 62
     5
370
     0
100
AcDbSpline
210
0.0
220
0.0
230
1.0
 70
    11
 71
     3
 72
    20
 73
    16
 74
     0
 42
0.000000001
 43
0.0000000001
 40
0.0
 40
0.0
 40
0.0
 40
0.0
 40
0.2
 40
0.2
 40
0.2
 40
0.2
 40
0.4
 40
0.4
 40
0.4
 40
0.4
 40
0.6
 40
0.6
 40
0.6
 40
0.6
 40
1.0
 40
1.0
 40
1.0
 40
1.0
 10
15.21482
 20
18.63435
 30
0.0
 10
14.33806
 20
18.63435
 30
0.0
 10
13.62731
 20
19.34506
 30
0.0
 10
13.62731
 20
20.22184
 30
0.0
 10
13.62731
 20
20.22184
 30
0.0
 10
13.62731
 20
21.09859
 30
0.0
 10
14.33805
 20
21.80934
 30
0.0
 10
15.21481
 20
21.80934
 30
0.0
 10
15.21481
 20
21.80934
 30
0.0
 10
16.09157
 20
21.80935
 30
0.0
 10
16.80231
 20
21.09858
 30
0.0
 10
16.80231
 20
20.22184
 30
0.0
 10
16.80231
 20
20.22184
 30
0.0
 10
16.80231
 20
19.34508
 30
0.0
 10
16.09156
 20
18.63434
 30
0.0
 10
15.21482
 20
18.63435
 30
0.0
  0
SPLINE
  5
74
330
1F
100
AcDbEntity
  8
layer 1
 62
     5
370
     0
100
AcDbSpline
210
0.0
220
0.0
230
1.0
 70
    11
 71
     3
 72
   772
 73
   768
 74
     0
 42
0.000000001
 43
0.0000000001
 40
0.0
 40
0.0
 40
0.0
 40
0.0
 40
0.0051813471502591
 40
0.0051813471502591
 40
0.0051813471502591
 40
0.0051813471502591
 40
0.0103626943005181
 40
0.0103626943005181
 40
0.0103626943005181
 40
0.0103626943005181
 40
0.0155440414507772
 40
0.0155440414507772
 40
0.0155440414507772
 40
0.0155440414507772
 40
0.0207253886010363
 40
0.0207253886010363
 40
0.0207253886010363
 40
0.0207253886010363
 40
0.0259067357512953
 40
0.0259067357512953
 40
0.0259067357512953
 40
0.0259067357512953
 40
0.0310880829015544
 40
0.0310880829015544
 40
0.0310880829015544
 40
0.0310880829015544
 40
0.0362694300518135
 40
0.0362694300518135
 40
0.0362694300518135
 40
0.0362694300518135
 40
0.0414507772020725
 40
0.0414507772020725
 40
0.0414507772020725
 40
0.0414507772020725
 40
0.0466321243523316
 40
0.0466321243523316
 40
0.0466321243523316
 40
0.0466321243523316
 40
0.0518134715025907
 40
0.0518134715025907
 40
0.0518134715025907
 40
0.0518134715025907
 40
0.0569948186528497
 40
0.0569948186528497
 40
0.0569948186528497
 40
0.0569948186528497
 40
0.0621761658031088
 40
0.0621761658031088
 40
0.0621761658031088
 40
0.0621761658031088
 40
0.0673575129533679
 40
0.0673575129533679
 40
0.0673575129533679
 40
0.0673575129533679
 40
0.0725388601036269
 40
0.0725388601036269
 40
0.0725388601036269
 40
0.0725388601036269
 40
0.077720207253886
 40
0.077720207253886
 40
0.077720207253886
 40
0.077720207253886
 40
0.0829015544041451
 40
0.0829015544041451
 40
0.0829015544041451
 40
0.0829015544041451
 40
0.0880829015544041
 40
0.0880829015544041
 40
0.0880829015544041
 40
0.0880829015544041
 40
0.0932642487046632
 40
0.0932642487046632
 40
0.0932642487046632
 40
0.0932642487046632
 40
0.0984455958549223
 40
0.0984455958549223
 40
0.0984455958549223
 40
0.0984455958549223
 40
0.1036269430051813
 40
0.1036269430051813
 40
0.1036269430051813
 40
0.1036269430051813
 40
0.1088082901554404
 40
0.1088082901554404
 40
0.1088082901554404
 40
0.1088082901554404
 40
0.1139896373056995
 40
0.1139896373056995
 40
0.1139896373056995
 40
0.1139896373056995
 40
0.1191709844559585
 40
0.1191709844559585
 40
0.1191709844559585
 40
0.1191709844559585
 40
0.1243523316062176
 40
0.1243523316062176
 40
0.1243523316062176
 40
0.1243523316062176
 40
0.1295336787564767
 40
0.1295336787564767
 40
0.1295336787564767
 40
0.1295336787564767
 40
0.1347150259067358
 40
0.1347150259067358
 40
0.1347150259067358
 40
0.1347150259067358
 40
0.1398963730569948
 40
0.1398963730569948
 40
0.1398963730569948
 40
0.1398963730569948
 40
0.1450777202072539
 40
0.1450777202072539
 40
0.1450777202072539
 40
0.1450777202072539
 40
0.150259067357513
 40
0.150259067357513
 40
0.150259067357513
 40
0.150259067357513
 40
0.155440414507772
 40
0.155440414507772
 40
0.155440414507772
 40
0.155440414507772
 40
0.1606217616580311
 40
0.1606217616580311
 40
0.1606217616580311
 40
0.1606217616580311
 40
0.1658031088082902
 40
0.1658031088082902
 40
0.1658031088082902
 40
0.1658031088082902
 40
0.1709844559585492
 40
0.1709844559585492
 40
0.1709844559585492
 40
0.1709844559585492
 40
0.1761658031088083
 40
0.1761658031088083
 40
0.1761658031088083
 40
0.1761658031088083
 40
0.1813471502590674
 40
0.1813471502590674
 40
0.1813471502590674
 40
0.1813471502590674
 40
0.1865284974093264
 40
0.1865284974093264
 40
0.1865284974093264
 40
0.1865284974093264
 40
0.1917098445595855
 40
0.1917098445595855
 40
0.1917098445595855
 40
0.1917098445595855
 40
0.1968911917098446
 40
0.1968911917098446
 40
0.1968911917098446
 40
0.1968911917098446
 40
0.2020725388601036
 40
0.2020725388601036
 40
0.2020725388601036
 40
0.2020725388601036
 40
0.2072538860103627
 40
0.2072538860103627
 40
0.2072538860103627
 40
0.2072538860103627
 40
0.2124352331606218
 40
0.2124352331606218
 40
0.2124352331606218
 40
0.2124352331606218
 40
0.2176165803108808
 40
0.2176165803108808
 40
0.2176165803108808
 40
0.2176165803108808
 40
0.2227979274611399
 40
0.2227979274611399
 40
0.2227979274611399
 40
0.2227979274611399
 40
0.227979274611399
 40
0.227979274611399
 40
0.227979274611399
 40
0.227979274611399
 40
0.233160621761658
 40
0.233160621761658
 40
0.233160621761658
 40
0.233160621761658
 40
0.2383419689119171
 40
0.2383419689119171
 40
0.2383419689119171
 40
0.2383419689119171
 40
0.2435233160621762
 40
0.2435233160621762
 40
0.2435233160621762
 40
0.2435233160621762
 40
0.2487046632124352
 40
0.2487046632124352
 40
0.2487046632124352
 40
0.2487046632124352
 40
0.2538860103626943
 40
0.2538860103626943
 40
0.2538860103626943
 40
0.2538860103626943
 40
0.2590673575129533
 40
0.2590673575129533
 40
0.2590673575129533
 40
0.2590673575129533
 40
0.2642487046632124
 40
0.2642487046632124
 40
0.2642487046632124
 40
0.2642487046632124
 40
0.2694300518134715
 40
0.2694300518134715
 40
0.2694300518134715
 40
0.2694300518134715
 40
0.2746113989637305
 40
0.2746113989637305
 40
0.2746113989637305
 40
0.2746113989637305
 40
0.2797927461139896
 40
0.2797927461139896
 40
0.2797927461139896
 40
0.2797927461139896
 40
0.2849740932642487
 40
0.2849740932642487
 40
0.2849740932642487
 40
0.2849740932642487
 40
0.2901554404145077
 40
0.2901554404145077
 40
0.2901554404145077
 40
0.2901554404145077
 40
0.2953367875647668
 40
0.2953367875647668
 40
0.2953367875647668
 40
0.2953367875647668
 40
0.3005181347150259
 40
0.3005181347150259
 40
0.3005181347150259
 40
0.3005181347150259
 40
0.3056994818652849
 40
0.3056994818652849
 40
0.3056994818652849
 40
0.3056994818652849
 40
0.310880829015544
 40
0.310880829015544
 40
0.310880829015544
 40
0.310880829015544
 40
0.3160621761658031
 40
0.3160621761658031
 40
0.3160621761658031
 40
0.3160621761658031
 40
0.3212435233160622
 40
0.3212435233160622
 40
0.3212435233160622
 40
0.3212435233160622
 40
0.3264248704663212
 40
0.3264248704663212
 40
0.3264248704663212
 40
0.3264248704663212
 40
0.3316062176165803
 40
0.3316062176165803
 40
0.3316062176165803
 40
0.3316062176165803
 40
0.3367875647668394
 40
0.3367875647668394
 40
0.3367875647668394
 40
0.3367875647668394
 40
0.3419689119170984
 40
0.3419689119170984
 40
0.3419689119170984
 40
0.3419689119170984
 40
0.3471502590673575
 40
0.3471502590673575
 40
0.3471502590673575
 40
0.3471502590673575
 40
0.3523316062176166
 40
0.3523316062176166
 40
0.3523316062176166
 40
0.3523316062176166
 40
0.3575129533678756
 40
0.3575129533678756
 40
0.3575129533678756
 40
0.3575129533678756
 40
0.3626943005181347
 40
0.3626943005181347
 40
0.3626943005181347
 40
0.3626943005181347
 40
0.3678756476683938
 40
0.3678756476683938
 40
0.3678756476683938
 40
0.3678756476683938
 40
0.3730569948186528
 40
0.3730569948186528
 40
0.3730569948186528
 40
0.3730569948186528
 40
0.3782383419689119
 40
0.3782383419689119
 40
0.3782383419689119
 40
0.3782383419689119
 40
0.383419689119171
 40
0.383419689119171
 40
0.383419689119171
 40
0.383419689119171
 40
0.38860103626943
 40
0.38860103626943
 40
0.38860103626943
 40
0.38860103626943
 40
0.3937823834196891
 40
0.3937823834196891
 40
0.3937823834196891
 40
0.3937823834196891
 40
0.3989637305699482
 40
0.3989637305699482
 40
0.3989637305699482
 40
0.3989637305699482
 40
0.4041450777202072
 40
0.4041450777202072
 40
0.4041450777202072
 40
0.4041450777202072
 40
0.4093264248704663
 40
0.4093264248704663
 40
0.4093264248704663
 40
0.4093264248704663
 40
0.4145077720207254
 40
0.4145077720207254
 40
0.4145077720207254
 40
0.4145077720207254
 40
0.4196891191709844
 40
0.4196891191709844
 40
0.4196891191709844
 40
0.4196891191709844
 40
0.4248704663212435
 40
0.4248704663212435
 40
0.4248704663212435
 40
0.4248704663212435
 40
0.4300518134715026
 40
0.4300518134715026
 40
0.4300518134715026
 40
0.4300518134715026
 40
0.4352331606217616
 40
0.4352331606217616
 40
0.4352331606217616
 40
0.4352331606217616
 40
0.4404145077720207
 40
0.4404145077720207
 40
0.4404145077720207
 40
0.4404145077720207
 40
0.4455958549222798
 40
0.4455958549222798
 40
0.4455958549222798
 40
0.4455958549222798
 40
0.4507772020725389
 40
0.4507772020725389
 40
0.4507772020725389
 40
0.4507772020725389
 40
0.4559585492227979
 40
0.4559585492227979
 40
0.4559585492227979
 40
0.4559585492227979
 40
0.461139896373057
 40
0.461139896373057
 40
0.461139896373057
 40
0.461139896373057
 40
0.4663212435233161
 40
0.4663212435233161
 40
0.4663212435233161
 40
0.4663212435233161
 40
0.4715025906735751
 40
0.4715025906735751
 40
0.4715025906735751
 40
0.4715025906735751
 40
0.4766839378238342
 40
0.4766839378238342
 40
0.4766839378238342
 40
0.4766839378238342
 40
0.4818652849740933
 40
0.4818652849740933
 40
0.4818652849740933
 40
0.4818652849740933
 40
0.4870466321243523
 40
0.4870466321243523
 40
0.4870466321243523
 40
0.4870466321243523
 40
0.4922279792746114
 40
0.4922279792746114
 40
0.4922279792746114
 40
0.4922279792746114
 40
0.4974093264248705
 40
0.4974093264248705
 40
0.4974093264248705
 40
0.4974093264248705
 40
0.5025906735751295
 40
0.5025906735751295
 40
0.5025906735751295
 40
0.5025906735751295
 40
0.5077720207253886
 40
0.5077720207253886
 40
0.5077720207253886
 40
0.5077720207253886
 40
0.5129533678756477
 40
0.5129533678756477
 40
0.5129533678756477
 40
0.5129533678756477
 40
0.5181347150259067
 40
0.5181347150259067
 40
0.5181347150259067
 40
0.5181347150259067
 40
0.5233160621761658
 40
0.5233160621761658
 40
0.5233160621761658
 40
0.5233160621761658
 40
0.5284974093264249
 40
0.5284974093264249
 40
0.5284974093264249
 40
0.5284974093264249
 40
0.533678756476684
 40
0.533678756476684
 40
0.533678756476684
 40
0.533678756476684
 40
0.538860103626943
 40
0.538860103626943
 40
0.538860103626943
 40
0.538860103626943
 40
0.5440414507772021
 40
0.5440414507772021
 40
0.5440414507772021
 40
0.5440414507772021
 40
0.5492227979274611
 40
0.5492227979274611
 40
0.5492227979274611
 40
0.5492227979274611
 40
0.5544041450777202
 40
0.5544041450777202
 40
0.5544041450777202
 40
0.5544041450777202
 40
0.5595854922279793
 40
0.5595854922279793
 40
0.5595854922279793
 40
0.5595854922279793
 40
0.5647668393782384
 40
0.5647668393782384
 40
0.5647668393782384
 40
0.5647668393782384
 40
0.5699481865284974
 40
0.5699481865284974
 40
0.5699481865284974
 40
0.5699481865284974
 40
0.5751295336787565
 40
0.5751295336787565
 40
0.5751295336787565
 40
0.5751295336787565
 40
0.5803108808290155
 40
0.5803108808290155
 40
0.5803108808290155
 40
0.5803108808290155
 40
0.5854922279792746
 40
0.5854922279792746
 40
0.5854922279792746
 40
0.5854922279792746
 40
0.5906735751295337
 40
0.5906735751295337
 40
0.5906735751295337
 40
0.5906735751295337
 40
0.5958549222797928
 40
0.5958549222797928
 40
0.5958549222797928
 40
0.5958549222797928
 40
0.6010362694300518
 40
0.6010362694300518
 40
0.6010362694300518
 40
0.6010362694300518
 40
0.6062176165803109
 40
0.6062176165803109
 40
0.6062176165803109
 40
0.6062176165803109
 40
0.6113989637305699
 40
0.6113989637305699
 40
0.6113989637305699
 40
0.6113989637305699
 40
0.616580310880829
 40
0.616580310880829
 40
0.616580310880829
 40
0.616580310880829
 40
0.6217616580310881
 40
0.6217616580310881
 40
0.6217616580310881
 40
0.6217616580310881
 40
0.6269430051813472
 40
0.6269430051813472
 40
0.6269430051813472
 40
0.6269430051813472
 40
0.6321243523316062
 40
0.6321243523316062
 40
0.6321243523316062
 40
0.6321243523316062
 40
0.6373056994818653
 40
0.6373056994818653
 40
0.6373056994818653
 40
0.6373056994818653
 40
0.6424870466321243
 40
0.6424870466321243
 40
0.6424870466321243
 40
0.6424870466321243
 40
0.6476683937823834
 40
0.6476683937823834
 40
0.6476683937823834
 40
0.6476683937823834
 40
0.6528497409326425
 40
0.6528497409326425
 40
0.6528497409326425
 40
0.6528497409326425
 40
0.6580310880829016
 40
0.6580310880829016
 40
0.6580310880829016
 40
0.6580310880829016
 40
0.6632124352331606
 40
0.6632124352331606
 40
0.6632124352331606
 40
0.6632124352331606
 40
0.6683937823834197
 40
0.6683937823834197
 40
0.6683937823834197
 40
0.6683937823834197
 40
0.6735751295336787
 40
0.6735751295336787
 40
0.6735751295336787
 40
0.6735751295336787
 40
0.6787564766839378
 40
0.6787564766839378
 40
0.6787564766839378
 40
0.6787564766839378
 40
0.6839378238341969
 40
0.6839378238341969
 40
0.6839378238341969
 40
0.6839378238341969
 40
0.689119170984456
 40
0.689119170984456
 40
0.689119170984456
 40
0.689119170984456
 40
0.694300518134715
 40
0.694300518134715
 40
0.694300518134715
 40
0.694300518134715
 40
0.6994818652849741
 40
0.6994818652849741
 40
0.6994818652849741
 40
0.6994818652849741
 40
0.7046632124352331
 40
0.7046632124352331
 40
0.7046632124352331
 40
0.7046632124352331
 40
0.7098445595854922
 40
0.7098445595854922
 40
0.7098445595854922
 40
0.7098445595854922
 40
0.7150259067357513
 40
0.7150259067357513
 40
0.7150259067357513
 40
0.7150259067357513
 40
0.7202072538860104
 40
0.7202072538860104
 40
0.7202072538860104
 40
0.7202072538860104
 40
0.7253886010362695
 40
0.7253886010362695
 40
0.7253886010362695
 40
0.7253886010362695
 40
0.7305699481865285
 40
0.7305699481865285
 40
0.7305699481865285
 40
0.7305699481865285
 40
0.7357512953367875
 40
0.7357512953367875
 40
0.7357512953367875
 40
0.7357512953367875
 40
0.7409326424870466
 40
0.7409326424870466
 40
0.7409326424870466
 40
0.7409326424870466
 40
0.7461139896373057
 40
0.7461139896373057
 40
0.7461139896373057
 40
0.7461139896373057
 40
0.7512953367875648
 40
0.7512953367875648
 40
0.7512953367875648
 40
0.7512953367875648
 40
0.7564766839378239
 40
0.7564766839378239
 40
0.7564766839378239
 40
0.7564766839378239
 40
0.7616580310880829
 40
0.7616580310880829
 40
0.7616580310880829
 40
0.7616580310880829
 40
0.7668393782383419
 40
0.7668393782383419
 40
0.7668393782383419
 40
0.7668393782383419
 40
0.772020725388601
 40
0.772020725388601
 40
0.772020725388601
 40
0.772020725388601
 40
0.7772020725388601
 40
0.7772020725388601
 40
0.7772020725388601
 40
0.7772020725388601
 40
0.7823834196891192
 40
0.7823834196891192
 40
0.7823834196891192
 40
0.7823834196891192
 40
0.7875647668393783
 40
0.7875647668393783
 40
0.7875647668393783
 40
0.7875647668393783
 40
0.7927461139896373
 40
0.7927461139896373
 40
0.7927461139896373
 40
0.7927461139896373
 40
0.7979274611398963
 40
0.7979274611398963
 40
0.7979274611398963
 40
0.7979274611398963
 40
0.8031088082901554
 40
0.8031088082901554
 40
0.8031088082901554
 40
0.8031088082901554
 40
0.8082901554404145
 40
0.8082901554404145
 40
0.8082901554404145
 40
0.8082901554404145
 40
0.8134715025906736
 40
0.8134715025906736
 40
0.8134715025906736
 40
0.8134715025906736
 40
0.8186528497409327
 40
0.8186528497409327
 40
0.8186528497409327
 40
0.8186528497409327
 40
0.8238341968911918
 40
0.8238341968911918
 40
0.8238341968911918
 40
0.8238341968911918
 40
0.8290155440414507
 40
0.8290155440414507
 40
0.8290155440414507
 40
0.8290155440414507
 40
0.8341968911917098
 40
0.8341968911917098
 40
0.8341968911917098
 40
0.8341968911917098
 40
0.8393782383419689
 40
0.8393782383419689
 40
0.8393782383419689
 40
0.8393782383419689
 40
0.844559585492228
 40
0.844559585492228
 40
0.844559585492228
 40
0.844559585492228
 40
0.8497409326424871
 40
0.8497409326424871
 40
0.8497409326424871
 40
0.8497409326424871
 40
0.8549222797927462
 40
0.8549222797927462
 40
0.8549222797927462
 40
0.8549222797927462
 40
0.8601036269430051
 40
0.8601036269430051
 40
0.8601036269430051
 40
0.8601036269430051
 40
0.8652849740932642
 40
0.8652849740932642
 40
0.8652849740932642
 40
0.8652849740932642
 40
0.8704663212435233
 40
0.8704663212435233
 40
0.8704663212435233
 40
0.8704663212435233
 40
0.8756476683937824
 40
0.8756476683937824
 40
0.8756476683937824
 40
0.8756476683937824
 40
0.8808290155440415
 40
0.8808290155440415
 40
0.8808290155440415
 40
0.8808290155440415
 40
0.8860103626943006
 40
0.8860103626943006
 40
0.8860103626943006
 40
0.8860103626943006
 40
0.8911917098445595
 40
0.8911917098445595
 40
0.8911917098445595
 40
0.8911917098445595
 40
0.8963730569948186
 40
0.8963730569948186
 40
0.8963730569948186
 40
0.8963730569948186
 40
0.9015544041450777
 40
0.9015544041450777
 40
0.9015544041450777
 40
0.9015544041450777
 40
0.9067357512953368
 40
0.9067357512953368
 40
0.9067357512953368
 40
0.9067357512953368
 40
0.9119170984455959
 40
0.9119170984455959
 40
0.9119170984455959
 40
0.9119170984455959
 40
0.917098445595855
 40
0.917098445595855
 40
0.917098445595855
 40
0.917098445595855
 40
0.9222797927461139
 40
0.9222797927461139
 40
0.9222797927461139
 40
0.9222797927461139
 40
0.927461139896373
 40
0.927461139896373
 40
0.927461139896373
 40
0.927461139896373
 40
0.9326424870466321
 40
0.9326424870466321
 40
0.9326424870466321
 40
0.9326424870466321
 40
0.9378238341968912
 40
0.9378238341968912
 40
0.9378238341968912
 40
0.9378238341968912
 40
0.9430051813471503
 40
0.9430051813471503
 40
0.9430051813471503
 40
0.9430051813471503
 40
0.9481865284974094
 40
0.9481865284974094
 40
0.9481865284974094
 40
0.9481865284974094
 40
0.9533678756476683
 40
0.9533678756476683
 40
0.9533678756476683
 40
0.9533678756476683
 40
0.9585492227979274
 40
0.9585492227979274
 40
0.9585492227979274
 40
0.9585492227979274
 40
0.9637305699481865
 40
0.9637305699481865
 40
0.9637305699481865
 40
0.9637305699481865
 40
0.9689119170984456
 40
0.9689119170984456
 40
0.9689119170984456
 40
0.9689119170984456
 40
0.9740932642487047
 40
0.9740932642487047
 40
0.9740932642487047
 40
0.9740932642487047
 40
0.9792746113989638
 40
0.9792746113989638
 40
0.9792746113989638
 40
0.9792746113989638
 40
0.9844559585492227
 40
0.9844559585492227
 40
0.9844559585492227
 40
0.9844559585492227
 40
0.9896373056994818
 40
0.9896373056994818
 40
0.9896373056994818
 40
0.9896373056994818
 40
1.0
 40
1.0
 40
1.0
 40
1.0
 10
29.28507
 20
16.28815
 30
0.0
 10
29.28507
 20
16.28815
 30
0.0
 10
29.28507
 20
15.70018
 30
0.0
 10
29.28507
 20
15.70018
 30
0.0
 10
29.28507
 20
15.70018
 30
0.0
 10
29.28507
 20
15.67214
 30
0.0
 10
29.26232
 20
15.64939
 30
0.0
 10
29.23424
 20
15.64939
 30
0.0
 10
29.23424
 20
15.64939
 30
0.0
 10
29.23424
 20
15.64939
 30
0.0
 10
28.72631
 20
15.6494
 30
0.0
 10
28.72631
 20
15.6494
 30
0.0
 10
28.72631
 20
15.6494
 30
0.0
 10
28.69823
 20
15.6494
 30
0.0
 10
28.67548
 20
15.67212
 30
0.0
 10
28.67548
 20
15.70017
 30
0.0
 10
28.67548
 20
15.70017
 30
0.0
 10
28.67548
 20
15.70017
 30
0.0
 10
28.67549
 20
16.28815
 30
0.0
 10
28.67549
 20
16.28815
 30
0.0
 10
28.67549
 20
16.28815
 30
0.0
 10
28.67549
 20
16.28815
 30
0.0
 10
26.03232
 20
16.28815
 30
0.0
 10
26.03232
 20
16.28815
 30
0.0
 10
26.03232
 20
16.28815
 30
0.0
 10
25.7689
 20
13.5176
 30
0.0
 10
23.43584
 20
11.35035
 30
0.0
 10
20.59639
 20
11.35035
 30
0.0
 10
20.59639
 20
11.35035
 30
0.0
 10
18.50852
 20
11.35037
 30
0.0
 10
16.69473
 20
12.52227
 30
0.0
 10
15.77591
 20
14.24403
 30
0.0
 10
15.77591
 20
14.24403
 30
0.0
 10
15.77591
 20
14.24403
 30
0.0
 10
15.16904
 20
14.24404
 30
0.0
 10
15.16904
 20
14.24404
 30
0.0
 10
15.16904
 20
14.24404
 30
0.0
 10
15.16904
 20
14.24404
 30
0.0
 10
15.16904
 20
14.38918
 30
0.0
 10
15.16904
 20
14.38918
 30
0.0
 10
15.16904
 20
14.38918
 30
0.0
 10
15.08139
 20
14.40015
 30
0.0
 10
14.35517
 20
14.49519
 30
0.0
 10
13.82557
 20
14.6938
 30
0.0
 10
13.82557
 20
14.6938
 30
0.0
 10
13.26114
 20
14.90547
 30
0.0
 10
12.90301
 20
15.10022
 30
0.0
 10
12.41446
 20
15.61102
 30
0.0
 10
12.41446
 20
15.61102
 30
0.0
 10
12.41446
 20
15.61102
 30
0.0
 10
12.12046
 20
16.02262
 30
0.0
 10
12.12046
 20
16.02262
 30
0.0
 10
12.12046
 20
16.02262
 30
0.0
 10
12.12046
 20
16.02262
 30
0.0
 10
9.81828
 20
16.28815
 30
0.0
 10
9.81828
 20
16.28815
 30
0.0
 10
9.81828
 20
16.28815
 30
0.0
 10
9.81828
 20
16.28815
 30
0.0
 10
8.96503
 20
16.28815
 30
0.0
 10
8.96503
 20
16.28815
 30
0.0
 10
8.96503
 20
16.28815
 30
0.0
 10
8.96503
 20
16.28815
 30
0.0
 10
8.96503
 20
15.70018
 30
0.0
 10
8.96503
 20
15.70018
 30
0.0
 10
8.96503
 20
15.70018
 30
0.0
 10
8.96503
 20
15.67214
 30
0.0
 10
8.94229
 20
15.64939
 30
0.0
 10
8.91421
 20
15.64939
 30
0.0
 10
8.91421
 20
15.64939
 30
0.0
 10
8.91421
 20
15.64939
 30
0.0
 10
8.4062
 20
15.6494
 30
0.0
 10
8.4062
 20
15.6494
 30
0.0
 10
8.4062
 20
15.6494
 30
0.0
 10
8.37816
 20
15.6494
 30
0.0
 10
8.35542
 20
15.67212
 30
0.0
 10
8.35542
 20
15.70017
 30
0.0
 10
8.35542
 20
15.70017
 30
0.0
 10
8.35542
 20
15.70017
 30
0.0
 10
8.35542
 20
16.28815
 30
0.0
 10
8.35542
 20
16.28815
 30
0.0
 10
8.35542
 20
16.28815
 30
0.0
 10
8.35542
 20
16.28815
 30
0.0
 10
-5.04029
 20
16.28815
 30
0.0
 10
-5.04029
 20
16.28815
 30
0.0
 10
-5.04029
 20
16.28815
 30
0.0
 10
-5.04029
 20
16.28815
 30
0.0
 10
-5.04029
 20
15.70018
 30
0.0
 10
-5.04029
 20
15.70018
 30
0.0
 10
-5.04029
 20
15.70018
 30
0.0
 10
-5.04029
 20
15.67214
 30
0.0
 10
-5.06306
 20
15.64939
 30
0.0
 10
-5.09111
 20
15.64939
 30
0.0
 10
-5.09111
 20
15.64939
 30
0.0
 10
-5.09111
 20
15.64939
 30
0.0
 10
-5.59912
 20
15.6494
 30
0.0
 10
-5.59912
 20
15.6494
 30
0.0
 10
-5.59912
 20
15.6494
 30
0.0
 10
-5.62716
 20
15.6494
 30
0.0
 10
-5.6499
 20
15.67212
 30
0.0
 10
-5.6499
 20
15.70017
 30
0.0
 10
-5.6499
 20
15.70017
 30
0.0
 10
-5.6499
 20
15.70017
 30
0.0
 10
-5.6499
 20
16.28815
 30
0.0
 10
-5.6499
 20
16.28815
 30
0.0
 10
-5.6499
 20
16.28815
 30
0.0
 10
-5.6499
 20
16.28815
 30
0.0
 10
-6.83853
 20
16.28815
 30
0.0
 10
-6.83853
 20
16.28815
 30
0.0
 10
-6.83853
 20
16.28815
 30
0.0
 10
-6.83853
 20
16.28815
 30
0.0
 10
-6.83853
 20
16.2844
 30
0.0
 10
-6.83853
 20
16.2844
 30
0.0
 10
-6.83853
 20
16.2844
 30
0.0
 10
-6.83853
 20
16.2844
 30
0.0
 10
-8.13202
 20
16.2844
 30
0.0
 10
-8.13202
 20
16.2844
 30
0.0
 10
-8.13202
 20
16.2844
 30
0.0
 10
-8.13202
 20
16.2844
 30
0.0
 10
-8.13202
 20
15.81686
 30
0.0
 10
-8.13202
 20
15.81686
 30
0.0
 10
-8.13202
 20
15.81686
 30
0.0
 10
-8.11445
 20
15.58635
 30
0.0
 10
-7.83374
 20
15.51169
 30
0.0
 10
-7.71751
 20
15.70599
 30
0.0
 10
-7.71751
 20
15.70599
 30
0.0
 10
-7.71751
 20
15.72542
 30
0.0
 10
-7.71789
 20
15.74485
 30
0.0
 10
-7.71854
 20
15.76431
 30
0.0
 10
-7.71854
 20
15.76431
 30
0.0
 10
-7.71944
 20
15.79247
 30
0.0
 10
-7.69728
 20
15.81595
 30
0.0
 10
-7.66914
 20
15.81672
 30
0.0
 10
-7.66914
 20
15.81672
 30
0.0
 10
-7.66914
 20
15.81672
 30
0.0
 10
-7.52686
 20
15.81672
 30
0.0
 10
-7.52686
 20
15.81672
 30
0.0
 10
-7.52686
 20
15.81672
 30
0.0
 10
-7.50108
 20
15.81672
 30
0.0
 10
-7.48772
 20
15.80769
 30
0.0
 10
-7.47807
 20
15.78381
 30
0.0
 10
-7.47807
 20
15.78381
 30
0.0
 10
-7.44028
 20
15.59314
 30
0.0
 10
-7.21187
 20
15.52967
 30
0.0
 10
-7.09184
 20
15.6725
 30
0.0
 10
-7.09184
 20
15.6725
 30
0.0
 10
-7.02618
 20
15.36299
 30
0.0
 10
-6.77314
 20
15.14175
 30
0.0
 10
-6.48031
 20
15.14175
 30
0.0
 10
-6.48031
 20
15.14175
 30
0.0
 10
-6.48031
 20
15.14175
 30
0.0
 10
-6.4803
 20
15.14134
 30
0.0
 10
-6.4803
 20
15.14134
 30
0.0
 10
-6.4803
 20
15.14134
 30
0.0
 10
-6.42284
 20
14.31621
 30
0.0
 10
-5.79294
 20
13.67758
 30
0.0
 10
-5.03395
 20
13.67758
 30
0.0
 10
-5.03395
 20
13.67758
 30
0.0
 10
-5.03395
 20
13.67758
 30
0.0
 10
-5.03395
 20
13.68752
 30
0.0
 10
-5.03395
 20
13.68752
 30
0.0
 10
-5.03395
 20
13.68752
 30
0.0
 10
-4.62526
 20
14.19312
 30
0.0
 10
-4.38538
 20
14.55416
 30
0.0
 10
-4.0706
 20
14.84268
 30
0.0
 10
-4.0706
 20
14.84268
 30
0.0
 10
-3.75619
 20
15.13233
 30
0.0
 10
-3.36718
 20
15.3477
 30
0.0
 10
-2.87956
 20
15.45147
 30
0.0
 10
-2.87956
 20
15.45147
 30
0.0
 10
-2.39191
 20
15.55585
 30
0.0
 10
-1.80435
 20
15.548
 30
0.0
 10
-1.19084
 20
15.50211
 30
0.0
 10
-1.19084
 20
15.50211
 30
0.0
 10
-0.57692
 20
15.45626
 30
0.0
 10
0.06366
 20
15.37271
 30
0.0
 10
0.66648
 20
15.13944
 30
0.0
 10
0.66648
 20
15.13944
 30
0.0
 10
1.26848
 20
14.90736
 30
0.0
 10
1.8325
 20
14.70067
 30
0.0
 10
2.36257
 20
14.3099
 30
0.0
 10
2.36257
 20
14.3099
 30
0.0
 10
2.89256
 20
13.9193
 30
0.0
 10
3.38838
 20
13.5207
 30
0.0
 10
3.78091
 20
13.27692
 30
0.0
 10
3.78091
 20
13.27692
 30
0.0
 10
4.17338
 20
13.03175
 30
0.0
 10
4.46263
 20
12.94202
 30
0.0
 10
4.73396
 20
12.89789
 30
0.0
 10
4.73396
 20
12.89789
 30
0.0
 10
5.00454
 20
12.85304
 30
0.0
 10
5.25548
 20
12.85304
 30
0.0
 10
5.50001
 20
12.89376
 30
0.0
 10
5.50001
 20
12.89376
 30
0.0
 10
5.74442
 20
12.93386
 30
0.0
 10
5.98081
 20
13.01533
 30
0.0
 10
6.19592
 20
13.17453
 30
0.0
 10
6.19592
 20
13.17453
 30
0.0
 10
6.41142
 20
13.33343
 30
0.0
 10
6.61409
 20
13.568
 30
0.0
 10
6.70211
 20
13.9113
 30
0.0
 10
6.70211
 20
13.9113
 30
0.0
 10
6.70211
 20
13.9113
 30
0.0
 10
6.70212
 20
14.00584
 30
0.0
 10
6.70212
 20
14.00584
 30
0.0
 10
6.70212
 20
14.00584
 30
0.0
 10
7.05737
 20
13.89729
 30
0.0
 10
7.41163
 20
14.12386
 30
0.0
 10
7.50258
 20
14.4787
 30
0.0
 10
7.50258
 20
14.4787
 30
0.0
 10
7.50258
 20
14.4787
 30
0.0
 10
7.8934
 20
14.47871
 30
0.0
 10
7.8934
 20
14.47871
 30
0.0
 10
7.8934
 20
14.47871
 30
0.0
 10
7.8934
 20
14.47871
 30
0.0
 10
7.8934
 20
14.39793
 30
0.0
 10
7.8934
 20
14.39793
 30
0.0
 10
7.8934
 20
14.39793
 30
0.0
 10
8.32114
 20
13.6758
 30
0.0
 10
9.07268
 20
13.78417
 30
0.0
 10
9.42374
 20
14.4787
 30
0.0
 10
9.42374
 20
14.4787
 30
0.0
 10
9.42374
 20
14.4787
 30
0.0
 10
9.8407
 20
14.47871
 30
0.0
 10
9.8407
 20
14.47871
 30
0.0
 10
9.8407
 20
14.47871
 30
0.0
 10
9.88976
 20
14.35388
 30
0.0
 10
9.95322
 20
14.25047
 30
0.0
 10
10.04778
 20
14.16772
 30
0.0
 10
10.04778
 20
14.16772
 30
0.0
 10
10.23592
 20
14.00312
 30
0.0
 10
10.47112
 20
13.862
 30
0.0
 10
10.63576
 20
13.83847
 30
0.0
 10
10.63576
 20
13.83847
 30
0.0
 10
10.89466
 20
13.80149
 30
0.0
 10
11.30514
 20
13.7817
 30
0.0
 10
11.52566
 20
13.74814
 30
0.0
 10
11.52566
 20
13.74814
 30
0.0
 10
11.7444
 20
13.71445
 30
0.0
 10
11.93859
 20
13.67528
 30
0.0
 10
12.12693
 20
13.61723
 30
0.0
 10
12.12693
 20
13.61723
 30
0.0
 10
12.31952
 20
13.55658
 30
0.0
 10
12.51071
 20
13.47887
 30
0.0
 10
12.66023
 20
13.38509
 30
0.0
 10
12.66023
 20
13.38509
 30
0.0
 10
12.81368
 20
13.29353
 30
0.0
 10
12.87328
 20
13.25415
 30
0.0
 10
12.98173
 20
13.14466
 30
0.0
 10
12.98173
 20
13.14466
 30
0.0
 10
13.09322
 20
13.03518
 30
0.0
 10
13.24717
 20
12.9023
 30
0.0
 10
13.35215
 20
12.79189
 30
0.0
 10
13.35215
 20
12.79189
 30
0.0
 10
13.4563
 20
12.68335
 30
0.0
 10
13.62341
 20
12.5168
 30
0.0
 10
13.7402
 20
12.40383
 30
0.0
 10
13.7402
 20
12.40383
 30
0.0
 10
13.85173
 20
12.2917
 30
0.0
 10
13.99066
 20
12.10621
 30
0.0
 10
14.16354
 20
11.9805
 30
0.0
 10
14.16354
 20
11.9805
 30
0.0
 10
14.41823
 20
11.79526
 30
0.0
 10
14.74142
 20
11.70169
 30
0.0
 10
15.08799
 20
11.8335
 30
0.0
 10
15.08799
 20
11.8335
 30
0.0
 10
16.41602
 20
10.36044
 30
0.0
 10
18.32459
 20
9.42124
 30
0.0
 10
20.45335
 20
9.37632
 30
0.0
 10
20.45335
 20
9.37632
 30
0.0
 10
20.70723
 20
9.1471
 30
0.0
 10
20.5423
 20
8.96139
 30
0.0
 10
20.5423
 20
8.96139
 30
0.0
 10
20.5423
 20
8.96139
 30
0.0
 10
19.59406
 20
7.39207
 30
0.0
 10
19.60968
 20
5.67613
 30
0.0
 10
20.78573
 20
4.20433
 30
0.0
 10
20.78573
 20
4.20433
 30
0.0
 10
21.96175
 20
2.73245
 30
0.0
 10
22.94657
 20
2.85537
 30
0.0
 10
24.60383
 20
1.70967
 30
0.0
 10
24.60383
 20
1.70967
 30
0.0
 10
26.72284
 20
0.24454
 30
0.0
 10
27.44565
 20
-1.26531
 30
0.0
 10
27.44565
 20
-2.74333
 30
0.0
 10
27.44565
 20
-2.74333
 30
0.0
 10
27.44565
 20
-5.49961
 30
0.0
 10
25.77998
 20
-6.16052
 30
0.0
 10
24.89053
 20
-6.27048
 30
0.0
 10
24.89053
 20
-6.27048
 30
0.0
 10
24.89053
 20
-6.27048
 30
0.0
 10
24.89053
 20
-6.26683
 30
0.0
 10
24.89053
 20
-6.26683
 30
0.0
 10
24.89053
 20
-6.26683
 30
0.0
 10
24.82842
 20
-6.14942
 30
0.0
 10
24.7663
 20
-6.03195
 30
0.0
 10
24.70419
 20
-5.91453
 30
0.0
 10
24.70419
 20
-5.91453
 30
0.0
 10
24.70419
 20
-5.91453
 30
0.0
 10
24.49135
 20
-5.91453
 30
0.0
 10
24.49135
 20
-5.91453
 30
0.0
 10
24.49135
 20
-5.91453
 30
0.0
 10
24.49135
 20
-5.91453
 30
0.0
 10
24.49135
 20
-5.81022
 30
0.0
 10
24.49135
 20
-5.81022
 30
0.0
 10
24.49135
 20
-5.81022
 30
0.0
 10
24.36818
 20
-5.55755
 30
0.0
 10
23.97895
 20
-5.55755
 30
0.0
 10
23.85507
 20
-5.81022
 30
0.0
 10
23.85507
 20
-5.81022
 30
0.0
 10
23.85507
 20
-5.81022
 30
0.0
 10
23.85508
 20
-5.91453
 30
0.0
 10
23.85508
 20
-5.91453
 30
0.0
 10
23.85508
 20
-5.91453
 30
0.0
 10
23.78377
 20
-5.91453
 30
0.0
 10
23.71244
 20
-5.91453
 30
0.0
 10
23.6411
 20
-5.91453
 30
0.0
 10
23.6411
 20
-5.91453
 30
0.0
 10
23.57086
 20
-6.03194
 30
0.0
 10
23.50057
 20
-6.14942
 30
0.0
 10
23.43032
 20
-6.26683
 30
0.0
 10
23.43032
 20
-6.26683
 30
0.0
 10
23.43032
 20
-6.26683
 30
0.0
 10
23.04544
 20
-6.26683
 30
0.0
 10
23.04544
 20
-6.26683
 30
0.0
 10
23.04544
 20
-6.26683
 30
0.0
 10
23.04544
 20
-6.26683
 30
0.0
 10
23.04544
 20
-6.26635
 30
0.0
 10
23.04544
 20
-6.26635
 30
0.0
 10
23.04544
 20
-6.26635
 30
0.0
 10
23.05276
 20
-6.15101
 30
0.0
 10
22.97044
 20
-6.05296
 30
0.0
 10
22.86047
 20
-6.0347
 30
0.0
 10
22.86047
 20
-6.0347
 30
0.0
 10
22.84216
 20
-5.88835
 30
0.0
 10
22.72146
 20
-5.77349
 30
0.0
 10
22.57356
 20
-5.76192
 30
0.0
 10
22.57356
 20
-5.76192
 30
0.0
 10
22.57356
 20
-5.76192
 30
0.0
 10
22.57358
 20
-5.42795
 30
0.0
 10
22.57358
 20
-5.42795
 30
0.0
 10
22.57358
 20
-5.42795
 30
0.0
 10
22.12536
 20
-5.11141
 30
0.0
 10
21.86157
 20
-4.61836
 30
0.0
 10
21.85954
 20
-4.09277
 30
0.0
 10
21.85954
 20
-4.09277
 30
0.0
 10
21.85954
 20
-4.09277
 30
0.0
 10
21.85954
 20
-2.64983
 30
0.0
 10
21.85954
 20
-2.64983
 30
0.0
 10
21.85954
 20
-2.64983
 30
0.0
 10
21.42115
 20
-2.72341
 30
0.0
 10
21.25123
 20
-2.84027
 30
0.0
 10
21.23514
 20
-3.07385
 30
0.0
 10
21.23514
 20
-3.07385
 30
0.0
 10
21.23514
 20
-3.07385
 30
0.0
 10
21.23515
 20
-4.85268
 30
0.0
 10
21.23515
 20
-4.85268
 30
0.0
 10
21.23515
 20
-4.85268
 30
0.0
 10
21.21156
 20
-4.97072
 30
0.0
 10
21.20038
 20
-5.03549
 30
0.0
 10
21.18857
 20
-5.08572
 30
0.0
 10
21.18857
 20
-5.08572
 30
0.0
 10
21.17707
 20
-5.1356
 30
0.0
 10
21.16421
 20
-5.1715
 30
0.0
 10
21.14926
 20
-5.20622
 30
0.0
 10
21.14926
 20
-5.20622
 30
0.0
 10
21.13556
 20
-5.24115
 30
0.0
 10
21.11922
 20
-5.27402
 30
0.0
 10
21.09975
 20
-5.30606
 30
0.0
 10
21.09975
 20
-5.30606
 30
0.0
 10
21.07934
 20
-5.33741
 30
0.0
 10
21.055
 20
-5.36628
 30
0.0
 10
21.03267
 20
-5.38764
 30
0.0
 10
21.03267
 20
-5.38764
 30
0.0
 10
21.00846
 20
-5.4099
 30
0.0
 10
20.98541
 20
-5.42347
 30
0.0
 10
20.96274
 20
-5.43608
 30
0.0
 10
20.96274
 20
-5.43608
 30
0.0
 10
20.94143
 20
-5.44993
 30
0.0
 10
20.91971
 20
-5.4615
 30
0.0
 10
20.89449
 20
-5.47742
 30
0.0
 10
20.89449
 20
-5.47742
 30
0.0
 10
20.86991
 20
-5.49313
 30
0.0
 10
20.84168
 20
-5.51146
 30
0.0
 10
20.81653
 20
-5.54157
 30
0.0
 10
20.81653
 20
-5.54157
 30
0.0
 10
20.79294
 20
-5.57086
 30
0.0
 10
20.77247
 20
-5.61281
 30
0.0
 10
20.75869
 20
-5.6731
 30
0.0
 10
20.75869
 20
-5.6731
 30
0.0
 10
20.74444
 20
-5.73298
 30
0.0
 10
20.73544
 20
-5.81187
 30
0.0
 10
20.715
 20
-5.97434
 30
0.0
 10
20.715
 20
-5.97434
 30
0.0
 10
20.715
 20
-5.97434
 30
0.0
 10
20.71501
 20
-5.98323
 30
0.0
 10
20.71501
 20
-5.98323
 30
0.0
 10
20.71501
 20
-5.98323
 30
0.0
 10
20.59394
 20
-5.98261
 30
0.0
 10
20.49593
 20
-6.08486
 30
0.0
 10
20.50523
 20
-6.20613
 30
0.0
 10
20.50523
 20
-6.20613
 30
0.0
 10
20.50523
 20
-6.20613
 30
0.0
 10
20.50524
 20
-6.24451
 30
0.0
 10
20.50524
 20
-6.24451
 30
0.0
 10
20.50524
 20
-6.24451
 30
0.0
 10
20.50524
 20
-6.24451
 30
0.0
 10
19.43713
 20
-6.24451
 30
0.0
 10
19.43713
 20
-6.24451
 30
0.0
 10
19.43713
 20
-6.24451
 30
0.0
 10
19.44201
 20
-6.09816
 30
0.0
 10
19.37093
 20
-6.02161
 30
0.0
 10
19.19086
 20
-5.9742
 30
0.0
 10
19.19086
 20
-5.9742
 30
0.0
 10
19.18456
 20
-5.95002
 30
0.0
 10
19.17719
 20
-5.92893
 30
0.0
 10
19.16885
 20
-5.90834
 30
0.0
 10
19.16885
 20
-5.90834
 30
0.0
 10
19.14622
 20
-5.85169
 30
0.0
 10
19.11521
 20
-5.79809
 30
0.0
 10
19.07955
 20
-5.74841
 30
0.0
 10
19.07955
 20
-5.74841
 30
0.0
 10
19.0447
 20
-5.69894
 30
0.0
 10
19.00479
 20
-5.65285
 30
0.0
 10
18.95146
 20
-5.62887
 30
0.0
 10
18.95146
 20
-5.62887
 30
0.0
 10
18.898
 20
-5.6042
 30
0.0
 10
18.82847
 20
-5.60172
 30
0.0
 10
18.76736
 20
-5.61171
 30
0.0
 10
18.76736
 20
-5.61171
 30
0.0
 10
18.70708
 20
-5.62122
 30
0.0
 10
18.65339
 20
-5.6421
 30
0.0
 10
18.6281
 20
-5.70852
 30
0.0
 10
18.6281
 20
-5.70852
 30
0.0
 10
18.57329
 20
-5.70852
 30
0.0
 10
18.51848
 20
-5.70852
 30
0.0
 10
18.46363
 20
-5.70838
 30
0.0
 10
18.46363
 20
-5.70838
 30
0.0
 10
18.39591
 20
-5.64947
 30
0.0
 10
18.32817
 20
-5.5907
 30
0.0
 10
18.26044
 20
-5.53192
 30
0.0
 10
18.26044
 20
-5.53192
 30
0.0
 10
18.26044
 20
-5.53192
 30
0.0
 10
18.07692
 20
-5.53192
 30
0.0
 10
18.07692
 20
-5.53192
 30
0.0
 10
18.07692
 20
-5.53192
 30
0.0
 10
18.07692
 20
-5.39253
 30
0.0
 10
17.95562
 20
-5.27981
 30
0.0
 10
17.80607
 20
-5.27981
 30
0.0
 10
17.80607
 20
-5.27981
 30
0.0
 10
17.6577
 20
-5.27981
 30
0.0
 10
17.53546
 20
-5.39288
 30
0.0
 10
17.53546
 20
-5.53254
 30
0.0
 10
17.53546
 20
-5.53254
 30
0.0
 10
17.53546
 20
-5.53254
 30
0.0
 10
17.53547
 20
-5.53716
 30
0.0
 10
17.53547
 20
-5.53716
 30
0.0
 10
17.53547
 20
-5.53716
 30
0.0
 10
17.53547
 20
-5.53716
 30
0.0
 10
17.35009
 20
-5.53716
 30
0.0
 10
17.35009
 20
-5.53716
 30
0.0
 10
17.35009
 20
-5.53716
 30
0.0
 10
17.35009
 20
-5.53716
 30
0.0
 10
17.35009
 20
-5.54012
 30
0.0
 10
17.35009
 20
-5.54012
 30
0.0
 10
17.35009
 20
-5.54012
 30
0.0
 10
17.27908
 20
-5.71486
 30
0.0
 10
17.20804
 20
-5.88966
 30
0.0
 10
17.137
 20
-6.0644
 30
0.0
 10
17.137
 20
-6.0644
 30
0.0
 10
17.137
 20
-6.0644
 30
0.0
 10
17.137
 20
-6.08452
 30
0.0
 10
17.137
 20
-6.08452
 30
0.0
 10
17.137
 20
-6.08452
 30
0.0
 10
14.46512
 20
-6.08452
 30
0.0
 10
11.79317
 20
-6.08452
 30
0.0
 10
9.12129
 20
-6.08459
 30
0.0
 10
9.12129
 20
-6.08459
 30
0.0
 10
9.02332
 20
-6.12827
 30
0.0
 10
9.07393
 20
-6.26008
 30
0.0
 10
9.08877
 20
-6.40098
 30
0.0
 10
9.08877
 20
-6.40098
 30
0.0
 10
9.11854
 20
-6.68369
 30
0.0
 10
9.1288
 20
-6.88936
 30
0.0
 10
9.1288
 20
-7.04811
 30
0.0
 10
9.1288
 20
-7.04811
 30
0.0
 10
9.1288
 20
-7.04811
 30
0.0
 10
9.0588
 20
-7.04811
 30
0.0
 10
9.0588
 20
-7.04811
 30
0.0
 10
9.0588
 20
-7.04811
 30
0.0
 10
8.96447
 20
-6.82128
 30
0.0
 10
8.62568
 20
-6.6327
 30
0.0
 10
8.4802
 20
-6.65351
 30
0.0
 10
8.4802
 20
-6.65351
 30
0.0
 10
8.2409
 20
-6.68769
 30
0.0
 10
7.79644
 20
-6.79021
 30
0.0
 10
7.52294
 20
-6.85863
 30
0.0
 10
7.52294
 20
-6.85863
 30
0.0
 10
7.24948
 20
-6.92698
 30
0.0
 10
6.32636
 20
-7.20045
 30
0.0
 10
6.32636
 20
-7.20045
 30
0.0
 10
6.32636
 20
-7.20045
 30
0.0
 10
6.32636
 20
-7.20045
 30
0.0
 10
7.21523
 20
-7.47399
 30
0.0
 10
7.42042
 20
-7.54234
 30
0.0
 10
7.42042
 20
-7.54234
 30
0.0
 10
7.62551
 20
-7.61069
 30
0.0
 10
8.34342
 20
-7.78171
 30
0.0
 10
8.51433
 20
-7.74753
 30
0.0
 10
8.51433
 20
-7.74753
 30
0.0
 10
8.66824
 20
-7.71673
 30
0.0
 10
8.87717
 20
-7.60242
 30
0.0
 10
9.01715
 20
-7.35576
 30
0.0
 10
9.01715
 20
-7.35576
 30
0.0
 10
9.01715
 20
-7.35576
 30
0.0
 10
9.1101
 20
-7.35576
 30
0.0
 10
9.1101
 20
-7.35576
 30
0.0
 10
9.1101
 20
-7.35576
 30
0.0
 10
9.07569
 20
-7.61924
 30
0.0
 10
9.00919
 20
-7.7301
 30
0.0
 10
9.04509
 20
-8.19843
 30
0.0
 10
9.04509
 20
-8.19843
 30
0.0
 10
9.05604
 20
-8.34084
 30
0.0
 10
9.13866
 20
-8.30881
 30
0.0
 10
9.13239
 20
-8.33127
 30
0.0
 10
9.13239
 20
-8.33127
 30
0.0
 10
9.13239
 20
-8.33127
 30
0.0
 10
17.137
 20
-8.33127
 30
0.0
 10
17.137
 20
-8.33127
 30
0.0
 10
17.137
 20
-8.33127
 30
0.0
 10
17.137
 20
-8.33127
 30
0.0
 10
17.137
 20
-8.35111
 30
0.0
 10
17.137
 20
-8.35111
 30
0.0
 10
17.137
 20
-8.35111
 30
0.0
 10
17.20804
 20
-8.52599
 30
0.0
 10
17.27907
 20
-8.70086
 30
0.0
 10
17.35008
 20
-8.87566
 30
0.0
 10
17.35008
 20
-8.87566
 30
0.0
 10
17.35008
 20
-8.87566
 30
0.0
 10
17.35009
 20
-8.87862
 30
0.0
 10
17.35009
 20
-8.87862
 30
0.0
 10
17.35009
 20
-8.87862
 30
0.0
 10
17.35009
 20
-8.87862
 30
0.0
 10
17.53547
 20
-8.87862
 30
0.0
 10
17.53547
 20
-8.87862
 30
0.0
 10
17.53547
 20
-8.87862
 30
0.0
 10
17.53547
 20
-8.87862
 30
0.0
 10
17.53547
 20
-8.88317
 30
0.0
 10
17.53547
 20
-8.88317
 30
0.0
 10
17.53547
 20
-8.88317
 30
0.0
 10
17.53547
 20
-9.02208
 30
0.0
 10
17.65769
 20
-9.13597
 30
0.0
 10
17.80607
 20
-9.13597
 30
0.0
 10
17.80607
 20
-9.13597
 30
0.0
 10
17.9556
 20
-9.13597
 30
0.0
 10
18.07692
 20
-9.02249
 30
0.0
 10
18.07692
 20
-8.88386
 30
0.0
 10
18.07692
 20
-8.88386
 30
0.0
 10
18.07692
 20
-8.88386
 30
0.0
 10
18.26046
 20
-8.88386
 30
0.0
 10
18.26046
 20
-8.88386
 30
0.0
 10
18.26046
 20
-8.88386
 30
0.0
 10
18.3281
 20
-8.82502
 30
0.0
 10
18.39577
 20
-8.76618
 30
0.0
 10
18.4634
 20
-8.70734
 30
0.0
 10
18.4634
 20
-8.70734
 30
0.0
 10
18.4634
 20
-8.70734
 30
0.0
 10
18.62822
 20
-8.70734
 30
0.0
 10
18.62822
 20
-8.70734
 30
0.0
 10
18.62822
 20
-8.70734
 30
0.0
 10
18.65354
 20
-8.77314
 30
0.0
 10
18.70713
 20
-8.79429
 30
0.0
 10
18.76736
 20
-8.80456
 30
0.0
 10
18.76736
 20
-8.80456
 30
0.0
 10
18.82848
 20
-8.81379
 30
0.0
 10
18.89799
 20
-8.81145
 30
0.0
 10
18.95146
 20
-8.78747
 30
0.0
 10
18.95146
 20
-8.78747
 30
0.0
 10
19.0048
 20
-8.76314
 30
0.0
 10
19.04468
 20
-8.71698
 30
0.0
 10
19.07955
 20
-8.66737
 30
0.0
 10
19.07955
 20
-8.66737
 30
0.0
 10
19.11521
 20
-8.6179
 30
0.0
 10
19.14621
 20
-8.56485
 30
0.0
 10
19.16885
 20
-8.50759
 30
0.0
 10
19.16885
 20
-8.50759
 30
0.0
 10
19.1772
 20
-8.48699
 30
0.0
 10
19.18455
 20
-8.46577
 30
0.0
 10
19.19083
 20
-8.44158
 30
0.0
 10
19.19083
 20
-8.44158
 30
0.0
 10
19.37073
 20
-8.39472
 30
0.0
 10
19.44183
 20
-8.31763
 30
0.0
 10
19.43711
 20
-8.17128
 30
0.0
 10
19.43711
 20
-8.17128
 30
0.0
 10
19.79317
 20
-8.17127
 30
0.0
 10
20.14918
 20
-8.17128
 30
0.0
 10
20.50523
 20
-8.17128
 30
0.0
 10
20.50523
 20
-8.17128
 30
0.0
 10
20.50523
 20
-8.17128
 30
0.0
 10
20.50524
 20
-8.20966
 30
0.0
 10
20.50524
 20
-8.20966
 30
0.0
 10
20.50524
 20
-8.20966
 30
0.0
 10
20.49593
 20
-8.33141
 30
0.0
 10
20.59394
 20
-8.43324
 30
0.0
 10
20.715
 20
-8.43256
 30
0.0
 10
20.715
 20
-8.43256
 30
0.0
 10
20.715
 20
-8.43256
 30
0.0
 10
20.71501
 20
-8.44158
 30
0.0
 10
20.71501
 20
-8.44158
 30
0.0
 10
20.71501
 20
-8.44158
 30
0.0
 10
20.73545
 20
-8.60529
 30
0.0
 10
20.74442
 20
-8.68377
 30
0.0
 10
20.75869
 20
-8.74372
 30
0.0
 10
20.75869
 20
-8.74372
 30
0.0
 10
20.77248
 20
-8.8038
 30
0.0
 10
20.79293
 20
-8.84514
 30
0.0
 10
20.81653
 20
-8.87594
 30
0.0
 10
20.81653
 20
-8.87594
 30
0.0
 10
20.84169
 20
-8.90536
 30
0.0
 10
20.8699
 20
-8.92431
 30
0.0
 10
20.89449
 20
-8.93947
 30
0.0
 10
20.89449
 20
-8.93947
 30
0.0
 10
20.91972
 20
-8.95449
 30
0.0
 10
20.94142
 20
-8.96751
 30
0.0
 10
20.96274
 20
-8.98026
 30
0.0
 10
20.96274
 20
-8.98026
 30
0.0
 10
20.98542
 20
-8.993
 30
0.0
 10
21.00846
 20
-9.00678
 30
0.0
 10
21.03267
 20
-9.02863
 30
0.0
 10
21.03267
 20
-9.02863
 30
0.0
 10
21.05501
 20
-9.04998
 30
0.0
 10
21.07932
 20
-9.07975
 30
0.0
 10
21.09975
 20
-9.11145
 30
0.0
 10
21.09975
 20
-9.11145
 30
0.0
 10
21.11923
 20
-9.1419
 30
0.0
 10
21.13555
 20
-9.17628
 30
0.0
 10
21.14926
 20
-9.21087
 30
0.0
 10
21.14926
 20
-9.21087
 30
0.0
 10
21.16421
 20
-9.24539
 30
0.0
 10
21.17706
 20
-9.28102
 30
0.0
 10
21.18857
 20
-9.33179
 30
0.0
 10
21.18857
 20
-9.33179
 30
0.0
 10
21.20039
 20
-9.38086
 30
0.0
 10
21.21154
 20
-9.4459
 30
0.0
 10
21.23514
 20
-9.56317
 30
0.0
 10
21.23514
 20
-9.56317
 30
0.0
 10
21.23514
 20
-9.56317
 30
0.0
 10
21.23515
 20
-11.34194
 30
0.0
 10
21.23515
 20
-11.34194
 30
0.0
 10
21.23515
 20
-11.34194
 30
0.0
 10
21.25125
 20
-11.57669
 30
0.0
 10
21.42115
 20
-11.6932
 30
0.0
 10
21.85954
 20
-11.76596
 30
0.0
 10
21.85954
 20
-11.76596
 30
0.0
 10
21.85954
 20
-11.76596
 30
0.0
 10
21.85954
 20
-10.32302
 30
0.0
 10
21.85954
 20
-10.32302
 30
0.0
 10
21.85954
 20
-10.32302
 30
0.0
 10
21.86158
 20
-9.79854
 30
0.0
 10
22.12536
 20
-9.30437
 30
0.0
 10
22.57356
 20
-8.98825
 30
0.0
 10
22.57356
 20
-8.98825
 30
0.0
 10
22.57356
 20
-8.98825
 30
0.0
 10
22.57358
 20
-8.65394
 30
0.0
 10
22.57358
 20
-8.65394
 30
0.0
 10
22.57358
 20
-8.65394
 30
0.0
 10
22.72171
 20
-8.64291
 30
0.0
 10
22.84253
 20
-8.52771
 30
0.0
 10
22.86054
 20
-8.38109
 30
0.0
 10
22.86054
 20
-8.38109
 30
0.0
 10
22.97035
 20
-8.36283
 30
0.0
 10
23.0525
 20
-8.26444
 30
0.0
 10
23.04544
 20
-8.14896
 30
0.0
 10
23.04544
 20
-8.14896
 30
0.0
 10
23.04544
 20
-8.14896
 30
0.0
 10
23.43033
 20
-8.14896
 30
0.0
 10
23.43033
 20
-8.14896
 30
0.0
 10
23.43033
 20
-8.14896
 30
0.0
 10
23.50058
 20
-8.26643
 30
0.0
 10
23.57085
 20
-8.38384
 30
0.0
 10
23.6411
 20
-8.50125
 30
0.0
 10
23.6411
 20
-8.50125
 30
0.0
 10
23.6411
 20
-8.50125
 30
0.0
 10
23.85508
 20
-8.50125
 30
0.0
 10
23.85508
 20
-8.50125
 30
0.0
 10
23.85508
 20
-8.50125
 30
0.0
 10
23.85508
 20
-8.50125
 30
0.0
 10
23.85508
 20
-8.60529
 30
0.0
 10
23.85508
 20
-8.60529
 30
0.0
 10
23.85508
 20
-8.60529
 30
0.0
 10
23.97897
 20
-8.8583
 30
0.0
 10
24.36818
 20
-8.8583
 30
0.0
 10
24.49134
 20
-8.60529
 30
0.0
 10
24.49134
 20
-8.60529
 30
0.0
 10
24.49134
 20
-8.60529
 30
0.0
 10
24.49135
 20
-8.50125
 30
0.0
 10
24.49135
 20
-8.50125
 30
0.0
 10
24.49135
 20
-8.50125
 30
0.0
 10
24.49135
 20
-8.50125
 30
0.0
 10
24.7042
 20
-8.50125
 30
0.0
 10
24.7042
 20
-8.50125
 30
0.0
 10
24.7042
 20
-8.50125
 30
0.0
 10
24.76631
 20
-8.38384
 30
0.0
 10
24.82841
 20
-8.26643
 30
0.0
 10
24.89053
 20
-8.14896
 30
0.0
 10
24.89053
 20
-8.14896
 30
0.0
 10
24.89053
 20
-8.14896
 30
0.0
 10
24.89053
 20
-8.1094
 30
0.0
 10
24.89053
 20
-8.1094
 30
0.0
 10
24.89053
 20
-8.1094
 30
0.0
 10
26.27815
 20
-8.0095
 30
0.0
 10
29.2379
 20
-7.1279
 30
0.0
 10
29.2379
 20
-2.80968
 30
0.0
 10
29.2379
 20
-2.80968
 30
0.0
 10
29.2379
 20
-0.41595
 30
0.0
 10
28.11262
 20
1.86022
 30
0.0
 10
25.36581
 20
3.42987
 30
0.0
 10
25.36581
 20
3.42987
 30
0.0
 10
23.52107
 20
4.48393
 30
0.0
 10
22.2633
 20
4.73081
 30
0.0
 10
21.93629
 20
6.19565
 30
0.0
 10
21.93629
 20
6.19565
 30
0.0
 10
21.6864
 20
7.31524
 30
0.0
 10
22.26812
 20
8.89917
 30
0.0
 10
24.34872
 20
10.02089
 30
0.0
 10
24.34872
 20
10.02089
 30
0.0
 10
24.34872
 20
10.02089
 30
0.0
 10
24.51912
 20
10.1731
 30
0.0
 10
24.45004
 20
10.43947
 30
0.0
 10
24.45004
 20
10.43947
 30
0.0
 10
25.93316
 20
11.33451
 30
0.0
 10
27.0783
 20
12.73263
 30
0.0
 10
27.64936
 20
14.39754
 30
0.0
 10
27.64936
 20
14.39754
 30
0.0
 10
27.64936
 20
14.39754
 30
0.0
 10
27.96542
 20
14.39755
 30
0.0
 10
27.96542
 20
14.39755
 30
0.0
 10
27.96542
 20
14.39755
 30
0.0
 10
28.03979
 20
14.27369
 30
0.0
 10
28.15217
 20
14.16555
 30
0.0
 10
28.30893
 20
14.06137
 30
0.0
 10
28.30893
 20
14.06137
 30
0.0
 10
28.30893
 20
14.06137
 30
0.0
 10
28.30894
 20
14.05231
 30
0.0
 10
28.30894
 20
14.05231
 30
0.0
 10
28.30894
 20
14.05231
 30
0.0
 10
28.43105
 20
13.27503
 30
0.0
 10
29.68171
 20
13.35774
 30
0.0
 10
29.68171
 20
14.14339
 30
0.0
 10
29.68171
 20
14.14339
 30
0.0
 10
29.68171
 20
14.14339
 30
0.0
 10
29.68173
 20
14.25285
 30
0.0
 10
29.68173
 20
14.25285
 30
0.0
 10
29.68173
 20
14.25285
 30
0.0
 10
29.68173
 20
14.25285
 30
0.0
 10
30.21501
 20
15.018
 30
0.0
 10
31.18157
 20
15.30953
 30
0.0
 10
31.18157
 20
15.30953
 30
0.0
 10
31.18157
 20
15.30953
 30
0.0
 10
32.1701
 20
15.73734
 30
0.0
 10
32.75012
 20
14.77891
 30
0.0
 10
32.75012
 20
14.77891
 30
0.0
 10
33.54114
 20
14.77893
 30
0.0
 10
34.19968
 20
15.43427
 30
0.0
 10
34.27781
 20
16.28814
 30
0.0
 10
34.27781
 20
16.28814
 30
0.0
 10
34.27781
 20
16.28814
 30
0.0
 10
29.28507
 20
16.28815
 30
0.0
 10
29.28507
 20
16.28815
 30
0.0
  0
SPLINE
  5
75
330
1F
100
AcDbEntity
  8
layer 1
 62
     5
370
     0
100
AcDbSpline
210
0.0
220
0.0
230
1.0
 70
    11
 71
     3
 72
    36
 73
    32
 74
     0
 42
0.000000001
 43
0.0000000001
 40
0.0
 40
0.0
 40
0.0
 40
0.0
 40
0.1111111111111111
 40
0.1111111111111111
 40
0.1111111111111111
 40
0.1111111111111111
 40
0.2222222222222222
 40
0.2222222222222222
 40
0.2222222222222222
 40
0.2222222222222222
 40
0.3333333333333333
 40
0.3333333333333333
 40
0.3333333333333333
 40
0.3333333333333333
 40
0.4444444444444444
 40
0.4444444444444444
 40
0.4444444444444444
 40
0.4444444444444444
 40
0.5555555555555556
 40
0.5555555555555556
 40
0.5555555555555556
 40
0.5555555555555556
 40
0.6666666666666666
 40
0.6666666666666666
 40
0.6666666666666666
 40
0.6666666666666666
 40
0.7777777777777778
 40
0.7777777777777778
 40
0.7777777777777778
 40
0.7777777777777778
 40
1.0
 40
1.0
 40
1.0
 40
1.0
 10
7.72094
 20
15.40331
 30
0.0
 10
7.72094
 20
15.37527
 30
0.0
 10
7.69819
 20
15.35252
 30
0.0
 10
7.67012
 20
15.35252
 30
0.0
 10
7.67012
 20
15.35252
 30
0.0
 10
7.67012
 20
15.35252
 30
0.0
 10
7.13672
 20
15.35253
 30
0.0
 10
7.13672
 20
15.35253
 30
0.0
 10
7.13672
 20
15.35253
 30
0.0
 10
7.10868
 20
15.35253
 30
0.0
 10
7.08593
 20
15.37526
 30
0.0
 10
7.08593
 20
15.4033
 30
0.0
 10
7.08593
 20
15.4033
 30
0.0
 10
7.08593
 20
15.4033
 30
0.0
 10
7.08594
 20
15.61921
 30
0.0
 10
7.08594
 20
15.61921
 30
0.0
 10
7.08594
 20
15.61921
 30
0.0
 10
7.08594
 20
15.64729
 30
0.0
 10
7.10867
 20
15.67002
 30
0.0
 10
7.13671
 20
15.67002
 30
0.0
 10
7.13671
 20
15.67002
 30
0.0
 10
7.13671
 20
15.67002
 30
0.0
 10
7.67012
 20
15.67003
 30
0.0
 10
7.67012
 20
15.67003
 30
0.0
 10
7.67012
 20
15.67003
 30
0.0
 10
7.69819
 20
15.67003
 30
0.0
 10
7.72093
 20
15.64728
 30
0.0
 10
7.72093
 20
15.6192
 30
0.0
 10
7.72093
 20
15.6192
 30
0.0
 10
7.72093
 20
15.6192
 30
0.0
 10
7.72094
 20
15.40331
 30
0.0
 10
7.72094
 20
15.40331
 30
0.0
  0
SPLINE
  5
76
330
1F
100
AcDbEntity
  8
layer 1
 62
     5
370
     0
100
AcDbSpline
210
0.0
220
0.0
230
1.0
 70
    11
 71
     3
 72
    36
 73
    32
 74
     0
 42
0.000000001
 43
0.0000000001
 40
0.0
 40
0.0
 40
0.0
 40
0.0
 40
0.1111111111111111
 40
0.1111111111111111
 40
0.1111111111111111
 40
0.1111111111111111
 40
0.2222222222222222
 40
0.2222222222222222
 40
0.2222222222222222
 40
0.2222222222222222
 40
0.3333333333333333
 40
0.3333333333333333
 40
0.3333333333333333
 40
0.3333333333333333
 40
0.4444444444444444
 40
0.4444444444444444
 40
0.4444444444444444
 40
0.4444444444444444
 40
0.5555555555555556
 40
0.5555555555555556
 40
0.5555555555555556
 40
0.5555555555555556
 40
0.6666666666666666
 40
0.6666666666666666
 40
0.6666666666666666
 40
0.6666666666666666
 40
0.7777777777777778
 40
0.7777777777777778
 40
0.7777777777777778
 40
0.7777777777777778
 40
1.0
 40
1.0
 40
1.0
 40
1.0
 10
28.041
 20
15.40331
 30
0.0
 10
28.041
 20
15.37527
 30
0.0
 10
28.01826
 20
15.35252
 30
0.0
 10
27.99018
 20
15.35252
 30
0.0
 10
27.99018
 20
15.35252
 30
0.0
 10
27.99018
 20
15.35252
 30
0.0
 10
27.45682
 20
15.35253
 30
0.0
 10
27.45682
 20
15.35253
 30
0.0
 10
27.45682
 20
15.35253
 30
0.0
 10
27.42875
 20
15.35253
 30
0.0
 10
27.406
 20
15.37526
 30
0.0
 10
27.406
 20
15.4033
 30
0.0
 10
27.406
 20
15.4033
 30
0.0
 10
27.406
 20
15.4033
 30
0.0
 10
27.406
 20
15.61921
 30
0.0
 10
27.406
 20
15.61921
 30
0.0
 10
27.406
 20
15.61921
 30
0.0
 10
27.406
 20
15.64729
 30
0.0
 10
27.42874
 20
15.67002
 30
0.0
 10
27.45681
 20
15.67002
 30
0.0
 10
27.45681
 20
15.67002
 30
0.0
 10
27.45681
 20
15.67002
 30
0.0
 10
27.99018
 20
15.67003
 30
0.0
 10
27.99018
 20
15.67003
 30
0.0
 10
27.99018
 20
15.67003
 30
0.0
 10
28.01826
 20
15.67003
 30
0.0
 10
28.041
 20
15.64728
 30
0.0
 10
28.041
 20
15.6192
 30
0.0
 10
28.041
 20
15.6192
 30
0.0
 10
28.041
 20
15.6192
 30
0.0
 10
28.041
 20
15.40331
 30
0.0
 10
28.041
 20
15.40331
 30
0.0
  0
SPLINE
  5
77
330
1F
100
AcDbEntity
  8
layer 1
 62
     5
370
     0
100
AcDbSpline
210
0.0
220
0.0
230
1.0
 70
    11
 71
     3
 72
   772
 73
   768
 74
     0
 42
0.000000001
 43
0.0000000001
 40
0.0
 40
0.0
 40
0.0
 40
0.0
 40
0.0051813471502591
 40
0.0051813471502591
 40
0.0051813471502591
 40
0.0051813471502591
 40
0.0103626943005181
 40
0.0103626943005181
 40
0.0103626943005181
 40
0.0103626943005181
 40
0.0155440414507772
 40
0.0155440414507772
 40
0.0155440414507772
 40
0.0155440414507772
 40
0.0207253886010363
 40
0.0207253886010363
 40
0.0207253886010363
 40
0.0207253886010363
 40
0.0259067357512953
 40
0.0259067357512953
 40
0.0259067357512953
 40
0.0259067357512953
 40
0.0310880829015544
 40
0.0310880829015544
 40
0.0310880829015544
 40
0.0310880829015544
 40
0.0362694300518135
 40
0.0362694300518135
 40
0.0362694300518135
 40
0.0362694300518135
 40
0.0414507772020725
 40
0.0414507772020725
 40
0.0414507772020725
 40
0.0414507772020725
 40
0.0466321243523316
 40
0.0466321243523316
 40
0.0466321243523316
 40
0.0466321243523316
 40
0.0518134715025907
 40
0.0518134715025907
 40
0.0518134715025907
 40
0.0518134715025907
 40
0.0569948186528497
 40
0.0569948186528497
 40
0.0569948186528497
 40
0.0569948186528497
 40
0.0621761658031088
 40
0.0621761658031088
 40
0.0621761658031088
 40
0.0621761658031088
 40
0.0673575129533679
 40
0.0673575129533679
 40
0.0673575129533679
 40
0.0673575129533679
 40
0.0725388601036269
 40
0.0725388601036269
 40
0.0725388601036269
 40
0.0725388601036269
 40
0.077720207253886
 40
0.077720207253886
 40
0.077720207253886
 40
0.077720207253886
 40
0.0829015544041451
 40
0.0829015544041451
 40
0.0829015544041451
 40
0.0829015544041451
 40
0.0880829015544041
 40
0.0880829015544041
 40
0.0880829015544041
 40
0.0880829015544041
 40
0.0932642487046632
 40
0.0932642487046632
 40
0.0932642487046632
 40
0.0932642487046632
 40
0.0984455958549223
 40
0.0984455958549223
 40
0.0984455958549223
 40
0.0984455958549223
 40
0.1036269430051813
 40
0.1036269430051813
 40
0.1036269430051813
 40
0.1036269430051813
 40
0.1088082901554404
 40
0.1088082901554404
 40
0.1088082901554404
 40
0.1088082901554404
 40
0.1139896373056995
 40
0.1139896373056995
 40
0.1139896373056995
 40
0.1139896373056995
 40
0.1191709844559585
 40
0.1191709844559585
 40
0.1191709844559585
 40
0.1191709844559585
 40
0.1243523316062176
 40
0.1243523316062176
 40
0.1243523316062176
 40
0.1243523316062176
 40
0.1295336787564767
 40
0.1295336787564767
 40
0.1295336787564767
 40
0.1295336787564767
 40
0.1347150259067358
 40
0.1347150259067358
 40
0.1347150259067358
 40
0.1347150259067358
 40
0.1398963730569948
 40
0.1398963730569948
 40
0.1398963730569948
 40
0.1398963730569948
 40
0.1450777202072539
 40
0.1450777202072539
 40
0.1450777202072539
 40
0.1450777202072539
 40
0.150259067357513
 40
0.150259067357513
 40
0.150259067357513
 40
0.150259067357513
 40
0.155440414507772
 40
0.155440414507772
 40
0.155440414507772
 40
0.155440414507772
 40
0.1606217616580311
 40
0.1606217616580311
 40
0.1606217616580311
 40
0.1606217616580311
 40
0.1658031088082902
 40
0.1658031088082902
 40
0.1658031088082902
 40
0.1658031088082902
 40
0.1709844559585492
 40
0.1709844559585492
 40
0.1709844559585492
 40
0.1709844559585492
 40
0.1761658031088083
 40
0.1761658031088083
 40
0.1761658031088083
 40
0.1761658031088083
 40
0.1813471502590674
 40
0.1813471502590674
 40
0.1813471502590674
 40
0.1813471502590674
 40
0.1865284974093264
 40
0.1865284974093264
 40
0.1865284974093264
 40
0.1865284974093264
 40
0.1917098445595855
 40
0.1917098445595855
 40
0.1917098445595855
 40
0.1917098445595855
 40
0.1968911917098446
 40
0.1968911917098446
 40
0.1968911917098446
 40
0.1968911917098446
 40
0.2020725388601036
 40
0.2020725388601036
 40
0.2020725388601036
 40
0.2020725388601036
 40
0.2072538860103627
 40
0.2072538860103627
 40
0.2072538860103627
 40
0.2072538860103627
 40
0.2124352331606218
 40
0.2124352331606218
 40
0.2124352331606218
 40
0.2124352331606218
 40
0.2176165803108808
 40
0.2176165803108808
 40
0.2176165803108808
 40
0.2176165803108808
 40
0.2227979274611399
 40
0.2227979274611399
 40
0.2227979274611399
 40
0.2227979274611399
 40
0.227979274611399
 40
0.227979274611399
 40
0.227979274611399
 40
0.227979274611399
 40
0.233160621761658
 40
0.233160621761658
 40
0.233160621761658
 40
0.233160621761658
 40
0.2383419689119171
 40
0.2383419689119171
 40
0.2383419689119171
 40
0.2383419689119171
 40
0.2435233160621762
 40
0.2435233160621762
 40
0.2435233160621762
 40
0.2435233160621762
 40
0.2487046632124352
 40
0.2487046632124352
 40
0.2487046632124352
 40
0.2487046632124352
 40
0.2538860103626943
 40
0.2538860103626943
 40
0.2538860103626943
 40
0.2538860103626943
 40
0.2590673575129533
 40
0.2590673575129533
 40
0.2590673575129533
 40
0.2590673575129533
 40
0.2642487046632124
 40
0.2642487046632124
 40
0.2642487046632124
 40
0.2642487046632124
 40
0.2694300518134715
 40
0.2694300518134715
 40
0.2694300518134715
 40
0.2694300518134715
 40
0.2746113989637305
 40
0.2746113989637305
 40
0.2746113989637305
 40
0.2746113989637305
 40
0.2797927461139896
 40
0.2797927461139896
 40
0.2797927461139896
 40
0.2797927461139896
 40
0.2849740932642487
 40
0.2849740932642487
 40
0.2849740932642487
 40
0.2849740932642487
 40
0.2901554404145077
 40
0.2901554404145077
 40
0.2901554404145077
 40
0.2901554404145077
 40
0.2953367875647668
 40
0.2953367875647668
 40
0.2953367875647668
 40
0.2953367875647668
 40
0.3005181347150259
 40
0.3005181347150259
 40
0.3005181347150259
 40
0.3005181347150259
 40
0.3056994818652849
 40
0.3056994818652849
 40
0.3056994818652849
 40
0.3056994818652849
 40
0.310880829015544
 40
0.310880829015544
 40
0.310880829015544
 40
0.310880829015544
 40
0.3160621761658031
 40
0.3160621761658031
 40
0.3160621761658031
 40
0.3160621761658031
 40
0.3212435233160622
 40
0.3212435233160622
 40
0.3212435233160622
 40
0.3212435233160622
 40
0.3264248704663212
 40
0.3264248704663212
 40
0.3264248704663212
 40
0.3264248704663212
 40
0.3316062176165803
 40
0.3316062176165803
 40
0.3316062176165803
 40
0.3316062176165803
 40
0.3367875647668394
 40
0.3367875647668394
 40
0.3367875647668394
 40
0.3367875647668394
 40
0.3419689119170984
 40
0.3419689119170984
 40
0.3419689119170984
 40
0.3419689119170984
 40
0.3471502590673575
 40
0.3471502590673575
 40
0.3471502590673575
 40
0.3471502590673575
 40
0.3523316062176166
 40
0.3523316062176166
 40
0.3523316062176166
 40
0.3523316062176166
 40
0.3575129533678756
 40
0.3575129533678756
 40
0.3575129533678756
 40
0.3575129533678756
 40
0.3626943005181347
 40
0.3626943005181347
 40
0.3626943005181347
 40
0.3626943005181347
 40
0.3678756476683938
 40
0.3678756476683938
 40
0.3678756476683938
 40
0.3678756476683938
 40
0.3730569948186528
 40
0.3730569948186528
 40
0.3730569948186528
 40
0.3730569948186528
 40
0.3782383419689119
 40
0.3782383419689119
 40
0.3782383419689119
 40
0.3782383419689119
 40
0.383419689119171
 40
0.383419689119171
 40
0.383419689119171
 40
0.383419689119171
 40
0.38860103626943
 40
0.38860103626943
 40
0.38860103626943
 40
0.38860103626943
 40
0.3937823834196891
 40
0.3937823834196891
 40
0.3937823834196891
 40
0.3937823834196891
 40
0.3989637305699482
 40
0.3989637305699482
 40
0.3989637305699482
 40
0.3989637305699482
 40
0.4041450777202072
 40
0.4041450777202072
 40
0.4041450777202072
 40
0.4041450777202072
 40
0.4093264248704663
 40
0.4093264248704663
 40
0.4093264248704663
 40
0.4093264248704663
 40
0.4145077720207254
 40
0.4145077720207254
 40
0.4145077720207254
 40
0.4145077720207254
 40
0.4196891191709844
 40
0.4196891191709844
 40
0.4196891191709844
 40
0.4196891191709844
 40
0.4248704663212435
 40
0.4248704663212435
 40
0.4248704663212435
 40
0.4248704663212435
 40
0.4300518134715026
 40
0.4300518134715026
 40
0.4300518134715026
 40
0.4300518134715026
 40
0.4352331606217616
 40
0.4352331606217616
 40
0.4352331606217616
 40
0.4352331606217616
 40
0.4404145077720207
 40
0.4404145077720207
 40
0.4404145077720207
 40
0.4404145077720207
 40
0.4455958549222798
 40
0.4455958549222798
 40
0.4455958549222798
 40
0.4455958549222798
 40
0.4507772020725389
 40
0.4507772020725389
 40
0.4507772020725389
 40
0.4507772020725389
 40
0.4559585492227979
 40
0.4559585492227979
 40
0.4559585492227979
 40
0.4559585492227979
 40
0.461139896373057
 40
0.461139896373057
 40
0.461139896373057
 40
0.461139896373057
 40
0.4663212435233161
 40
0.4663212435233161
 40
0.4663212435233161
 40
0.4663212435233161
 40
0.4715025906735751
 40
0.4715025906735751
 40
0.4715025906735751
 40
0.4715025906735751
 40
0.4766839378238342
 40
0.4766839378238342
 40
0.4766839378238342
 40
0.4766839378238342
 40
0.4818652849740933
 40
0.4818652849740933
 40
0.4818652849740933
 40
0.4818652849740933
 40
0.4870466321243523
 40
0.4870466321243523
 40
0.4870466321243523
 40
0.4870466321243523
 40
0.4922279792746114
 40
0.4922279792746114
 40
0.4922279792746114
 40
0.4922279792746114
 40
0.4974093264248705
 40
0.4974093264248705
 40
0.4974093264248705
 40
0.4974093264248705
 40
0.5025906735751295
 40
0.5025906735751295
 40
0.5025906735751295
 40
0.5025906735751295
 40
0.5077720207253886
 40
0.5077720207253886
 40
0.5077720207253886
 40
0.5077720207253886
 40
0.5129533678756477
 40
0.5129533678756477
 40
0.5129533678756477
 40
0.5129533678756477
 40
0.5181347150259067
 40
0.5181347150259067
 40
0.5181347150259067
 40
0.5181347150259067
 40
0.5233160621761658
 40
0.5233160621761658
 40
0.5233160621761658
 40
0.5233160621761658
 40
0.5284974093264249
 40
0.5284974093264249
 40
0.5284974093264249
 40
0.5284974093264249
 40
0.533678756476684
 40
0.533678756476684
 40
0.533678756476684
 40
0.533678756476684
 40
0.538860103626943
 40
0.538860103626943
 40
0.538860103626943
 40
0.538860103626943
 40
0.5440414507772021
 40
0.5440414507772021
 40
0.5440414507772021
 40
0.5440414507772021
 40
0.5492227979274611
 40
0.5492227979274611
 40
0.5492227979274611
 40
0.5492227979274611
 40
0.5544041450777202
 40
0.5544041450777202
 40
0.5544041450777202
 40
0.5544041450777202
 40
0.5595854922279793
 40
0.5595854922279793
 40
0.5595854922279793
 40
0.5595854922279793
 40
0.5647668393782384
 40
0.5647668393782384
 40
0.5647668393782384
 40
0.5647668393782384
 40
0.5699481865284974
 40
0.5699481865284974
 40
0.5699481865284974
 40
0.5699481865284974
 40
0.5751295336787565
 40
0.5751295336787565
 40
0.5751295336787565
 40
0.5751295336787565
 40
0.5803108808290155
 40
0.5803108808290155
 40
0.5803108808290155
 40
0.5803108808290155
 40
0.5854922279792746
 40
0.5854922279792746
 40
0.5854922279792746
 40
0.5854922279792746
 40
0.5906735751295337
 40
0.5906735751295337
 40
0.5906735751295337
 40
0.5906735751295337
 40
0.5958549222797928
 40
0.5958549222797928
 40
0.5958549222797928
 40
0.5958549222797928
 40
0.6010362694300518
 40
0.6010362694300518
 40
0.6010362694300518
 40
0.6010362694300518
 40
0.6062176165803109
 40
0.6062176165803109
 40
0.6062176165803109
 40
0.6062176165803109
 40
0.6113989637305699
 40
0.6113989637305699
 40
0.6113989637305699
 40
0.6113989637305699
 40
0.616580310880829
 40
0.616580310880829
 40
0.616580310880829
 40
0.616580310880829
 40
0.6217616580310881
 40
0.6217616580310881
 40
0.6217616580310881
 40
0.6217616580310881
 40
0.6269430051813472
 40
0.6269430051813472
 40
0.6269430051813472
 40
0.6269430051813472
 40
0.6321243523316062
 40
0.6321243523316062
 40
0.6321243523316062
 40
0.6321243523316062
 40
0.6373056994818653
 40
0.6373056994818653
 40
0.6373056994818653
 40
0.6373056994818653
 40
0.6424870466321243
 40
0.6424870466321243
 40
0.6424870466321243
 40
0.6424870466321243
 40
0.6476683937823834
 40
0.6476683937823834
 40
0.6476683937823834
 40
0.6476683937823834
 40
0.6528497409326425
 40
0.6528497409326425
 40
0.6528497409326425
 40
0.6528497409326425
 40
0.6580310880829016
 40
0.6580310880829016
 40
0.6580310880829016
 40
0.6580310880829016
 40
0.6632124352331606
 40
0.6632124352331606
 40
0.6632124352331606
 40
0.6632124352331606
 40
0.6683937823834197
 40
0.6683937823834197
 40
0.6683937823834197
 40
0.6683937823834197
 40
0.6735751295336787
 40
0.6735751295336787
 40
0.6735751295336787
 40
0.6735751295336787
 40
0.6787564766839378
 40
0.6787564766839378
 40
0.6787564766839378
 40
0.6787564766839378
 40
0.6839378238341969
 40
0.6839378238341969
 40
0.6839378238341969
 40
0.6839378238341969
 40
0.689119170984456
 40
0.689119170984456
 40
0.689119170984456
 40
0.689119170984456
 40
0.694300518134715
 40
0.694300518134715
 40
0.694300518134715
 40
0.694300518134715
 40
0.6994818652849741
 40
0.6994818652849741
 40
0.6994818652849741
 40
0.6994818652849741
 40
0.7046632124352331
 40
0.7046632124352331
 40
0.7046632124352331
 40
0.7046632124352331
 40
0.7098445595854922
 40
0.7098445595854922
 40
0.7098445595854922
 40
0.7098445595854922
 40
0.7150259067357513
 40
0.7150259067357513
 40
0.7150259067357513
 40
0.7150259067357513
 40
0.7202072538860104
 40
0.7202072538860104
 40
0.7202072538860104
 40
0.7202072538860104
 40
0.7253886010362695
 40
0.7253886010362695
 40
0.7253886010362695
 40
0.7253886010362695
 40
0.7305699481865285
 40
0.7305699481865285
 40
0.7305699481865285
 40
0.7305699481865285
 40
0.7357512953367875
 40
0.7357512953367875
 40
0.7357512953367875
 40
0.7357512953367875
 40
0.7409326424870466
 40
0.7409326424870466
 40
0.7409326424870466
 40
0.7409326424870466
 40
0.7461139896373057
 40
0.7461139896373057
 40
0.7461139896373057
 40
0.7461139896373057
 40
0.7512953367875648
 40
0.7512953367875648
 40
0.7512953367875648
 40
0.7512953367875648
 40
0.7564766839378239
 40
0.7564766839378239
 40
0.7564766839378239
 40
0.7564766839378239
 40
0.7616580310880829
 40
0.7616580310880829
 40
0.7616580310880829
 40
0.7616580310880829
 40
0.7668393782383419
 40
0.7668393782383419
 40
0.7668393782383419
 40
0.7668393782383419
 40
0.772020725388601
 40
0.772020725388601
 40
0.772020725388601
 40
0.772020725388601
 40
0.7772020725388601
 40
0.7772020725388601
 40
0.7772020725388601
 40
0.7772020725388601
 40
0.7823834196891192
 40
0.7823834196891192
 40
0.7823834196891192
 40
0.7823834196891192
 40
0.7875647668393783
 40
0.7875647668393783
 40
0.7875647668393783
 40
0.7875647668393783
 40
0.7927461139896373
 40
0.7927461139896373
 40
0.7927461139896373
 40
0.7927461139896373
 40
0.7979274611398963
 40
0.7979274611398963
 40
0.7979274611398963
 40
0.7979274611398963
 40
0.8031088082901554
 40
0.8031088082901554
 40
0.8031088082901554
 40
0.8031088082901554
 40
0.8082901554404145
 40
0.8082901554404145
 40
0.8082901554404145
 40
0.8082901554404145
 40
0.8134715025906736
 40
0.8134715025906736
 40
0.8134715025906736
 40
0.8134715025906736
 40
0.8186528497409327
 40
0.8186528497409327
 40
0.8186528497409327
 40
0.8186528497409327
 40
0.8238341968911918
 40
0.8238341968911918
 40
0.8238341968911918
 40
0.8238341968911918
 40
0.8290155440414507
 40
0.8290155440414507
 40
0.8290155440414507
 40
0.8290155440414507
 40
0.8341968911917098
 40
0.8341968911917098
 40
0.8341968911917098
 40
0.8341968911917098
 40
0.8393782383419689
 40
0.8393782383419689
 40
0.8393782383419689
 40
0.8393782383419689
 40
0.844559585492228
 40
0.844559585492228
 40
0.844559585492228
 40
0.844559585492228
 40
0.8497409326424871
 40
0.8497409326424871
 40
0.8497409326424871
 40
0.8497409326424871
 40
0.8549222797927462
 40
0.8549222797927462
 40
0.8549222797927462
 40
0.8549222797927462
 40
0.8601036269430051
 40
0.8601036269430051
 40
0.8601036269430051
 40
0.8601036269430051
 40
0.8652849740932642
 40
0.8652849740932642
 40
0.8652849740932642
 40
0.8652849740932642
 40
0.8704663212435233
 40
0.8704663212435233
 40
0.8704663212435233
 40
0.8704663212435233
 40
0.8756476683937824
 40
0.8756476683937824
 40
0.8756476683937824
 40
0.8756476683937824
 40
0.8808290155440415
 40
0.8808290155440415
 40
0.8808290155440415
 40
0.8808290155440415
 40
0.8860103626943006
 40
0.8860103626943006
 40
0.8860103626943006
 40
0.8860103626943006
 40
0.8911917098445595
 40
0.8911917098445595
 40
0.8911917098445595
 40
0.8911917098445595
 40
0.8963730569948186
 40
0.8963730569948186
 40
0.8963730569948186
 40
0.8963730569948186
 40
0.9015544041450777
 40
0.9015544041450777
 40
0.9015544041450777
 40
0.9015544041450777
 40
0.9067357512953368
 40
0.9067357512953368
 40
0.9067357512953368
 40
0.9067357512953368
 40
0.9119170984455959
 40
0.9119170984455959
 40
0.9119170984455959
 40
0.9119170984455959
 40
0.917098445595855
 40
0.917098445595855
 40
0.917098445595855
 40
0.917098445595855
 40
0.9222797927461139
 40
0.9222797927461139
 40
0.9222797927461139
 40
0.9222797927461139
 40
0.927461139896373
 40
0.927461139896373
 40
0.927461139896373
 40
0.927461139896373
 40
0.9326424870466321
 40
0.9326424870466321
 40
0.9326424870466321
 40
0.9326424870466321
 40
0.9378238341968912
 40
0.9378238341968912
 40
0.9378238341968912
 40
0.9378238341968912
 40
0.9430051813471503
 40
0.9430051813471503
 40
0.9430051813471503
 40
0.9430051813471503
 40
0.9481865284974094
 40
0.9481865284974094
 40
0.9481865284974094
 40
0.9481865284974094
 40
0.9533678756476683
 40
0.9533678756476683
 40
0.9533678756476683
 40
0.9533678756476683
 40
0.9585492227979274
 40
0.9585492227979274
 40
0.9585492227979274
 40
0.9585492227979274
 40
0.9637305699481865
 40
0.9637305699481865
 40
0.9637305699481865
 40
0.9637305699481865
 40
0.9689119170984456
 40
0.9689119170984456
 40
0.9689119170984456
 40
0.9689119170984456
 40
0.9740932642487047
 40
0.9740932642487047
 40
0.9740932642487047
 40
0.9740932642487047
 40
0.9792746113989638
 40
0.9792746113989638
 40
0.9792746113989638
 40
0.9792746113989638
 40
0.9844559585492227
 40
0.9844559585492227
 40
0.9844559585492227
 40
0.9844559585492227
 40
0.9896373056994818
 40
0.9896373056994818
 40
0.9896373056994818
 40
0.9896373056994818
 40
1.0
 40
1.0
 40
1.0
 40
1.0
 10
66.70909
 20
-12.13462
 30
0.0
 10
66.70909
 20
-12.15405
 30
0.0
 10
66.70942
 20
-12.17348
 30
0.0
 10
66.71011
 20
-12.19295
 30
0.0
 10
66.71011
 20
-12.19295
 30
0.0
 10
66.71104
 20
-12.22109
 30
0.0
 10
66.68882
 20
-12.24459
 30
0.0
 10
66.66071
 20
-12.24535
 30
0.0
 10
66.66071
 20
-12.24535
 30
0.0
 10
66.66071
 20
-12.24535
 30
0.0
 10
66.51843
 20
-12.24534
 30
0.0
 10
66.51843
 20
-12.24534
 30
0.0
 10
66.51843
 20
-12.24534
 30
0.0
 10
66.49268
 20
-12.24534
 30
0.0
 10
66.47929
 20
-12.23632
 30
0.0
 10
66.46965
 20
-12.21245
 30
0.0
 10
66.46965
 20
-12.21245
 30
0.0
 10
66.43183
 20
-12.02176
 30
0.0
 10
66.20341
 20
-11.9583
 30
0.0
 10
66.08338
 20
-12.10114
 30
0.0
 10
66.08338
 20
-12.10114
 30
0.0
 10
66.01774
 20
-11.79163
 30
0.0
 10
65.76471
 20
-11.57038
 30
0.0
 10
65.47184
 20
-11.57038
 30
0.0
 10
65.47184
 20
-11.57038
 30
0.0
 10
65.47184
 20
-11.57038
 30
0.0
 10
65.47187
 20
-11.56997
 30
0.0
 10
65.47187
 20
-11.56997
 30
0.0
 10
65.47187
 20
-11.56997
 30
0.0
 10
65.41441
 20
-10.74484
 30
0.0
 10
64.78448
 20
-10.10622
 30
0.0
 10
64.02553
 20
-10.10622
 30
0.0
 10
64.02553
 20
-10.10622
 30
0.0
 10
64.02553
 20
-10.10622
 30
0.0
 10
64.02554
 20
-10.11614
 30
0.0
 10
64.02554
 20
-10.11614
 30
0.0
 10
64.02554
 20
-10.11614
 30
0.0
 10
63.6168
 20
-10.62174
 30
0.0
 10
63.37695
 20
-10.98279
 30
0.0
 10
63.06214
 20
-11.27131
 30
0.0
 10
63.06214
 20
-11.27131
 30
0.0
 10
62.74776
 20
-11.56094
 30
0.0
 10
62.35872
 20
-11.77633
 30
0.0
 10
61.8711
 20
-11.8801
 30
0.0
 10
61.8711
 20
-11.8801
 30
0.0
 10
61.38351
 20
-11.98448
 30
0.0
 10
60.79588
 20
-11.97663
 30
0.0
 10
60.18238
 20
-11.93074
 30
0.0
 10
60.18238
 20
-11.93074
 30
0.0
 10
59.56848
 20
-11.88489
 30
0.0
 10
58.92789
 20
-11.80134
 30
0.0
 10
58.32506
 20
-11.56808
 30
0.0
 10
58.32506
 20
-11.56808
 30
0.0
 10
57.72309
 20
-11.33598
 30
0.0
 10
57.15903
 20
-11.12931
 30
0.0
 10
56.62897
 20
-10.73853
 30
0.0
 10
56.62897
 20
-10.73853
 30
0.0
 10
56.099
 20
-10.34792
 30
0.0
 10
55.60315
 20
-9.94933
 30
0.0
 10
55.21063
 20
-9.70556
 30
0.0
 10
55.21063
 20
-9.70556
 30
0.0
 10
54.81816
 20
-9.46033
 30
0.0
 10
54.52891
 20
-9.37062
 30
0.0
 10
54.25758
 20
-9.32652
 30
0.0
 10
54.25758
 20
-9.32652
 30
0.0
 10
53.98703
 20
-9.28167
 30
0.0
 10
53.73606
 20
-9.28167
 30
0.0
 10
53.49153
 20
-9.32239
 30
0.0
 10
53.49153
 20
-9.32239
 30
0.0
 10
53.24713
 20
-9.36248
 30
0.0
 10
53.01073
 20
-9.44393
 30
0.0
 10
52.79561
 20
-9.60316
 30
0.0
 10
52.79561
 20
-9.60316
 30
0.0
 10
52.58018
 20
-9.76205
 30
0.0
 10
52.37745
 20
-9.9966
 30
0.0
 10
52.28946
 20
-10.33993
 30
0.0
 10
52.28946
 20
-10.33993
 30
0.0
 10
52.28946
 20
-10.33993
 30
0.0
 10
52.28947
 20
-10.43447
 30
0.0
 10
52.28947
 20
-10.43447
 30
0.0
 10
52.28947
 20
-10.43447
 30
0.0
 10
51.93423
 20
-10.32587
 30
0.0
 10
51.57991
 20
-10.5525
 30
0.0
 10
51.48896
 20
-10.90734
 30
0.0
 10
51.48896
 20
-10.90734
 30
0.0
 10
51.48896
 20
-10.90734
 30
0.0
 10
51.09817
 20
-10.90734
 30
0.0
 10
51.09817
 20
-10.90734
 30
0.0
 10
51.09817
 20
-10.90734
 30
0.0
 10
51.09817
 20
-10.90734
 30
0.0
 10
51.09817
 20
-10.82652
 30
0.0
 10
51.09817
 20
-10.82652
 30
0.0
 10
51.09817
 20
-10.82652
 30
0.0
 10
50.67042
 20
-10.10443
 30
0.0
 10
49.91889
 20
-10.21281
 30
0.0
 10
49.56784
 20
-10.90734
 30
0.0
 10
49.56784
 20
-10.90734
 30
0.0
 10
49.56784
 20
-10.90734
 30
0.0
 10
49.15087
 20
-10.90734
 30
0.0
 10
49.15087
 20
-10.90734
 30
0.0
 10
49.15087
 20
-10.90734
 30
0.0
 10
49.10181
 20
-10.78249
 30
0.0
 10
49.03833
 20
-10.67907
 30
0.0
 10
48.94379
 20
-10.59632
 30
0.0
 10
48.94379
 20
-10.59632
 30
0.0
 10
48.75562
 20
-10.43171
 30
0.0
 10
48.52046
 20
-10.2906
 30
0.0
 10
48.35578
 20
-10.2671
 30
0.0
 10
48.35578
 20
-10.2671
 30
0.0
 10
48.09692
 20
-10.2301
 30
0.0
 10
47.6864
 20
-10.21033
 30
0.0
 10
47.46591
 20
-10.17677
 30
0.0
 10
47.46591
 20
-10.17677
 30
0.0
 10
47.24718
 20
-10.14308
 30
0.0
 10
47.05298
 20
-10.10388
 30
0.0
 10
46.86461
 20
-10.04586
 30
0.0
 10
46.86461
 20
-10.04586
 30
0.0
 10
46.67202
 20
-9.98515
 30
0.0
 10
46.48082
 20
-9.90751
 30
0.0
 10
46.33131
 20
-9.81373
 30
0.0
 10
46.33131
 20
-9.81373
 30
0.0
 10
46.17787
 20
-9.72216
 30
0.0
 10
46.11826
 20
-9.68275
 30
0.0
 10
46.00981
 20
-9.57326
 30
0.0
 10
46.00981
 20
-9.57326
 30
0.0
 10
45.89836
 20
-9.46377
 30
0.0
 10
45.7444
 20
-9.33093
 30
0.0
 10
45.63939
 20
-9.22049
 30
0.0
 10
45.63939
 20
-9.22049
 30
0.0
 10
45.53529
 20
-9.11196
 30
0.0
 10
45.36813
 20
-8.94543
 30
0.0
 10
45.25134
 20
-8.83243
 30
0.0
 10
45.25134
 20
-8.83243
 30
0.0
 10
45.13989
 20
-8.72032
 30
0.0
 10
45.00088
 20
-8.53484
 30
0.0
 10
44.828
 20
-8.4091
 30
0.0
 10
44.828
 20
-8.4091
 30
0.0
 10
44.57335
 20
-8.22389
 30
0.0
 10
44.25012
 20
-8.13032
 30
0.0
 10
43.90355
 20
-8.26213
 30
0.0
 10
43.90355
 20
-8.26213
 30
0.0
 10
42.57556
 20
-6.78907
 30
0.0
 10
40.66695
 20
-5.84987
 30
0.0
 10
38.53822
 20
-5.80495
 30
0.0
 10
38.53822
 20
-5.80495
 30
0.0
 10
38.28435
 20
-5.57571
 30
0.0
 10
38.44927
 20
-5.39002
 30
0.0
 10
38.44927
 20
-5.39002
 30
0.0
 10
38.44927
 20
-5.39002
 30
0.0
 10
39.3975
 20
-3.82071
 30
0.0
 10
39.38186
 20
-2.10471
 30
0.0
 10
38.20584
 20
-0.63296
 30
0.0
 10
38.20584
 20
-0.63296
 30
0.0
 10
37.02983
 20
0.83892
 30
0.0
 10
36.04501
 20
0.716
 30
0.0
 10
34.38771
 20
1.8617
 30
0.0
 10
34.38771
 20
1.8617
 30
0.0
 10
32.26872
 20
3.32683
 30
0.0
 10
31.54592
 20
4.83667
 30
0.0
 10
31.54592
 20
6.31471
 30
0.0
 10
31.54592
 20
6.31471
 30
0.0
 10
31.54592
 20
9.07099
 30
0.0
 10
33.21156
 20
9.7319
 30
0.0
 10
34.10101
 20
9.8419
 30
0.0
 10
34.10101
 20
9.8419
 30
0.0
 10
34.10101
 20
9.8419
 30
0.0
 10
34.10101
 20
9.83823
 30
0.0
 10
34.10101
 20
9.83823
 30
0.0
 10
34.10101
 20
9.83823
 30
0.0
 10
34.16316
 20
9.72082
 30
0.0
 10
34.22524
 20
9.60336
 30
0.0
 10
34.28739
 20
9.48592
 30
0.0
 10
34.28739
 20
9.48592
 30
0.0
 10
34.28739
 20
9.48592
 30
0.0
 10
34.50022
 20
9.48593
 30
0.0
 10
34.50022
 20
9.48593
 30
0.0
 10
34.50022
 20
9.48593
 30
0.0
 10
34.50022
 20
9.48593
 30
0.0
 10
34.50022
 20
9.38161
 30
0.0
 10
34.50022
 20
9.38161
 30
0.0
 10
34.50022
 20
9.38161
 30
0.0
 10
34.62338
 20
9.12898
 30
0.0
 10
35.01258
 20
9.12897
 30
0.0
 10
35.13647
 20
9.3816
 30
0.0
 10
35.13647
 20
9.3816
 30
0.0
 10
35.13647
 20
9.3816
 30
0.0
 10
35.13649
 20
9.48593
 30
0.0
 10
35.13649
 20
9.48593
 30
0.0
 10
35.13649
 20
9.48593
 30
0.0
 10
35.13649
 20
9.48593
 30
0.0
 10
35.35049
 20
9.48593
 30
0.0
 10
35.35049
 20
9.48593
 30
0.0
 10
35.35049
 20
9.48593
 30
0.0
 10
35.4207
 20
9.60336
 30
0.0
 10
35.49097
 20
9.72081
 30
0.0
 10
35.56125
 20
9.83822
 30
0.0
 10
35.56125
 20
9.83822
 30
0.0
 10
35.56125
 20
9.83822
 30
0.0
 10
35.94616
 20
9.83823
 30
0.0
 10
35.94616
 20
9.83823
 30
0.0
 10
35.94616
 20
9.83823
 30
0.0
 10
35.94616
 20
9.83823
 30
0.0
 10
35.94616
 20
9.83778
 30
0.0
 10
35.94616
 20
9.83778
 30
0.0
 10
35.94616
 20
9.83778
 30
0.0
 10
35.93886
 20
9.72243
 30
0.0
 10
36.0211
 20
9.62434
 30
0.0
 10
36.13107
 20
9.60612
 30
0.0
 10
36.13107
 20
9.60612
 30
0.0
 10
36.1494
 20
9.45977
 30
0.0
 10
36.27011
 20
9.34488
 30
0.0
 10
36.41797
 20
9.3333
 30
0.0
 10
36.41797
 20
9.3333
 30
0.0
 10
36.41797
 20
9.3333
 30
0.0
 10
36.418
 20
8.99938
 30
0.0
 10
36.418
 20
8.99938
 30
0.0
 10
36.418
 20
8.99938
 30
0.0
 10
36.8662
 20
8.68281
 30
0.0
 10
37.13001
 20
8.18977
 30
0.0
 10
37.13201
 20
7.66419
 30
0.0
 10
37.13201
 20
7.66419
 30
0.0
 10
37.13201
 20
7.66419
 30
0.0
 10
37.13202
 20
6.22125
 30
0.0
 10
37.13202
 20
6.22125
 30
0.0
 10
37.13202
 20
6.22125
 30
0.0
 10
37.57045
 20
6.29481
 30
0.0
 10
37.74034
 20
6.41166
 30
0.0
 10
37.7564
 20
6.64527
 30
0.0
 10
37.7564
 20
6.64527
 30
0.0
 10
37.7564
 20
6.64527
 30
0.0
 10
37.75643
 20
8.42409
 30
0.0
 10
37.75643
 20
8.42409
 30
0.0
 10
37.75643
 20
8.42409
 30
0.0
 10
37.78004
 20
8.54212
 30
0.0
 10
37.79119
 20
8.60687
 30
0.0
 10
37.80297
 20
8.65713
 30
0.0
 10
37.80297
 20
8.65713
 30
0.0
 10
37.81449
 20
8.707
 30
0.0
 10
37.82736
 20
8.74288
 30
0.0
 10
37.84231
 20
8.77761
 30
0.0
 10
37.84231
 20
8.77761
 30
0.0
 10
37.85604
 20
8.81255
 30
0.0
 10
37.87236
 20
8.84541
 30
0.0
 10
37.89178
 20
8.87748
 30
0.0
 10
37.89178
 20
8.87748
 30
0.0
 10
37.91228
 20
8.90881
 30
0.0
 10
37.93657
 20
8.93767
 30
0.0
 10
37.9589
 20
8.95903
 30
0.0
 10
37.9589
 20
8.95903
 30
0.0
 10
37.98308
 20
8.98128
 30
0.0
 10
38.00616
 20
8.99486
 30
0.0
 10
38.02883
 20
9.00747
 30
0.0
 10
38.02883
 20
9.00747
 30
0.0
 10
38.05015
 20
9.02137
 30
0.0
 10
38.07183
 20
9.03289
 30
0.0
 10
38.09704
 20
9.04881
 30
0.0
 10
38.09704
 20
9.04881
 30
0.0
 10
38.12167
 20
9.06457
 30
0.0
 10
38.14989
 20
9.08284
 30
0.0
 10
38.17504
 20
9.11299
 30
0.0
 10
38.17504
 20
9.11299
 30
0.0
 10
38.19862
 20
9.14225
 30
0.0
 10
38.21907
 20
9.18423
 30
0.0
 10
38.23285
 20
9.24449
 30
0.0
 10
38.23285
 20
9.24449
 30
0.0
 10
38.24712
 20
9.3044
 30
0.0
 10
38.25614
 20
9.38325
 30
0.0
 10
38.27653
 20
9.54576
 30
0.0
 10
38.27653
 20
9.54576
 30
0.0
 10
38.27653
 20
9.54576
 30
0.0
 10
38.27657
 20
9.55465
 30
0.0
 10
38.27657
 20
9.55465
 30
0.0
 10
38.27657
 20
9.55465
 30
0.0
 10
38.39762
 20
9.55401
 30
0.0
 10
38.49564
 20
9.65625
 30
0.0
 10
38.48634
 20
9.77755
 30
0.0
 10
38.48634
 20
9.77755
 30
0.0
 10
38.48634
 20
9.77755
 30
0.0
 10
38.48636
 20
9.81593
 30
0.0
 10
38.48636
 20
9.81593
 30
0.0
 10
38.48636
 20
9.81593
 30
0.0
 10
38.48636
 20
9.81593
 30
0.0
 10
39.55447
 20
9.81593
 30
0.0
 10
39.55447
 20
9.81593
 30
0.0
 10
39.55447
 20
9.81593
 30
0.0
 10
39.54959
 20
9.66956
 30
0.0
 10
39.6206
 20
9.59299
 30
0.0
 10
39.80071
 20
9.54559
 30
0.0
 10
39.80071
 20
9.54559
 30
0.0
 10
39.807
 20
9.52145
 30
0.0
 10
39.81436
 20
9.50032
 30
0.0
 10
39.8227
 20
9.47972
 30
0.0
 10
39.8227
 20
9.47972
 30
0.0
 10
39.84538
 20
9.42308
 30
0.0
 10
39.87637
 20
9.36947
 30
0.0
 10
39.91199
 20
9.31983
 30
0.0
 10
39.91199
 20
9.31983
 30
0.0
 10
39.94686
 20
9.27037
 30
0.0
 10
39.98675
 20
9.22423
 30
0.0
 10
40.04008
 20
9.20025
 30
0.0
 10
40.04008
 20
9.20025
 30
0.0
 10
40.09358
 20
9.17559
 30
0.0
 10
40.16307
 20
9.17314
 30
0.0
 10
40.22418
 20
9.1831
 30
0.0
 10
40.22418
 20
9.1831
 30
0.0
 10
40.28448
 20
9.19262
 30
0.0
 10
40.33815
 20
9.21352
 30
0.0
 10
40.36344
 20
9.2799
 30
0.0
 10
40.36344
 20
9.2799
 30
0.0
 10
40.41831
 20
9.27991
 30
0.0
 10
40.47306
 20
9.2799
 30
0.0
 10
40.5279
 20
9.27976
 30
0.0
 10
40.5279
 20
9.27976
 30
0.0
 10
40.59567
 20
9.22085
 30
0.0
 10
40.66337
 20
9.16208
 30
0.0
 10
40.7311
 20
9.10331
 30
0.0
 10
40.7311
 20
9.10331
 30
0.0
 10
40.7311
 20
9.10331
 30
0.0
 10
40.91468
 20
9.10332
 30
0.0
 10
40.91468
 20
9.10332
 30
0.0
 10
40.91468
 20
9.10332
 30
0.0
 10
40.91468
 20
8.96396
 30
0.0
 10
41.03592
 20
8.8512
 30
0.0
 10
41.1855
 20
8.8512
 30
0.0
 10
41.1855
 20
8.8512
 30
0.0
 10
41.33386
 20
8.85121
 30
0.0
 10
41.45608
 20
8.96426
 30
0.0
 10
41.45608
 20
9.10393
 30
0.0
 10
41.45608
 20
9.10393
 30
0.0
 10
41.45608
 20
9.10393
 30
0.0
 10
41.45609
 20
9.10856
 30
0.0
 10
41.45609
 20
9.10856
 30
0.0
 10
41.45609
 20
9.10856
 30
0.0
 10
41.45609
 20
9.10856
 30
0.0
 10
41.64151
 20
9.10856
 30
0.0
 10
41.64151
 20
9.10856
 30
0.0
 10
41.64151
 20
9.10856
 30
0.0
 10
41.64151
 20
9.10856
 30
0.0
 10
41.64151
 20
9.11152
 30
0.0
 10
41.64151
 20
9.11152
 30
0.0
 10
41.64151
 20
9.11152
 30
0.0
 10
41.71248
 20
9.28624
 30
0.0
 10
41.78351
 20
9.46105
 30
0.0
 10
41.85454
 20
9.63578
 30
0.0
 10
41.85454
 20
9.63578
 30
0.0
 10
41.85454
 20
9.63578
 30
0.0
 10
41.85456
 20
9.65595
 30
0.0
 10
41.85456
 20
9.65595
 30
0.0
 10
41.85456
 20
9.65595
 30
0.0
 10
41.85456
 20
9.65595
 30
0.0
 10
49.87028
 20
9.65595
 30
0.0
 10
49.87028
 20
9.65595
 30
0.0
 10
49.87028
 20
9.65595
 30
0.0
 10
49.96823
 20
9.69963
 30
0.0
 10
49.91765
 20
9.83146
 30
0.0
 10
49.90276
 20
9.97233
 30
0.0
 10
49.90276
 20
9.97233
 30
0.0
 10
49.87302
 20
10.25507
 30
0.0
 10
49.86274
 20
10.46071
 30
0.0
 10
49.86274
 20
10.61946
 30
0.0
 10
49.86274
 20
10.61946
 30
0.0
 10
49.86274
 20
10.61946
 30
0.0
 10
49.93275
 20
10.61946
 30
0.0
 10
49.93275
 20
10.61946
 30
0.0
 10
49.93275
 20
10.61946
 30
0.0
 10
50.02709
 20
10.39267
 30
0.0
 10
50.36586
 20
10.20409
 30
0.0
 10
50.51137
 20
10.22486
 30
0.0
 10
50.51137
 20
10.22486
 30
0.0
 10
50.75067
 20
10.25908
 30
0.0
 10
51.19509
 20
10.3616
 30
0.0
 10
51.46863
 20
10.42998
 30
0.0
 10
51.46863
 20
10.42998
 30
0.0
 10
51.7421
 20
10.49838
 30
0.0
 10
52.66518
 20
10.77184
 30
0.0
 10
52.66518
 20
10.77184
 30
0.0
 10
52.66518
 20
10.77184
 30
0.0
 10
52.66518
 20
10.77184
 30
0.0
 10
51.77635
 20
11.04538
 30
0.0
 10
51.57116
 20
11.11373
 30
0.0
 10
51.57116
 20
11.11373
 30
0.0
 10
51.36606
 20
11.18209
 30
0.0
 10
50.64815
 20
11.35306
 30
0.0
 10
50.4772
 20
11.31888
 30
0.0
 10
50.4772
 20
11.31888
 30
0.0
 10
50.32335
 20
11.28812
 30
0.0
 10
50.11436
 20
11.17381
 30
0.0
 10
49.97443
 20
10.92714
 30
0.0
 10
49.97443
 20
10.92714
 30
0.0
 10
49.97443
 20
10.92714
 30
0.0
 10
49.88151
 20
10.92716
 30
0.0
 10
49.88151
 20
10.92716
 30
0.0
 10
49.88151
 20
10.92716
 30
0.0
 10
49.91588
 20
11.19066
 30
0.0
 10
49.98235
 20
11.30145
 30
0.0
 10
49.94645
 20
11.76978
 30
0.0
 10
49.94645
 20
11.76978
 30
0.0
 10
49.93553
 20
11.9122
 30
0.0
 10
49.85288
 20
11.88019
 30
0.0
 10
49.85916
 20
11.90266
 30
0.0
 10
49.85916
 20
11.90266
 30
0.0
 10
49.85916
 20
11.90266
 30
0.0
 10
41.85456
 20
11.90266
 30
0.0
 10
41.85456
 20
11.90266
 30
0.0
 10
41.85456
 20
11.90266
 30
0.0
 10
41.85456
 20
11.90266
 30
0.0
 10
41.85456
 20
11.92254
 30
0.0
 10
41.85456
 20
11.92254
 30
0.0
 10
41.85456
 20
11.92254
 30
0.0
 10
41.78352
 20
12.09739
 30
0.0
 10
41.71247
 20
12.27225
 30
0.0
 10
41.6415
 20
12.44708
 30
0.0
 10
41.6415
 20
12.44708
 30
0.0
 10
41.6415
 20
12.44708
 30
0.0
 10
41.64151
 20
12.45005
 30
0.0
 10
41.64151
 20
12.45005
 30
0.0
 10
41.64151
 20
12.45005
 30
0.0
 10
41.64151
 20
12.45005
 30
0.0
 10
41.45609
 20
12.45005
 30
0.0
 10
41.45609
 20
12.45005
 30
0.0
 10
41.45609
 20
12.45005
 30
0.0
 10
41.45609
 20
12.45005
 30
0.0
 10
41.45609
 20
12.45457
 30
0.0
 10
41.45609
 20
12.45457
 30
0.0
 10
41.45609
 20
12.45457
 30
0.0
 10
41.45609
 20
12.59352
 30
0.0
 10
41.33385
 20
12.70739
 30
0.0
 10
41.1855
 20
12.70739
 30
0.0
 10
41.1855
 20
12.70739
 30
0.0
 10
41.036
 20
12.7074
 30
0.0
 10
40.91465
 20
12.59391
 30
0.0
 10
40.91465
 20
12.45528
 30
0.0
 10
40.91465
 20
12.45528
 30
0.0
 10
40.91465
 20
12.45528
 30
0.0
 10
40.73112
 20
12.45529
 30
0.0
 10
40.73112
 20
12.45529
 30
0.0
 10
40.73112
 20
12.45529
 30
0.0
 10
40.66346
 20
12.39645
 30
0.0
 10
40.59577
 20
12.33756
 30
0.0
 10
40.52818
 20
12.27872
 30
0.0
 10
40.52818
 20
12.27872
 30
0.0
 10
40.52818
 20
12.27872
 30
0.0
 10
40.36338
 20
12.27874
 30
0.0
 10
40.36338
 20
12.27874
 30
0.0
 10
40.36338
 20
12.27874
 30
0.0
 10
40.33802
 20
12.34454
 30
0.0
 10
40.2844
 20
12.36571
 30
0.0
 10
40.22418
 20
12.37594
 30
0.0
 10
40.22418
 20
12.37594
 30
0.0
 10
40.16308
 20
12.38522
 30
0.0
 10
40.09355
 20
12.38283
 30
0.0
 10
40.04008
 20
12.35885
 30
0.0
 10
40.04008
 20
12.35885
 30
0.0
 10
39.98678
 20
12.33454
 30
0.0
 10
39.94685
 20
12.28837
 30
0.0
 10
39.91199
 20
12.23876
 30
0.0
 10
39.91199
 20
12.23876
 30
0.0
 10
39.87637
 20
12.1893
 30
0.0
 10
39.84536
 20
12.13627
 30
0.0
 10
39.8227
 20
12.07901
 30
0.0
 10
39.8227
 20
12.07901
 30
0.0
 10
39.81438
 20
12.05837
 30
0.0
 10
39.80698
 20
12.03718
 30
0.0
 10
39.80071
 20
12.013
 30
0.0
 10
39.80071
 20
12.013
 30
0.0
 10
39.62083
 20
11.96616
 30
0.0
 10
39.54971
 20
11.88905
 30
0.0
 10
39.55446
 20
11.74266
 30
0.0
 10
39.55446
 20
11.74266
 30
0.0
 10
39.55446
 20
11.74266
 30
0.0
 10
38.48636
 20
11.74268
 30
0.0
 10
38.48636
 20
11.74268
 30
0.0
 10
38.48636
 20
11.74268
 30
0.0
 10
38.48636
 20
11.74268
 30
0.0
 10
38.48636
 20
11.78106
 30
0.0
 10
38.48636
 20
11.78106
 30
0.0
 10
38.48636
 20
11.78106
 30
0.0
 10
38.49564
 20
11.90284
 30
0.0
 10
38.3976
 20
12.00463
 30
0.0
 10
38.27653
 20
12.00394
 30
0.0
 10
38.27653
 20
12.00394
 30
0.0
 10
38.27653
 20
12.00394
 30
0.0
 10
38.27657
 20
12.01301
 30
0.0
 10
38.27657
 20
12.01301
 30
0.0
 10
38.27657
 20
12.01301
 30
0.0
 10
38.25617
 20
12.17672
 30
0.0
 10
38.24711
 20
12.25519
 30
0.0
 10
38.23285
 20
12.3151
 30
0.0
 10
38.23285
 20
12.3151
 30
0.0
 10
38.2191
 20
12.37524
 30
0.0
 10
38.19861
 20
12.41656
 30
0.0
 10
38.17504
 20
12.44732
 30
0.0
 10
38.17504
 20
12.44732
 30
0.0
 10
38.14993
 20
12.47676
 30
0.0
 10
38.12164
 20
12.49573
 30
0.0
 10
38.09704
 20
12.51089
 30
0.0
 10
38.09704
 20
12.51089
 30
0.0
 10
38.07186
 20
12.52589
 30
0.0
 10
38.05012
 20
12.53893
 30
0.0
 10
38.02883
 20
12.55164
 30
0.0
 10
38.02883
 20
12.55164
 30
0.0
 10
38.00618
 20
12.56443
 30
0.0
 10
37.98308
 20
12.5782
 30
0.0
 10
37.9589
 20
12.60004
 30
0.0
 10
37.9589
 20
12.60004
 30
0.0
 10
37.93661
 20
12.62142
 30
0.0
 10
37.91225
 20
12.65117
 30
0.0
 10
37.89178
 20
12.68283
 30
0.0
 10
37.89178
 20
12.68283
 30
0.0
 10
37.87239
 20
12.7133
 30
0.0
 10
37.85603
 20
12.7477
 30
0.0
 10
37.84231
 20
12.78229
 30
0.0
 10
37.84231
 20
12.78229
 30
0.0
 10
37.82739
 20
12.81678
 30
0.0
 10
37.81448
 20
12.8524
 30
0.0
 10
37.80297
 20
12.90318
 30
0.0
 10
37.80297
 20
12.90318
 30
0.0
 10
37.79119
 20
12.95227
 30
0.0
 10
37.78003
 20
13.01731
 30
0.0
 10
37.7564
 20
13.13455
 30
0.0
 10
37.7564
 20
13.13455
 30
0.0
 10
37.7564
 20
13.13455
 30
0.0
 10
37.75643
 20
14.91333
 30
0.0
 10
37.75643
 20
14.91333
 30
0.0
 10
37.75643
 20
14.91333
 30
0.0
 10
37.74035
 20
15.14808
 30
0.0
 10
37.57043
 20
15.26462
 30
0.0
 10
37.13201
 20
15.33735
 30
0.0
 10
37.13201
 20
15.33735
 30
0.0
 10
37.13201
 20
15.33735
 30
0.0
 10
37.13202
 20
13.89445
 30
0.0
 10
37.13202
 20
13.89445
 30
0.0
 10
37.13202
 20
13.89445
 30
0.0
 10
37.13004
 20
13.36996
 30
0.0
 10
36.86618
 20
12.87579
 30
0.0
 10
36.41797
 20
12.55967
 30
0.0
 10
36.41797
 20
12.55967
 30
0.0
 10
36.41797
 20
12.55967
 30
0.0
 10
36.418
 20
12.22536
 30
0.0
 10
36.418
 20
12.22536
 30
0.0
 10
36.418
 20
12.22536
 30
0.0
 10
36.26985
 20
12.21434
 30
0.0
 10
36.14905
 20
12.09909
 30
0.0
 10
36.131
 20
11.95247
 30
0.0
 10
36.131
 20
11.95247
 30
0.0
 10
36.02125
 20
11.93425
 30
0.0
 10
35.93904
 20
11.83585
 30
0.0
 10
35.94613
 20
11.72038
 30
0.0
 10
35.94613
 20
11.72038
 30
0.0
 10
35.94613
 20
11.72038
 30
0.0
 10
35.56127
 20
11.72039
 30
0.0
 10
35.56127
 20
11.72039
 30
0.0
 10
35.56127
 20
11.72039
 30
0.0
 10
35.49098
 20
11.83783
 30
0.0
 10
35.42069
 20
11.95523
 30
0.0
 10
35.35047
 20
12.07267
 30
0.0
 10
35.35047
 20
12.07267
 30
0.0
 10
35.35047
 20
12.07267
 30
0.0
 10
35.13649
 20
12.07268
 30
0.0
 10
35.13649
 20
12.07268
 30
0.0
 10
35.13649
 20
12.07268
 30
0.0
 10
35.13649
 20
12.07268
 30
0.0
 10
35.13649
 20
12.17672
 30
0.0
 10
35.13649
 20
12.17672
 30
0.0
 10
35.13649
 20
12.17672
 30
0.0
 10
35.01259
 20
12.42973
 30
0.0
 10
34.62336
 20
12.42972
 30
0.0
 10
34.50022
 20
12.17671
 30
0.0
 10
34.50022
 20
12.17671
 30
0.0
 10
34.50022
 20
12.17671
 30
0.0
 10
34.50022
 20
12.07268
 30
0.0
 10
34.50022
 20
12.07268
 30
0.0
 10
34.50022
 20
12.07268
 30
0.0
 10
34.50022
 20
12.07268
 30
0.0
 10
34.28742
 20
12.07268
 30
0.0
 10
34.28742
 20
12.07268
 30
0.0
 10
34.28742
 20
12.07268
 30
0.0
 10
34.22527
 20
11.95524
 30
0.0
 10
34.16316
 20
11.83782
 30
0.0
 10
34.10101
 20
11.72038
 30
0.0
 10
34.10101
 20
11.72038
 30
0.0
 10
34.10101
 20
11.72038
 30
0.0
 10
34.10101
 20
11.68081
 30
0.0
 10
34.10101
 20
11.68081
 30
0.0
 10
34.10101
 20
11.68081
 30
0.0
 10
32.71341
 20
11.58089
 30
0.0
 10
29.75364
 20
10.69932
 30
0.0
 10
29.75364
 20
6.38106
 30
0.0
 10
29.75364
 20
6.38106
 30
0.0
 10
29.75364
 20
3.98732
 30
0.0
 10
30.87895
 20
1.71115
 30
0.0
 10
33.62573
 20
0.1415
 30
0.0
 10
33.62573
 20
0.1415
 30
0.0
 10
35.4705
 20
-0.9125
 30
0.0
 10
36.72824
 20
-1.15944
 30
0.0
 10
37.05525
 20
-2.6243
 30
0.0
 10
37.05525
 20
-2.6243
 30
0.0
 10
37.30518
 20
-3.74388
 30
0.0
 10
36.72341
 20
-5.3278
 30
0.0
 10
34.64285
 20
-6.44953
 30
0.0
 10
34.64285
 20
-6.44953
 30
0.0
 10
34.64285
 20
-6.44953
 30
0.0
 10
34.47246
 20
-6.60173
 30
0.0
 10
34.5415
 20
-6.8681
 30
0.0
 10
34.5415
 20
-6.8681
 30
0.0
 10
33.05842
 20
-7.76314
 30
0.0
 10
31.91323
 20
-9.16123
 30
0.0
 10
31.34218
 20
-10.82617
 30
0.0
 10
31.34218
 20
-10.82617
 30
0.0
 10
31.34218
 20
-10.82617
 30
0.0
 10
31.02614
 20
-10.82617
 30
0.0
 10
31.02614
 20
-10.82617
 30
0.0
 10
31.02614
 20
-10.82617
 30
0.0
 10
30.95179
 20
-10.70229
 30
0.0
 10
30.8394
 20
-10.59418
 30
0.0
 10
30.68265
 20
-10.49
 30
0.0
 10
30.68265
 20
-10.49
 30
0.0
 10
30.68265
 20
-10.49
 30
0.0
 10
30.68266
 20
-10.48091
 30
0.0
 10
30.68266
 20
-10.48091
 30
0.0
 10
30.68266
 20
-10.48091
 30
0.0
 10
30.56049
 20
-9.70362
 30
0.0
 10
29.30983
 20
-9.78638
 30
0.0
 10
29.30983
 20
-10.57199
 30
0.0
 10
29.30983
 20
-10.57199
 30
0.0
 10
29.30983
 20
-10.57199
 30
0.0
 10
29.30983
 20
-10.68148
 30
0.0
 10
29.30983
 20
-10.68148
 30
0.0
 10
29.30983
 20
-10.68148
 30
0.0
 10
29.30983
 20
-10.68148
 30
0.0
 10
28.77653
 20
-11.44664
 30
0.0
 10
27.81001
 20
-11.73816
 30
0.0
 10
27.81001
 20
-11.73816
 30
0.0
 10
27.81001
 20
-11.73816
 30
0.0
 10
26.82147
 20
-12.16597
 30
0.0
 10
26.24142
 20
-11.20755
 30
0.0
 10
26.24142
 20
-11.20755
 30
0.0
 10
25.45044
 20
-11.20754
 30
0.0
 10
24.79186
 20
-11.86287
 30
0.0
 10
24.71373
 20
-12.71677
 30
0.0
 10
24.71373
 20
-12.71677
 30
0.0
 10
24.71373
 20
-12.71677
 30
0.0
 10
29.70653
 20
-12.71677
 30
0.0
 10
29.70653
 20
-12.71677
 30
0.0
 10
29.70653
 20
-12.71677
 30
0.0
 10
29.70653
 20
-12.71677
 30
0.0
 10
29.70653
 20
-12.12876
 30
0.0
 10
29.70653
 20
-12.12876
 30
0.0
 10
29.70653
 20
-12.12876
 30
0.0
 10
29.70653
 20
-12.10072
 30
0.0
 10
29.72925
 20
-12.07799
 30
0.0
 10
29.7573
 20
-12.07799
 30
0.0
 10
29.7573
 20
-12.07799
 30
0.0
 10
29.7573
 20
-12.07799
 30
0.0
 10
30.26525
 20
-12.07799
 30
0.0
 10
30.26525
 20
-12.07799
 30
0.0
 10
30.26525
 20
-12.07799
 30
0.0
 10
30.29337
 20
-12.07799
 30
0.0
 10
30.31609
 20
-12.10072
 30
0.0
 10
30.31609
 20
-12.12876
 30
0.0
 10
30.31609
 20
-12.12876
 30
0.0
 10
30.31609
 20
-12.12876
 30
0.0
 10
30.31609
 20
-12.71677
 30
0.0
 10
30.31609
 20
-12.71677
 30
0.0
 10
30.31609
 20
-12.71677
 30
0.0
 10
30.31609
 20
-12.71677
 30
0.0
 10
32.95924
 20
-12.71677
 30
0.0
 10
32.95924
 20
-12.71677
 30
0.0
 10
32.95924
 20
-12.71677
 30
0.0
 10
33.22268
 20
-9.94623
 30
0.0
 10
35.55573
 20
-7.77899
 30
0.0
 10
38.39519
 20
-7.77899
 30
0.0
 10
38.39519
 20
-7.77899
 30
0.0
 10
40.48308
 20
-7.77898
 30
0.0
 10
42.29682
 20
-8.95087
 30
0.0
 10
43.21563
 20
-10.67266
 30
0.0
 10
43.21563
 20
-10.67266
 30
0.0
 10
43.21563
 20
-10.67266
 30
0.0
 10
43.82254
 20
-10.67266
 30
0.0
 10
43.82254
 20
-10.67266
 30
0.0
 10
43.82254
 20
-10.67266
 30
0.0
 10
43.82254
 20
-10.67266
 30
0.0
 10
43.82254
 20
-10.8178
 30
0.0
 10
43.82254
 20
-10.8178
 30
0.0
 10
43.82254
 20
-10.8178
 30
0.0
 10
43.91017
 20
-10.82876
 30
0.0
 10
44.63639
 20
-10.92381
 30
0.0
 10
45.16597
 20
-11.12242
 30
0.0
 10
45.16597
 20
-11.12242
 30
0.0
 10
45.73044
 20
-11.33408
 30
0.0
 10
46.08856
 20
-11.52883
 30
0.0
 10
46.57708
 20
-12.03964
 30
0.0
 10
46.57708
 20
-12.03964
 30
0.0
 10
46.57708
 20
-12.03964
 30
0.0
 10
46.8711
 20
-12.45122
 30
0.0
 10
46.8711
 20
-12.45122
 30
0.0
 10
46.8711
 20
-12.45122
 30
0.0
 10
46.8711
 20
-12.45122
 30
0.0
 10
49.17333
 20
-12.71677
 30
0.0
 10
49.17333
 20
-12.71677
 30
0.0
 10
49.17333
 20
-12.71677
 30
0.0
 10
49.17333
 20
-12.71677
 30
0.0
 10
50.02653
 20
-12.71677
 30
0.0
 10
50.02653
 20
-12.71677
 30
0.0
 10
50.02653
 20
-12.71677
 30
0.0
 10
50.02653
 20
-12.71677
 30
0.0
 10
50.02653
 20
-12.12876
 30
0.0
 10
50.02653
 20
-12.12876
 30
0.0
 10
50.02653
 20
-12.12876
 30
0.0
 10
50.02653
 20
-12.10072
 30
0.0
 10
50.04925
 20
-12.07799
 30
0.0
 10
50.07737
 20
-12.07799
 30
0.0
 10
50.07737
 20
-12.07799
 30
0.0
 10
50.07737
 20
-12.07799
 30
0.0
 10
50.58541
 20
-12.07799
 30
0.0
 10
50.58541
 20
-12.07799
 30
0.0
 10
50.58541
 20
-12.07799
 30
0.0
 10
50.61343
 20
-12.07799
 30
0.0
 10
50.63616
 20
-12.10072
 30
0.0
 10
50.63616
 20
-12.12876
 30
0.0
 10
50.63616
 20
-12.12876
 30
0.0
 10
50.63616
 20
-12.12876
 30
0.0
 10
50.63617
 20
-12.71677
 30
0.0
 10
50.63617
 20
-12.71677
 30
0.0
 10
50.63617
 20
-12.71677
 30
0.0
 10
50.63617
 20
-12.71677
 30
0.0
 10
64.03189
 20
-12.71677
 30
0.0
 10
64.03189
 20
-12.71677
 30
0.0
 10
64.03189
 20
-12.71677
 30
0.0
 10
64.03189
 20
-12.71677
 30
0.0
 10
64.03189
 20
-12.1288
 30
0.0
 10
64.03189
 20
-12.1288
 30
0.0
 10
64.03189
 20
-12.1288
 30
0.0
 10
64.03189
 20
-12.10076
 30
0.0
 10
64.0546
 20
-12.07802
 30
0.0
 10
64.08264
 20
-12.07802
 30
0.0
 10
64.08264
 20
-12.07802
 30
0.0
 10
64.08264
 20
-12.07802
 30
0.0
 10
64.59069
 20
-12.07802
 30
0.0
 10
64.59069
 20
-12.07802
 30
0.0
 10
64.59069
 20
-12.07802
 30
0.0
 10
64.61871
 20
-12.07802
 30
0.0
 10
64.64144
 20
-12.10076
 30
0.0
 10
64.64144
 20
-12.1288
 30
0.0
 10
64.64144
 20
-12.1288
 30
0.0
 10
64.64144
 20
-12.1288
 30
0.0
 10
64.64145
 20
-12.71677
 30
0.0
 10
64.64145
 20
-12.71677
 30
0.0
 10
64.64145
 20
-12.71677
 30
0.0
 10
64.64145
 20
-12.71677
 30
0.0
 10
65.83013
 20
-12.71677
 30
0.0
 10
65.83013
 20
-12.71677
 30
0.0
 10
65.83013
 20
-12.71677
 30
0.0
 10
65.83013
 20
-12.71677
 30
0.0
 10
65.83013
 20
-12.71302
 30
0.0
 10
65.83013
 20
-12.71302
 30
0.0
 10
65.83013
 20
-12.71302
 30
0.0
 10
65.83013
 20
-12.71302
 30
0.0
 10
67.12363
 20
-12.71302
 30
0.0
 10
67.12363
 20
-12.71302
 30
0.0
 10
67.12363
 20
-12.71302
 30
0.0
 10
67.12363
 20
-12.71302
 30
0.0
 10
67.12363
 20
-12.24548
 30
0.0
 10
67.12363
 20
-12.24548
 30
0.0
 10
67.12363
 20
-12.24548
 30
0.0
 10
67.10605
 20
-12.01497
 30
0.0
 10
66.82532
 20
-11.94032
 30
0.0
 10
66.70909
 20
-12.13462
 30
0.0
  0
SPLINE
  5
78
330
1F
100
AcDbEntity
  8
layer 1
 62
     5
370
     0
100
AcDbSpline
210
0.0
220
0.0
230
1.0
 70
    11
 71
     3
 72
    36
 73
    32
 74
     0
 42
0.000000001
 43
0.0000000001
 40
0.0
 40
0.0
 40
0.0
 40
0.0
 40
0.1111111111111111
 40
0.1111111111111111
 40
0.1111111111111111
 40
0.1111111111111111
 40
0.2222222222222222
 40
0.2222222222222222
 40
0.2222222222222222
 40
0.2222222222222222
 40
0.3333333333333333
 40
0.3333333333333333
 40
0.3333333333333333
 40
0.3333333333333333
 40
0.4444444444444444
 40
0.4444444444444444
 40
0.4444444444444444
 40
0.4444444444444444
 40
0.5555555555555556
 40
0.5555555555555556
 40
0.5555555555555556
 40
0.5555555555555556
 40
0.6666666666666666
 40
0.6666666666666666
 40
0.6666666666666666
 40
0.6666666666666666
 40
0.7777777777777778
 40
0.7777777777777778
 40
0.7777777777777778
 40
0.7777777777777778
 40
1.0
 40
1.0
 40
1.0
 40
1.0
 10
31.58557
 20
-12.04781
 30
0.0
 10
31.58557
 20
-12.07592
 30
0.0
 10
31.5628
 20
-12.09866
 30
0.0
 10
31.53476
 20
-12.09866
 30
0.0
 10
31.53476
 20
-12.09866
 30
0.0
 10
31.53476
 20
-12.09866
 30
0.0
 10
31.00139
 20
-12.09866
 30
0.0
 10
31.00139
 20
-12.09866
 30
0.0
 10
31.00139
 20
-12.09866
 30
0.0
 10
30.97328
 20
-12.09866
 30
0.0
 10
30.95054
 20
-12.07592
 30
0.0
 10
30.95054
 20
-12.04781
 30
0.0
 10
30.95054
 20
-12.04781
 30
0.0
 10
30.95054
 20
-12.04781
 30
0.0
 10
30.95055
 20
-11.83193
 30
0.0
 10
30.95055
 20
-11.83193
 30
0.0
 10
30.95055
 20
-11.83193
 30
0.0
 10
30.95055
 20
-11.80389
 30
0.0
 10
30.97328
 20
-11.78116
 30
0.0
 10
31.00139
 20
-11.78116
 30
0.0
 10
31.00139
 20
-11.78116
 30
0.0
 10
31.00139
 20
-11.78116
 30
0.0
 10
31.53477
 20
-11.78116
 30
0.0
 10
31.53477
 20
-11.78116
 30
0.0
 10
31.53477
 20
-11.78116
 30
0.0
 10
31.56283
 20
-11.78116
 30
0.0
 10
31.58554
 20
-11.80389
 30
0.0
 10
31.58554
 20
-11.83193
 30
0.0
 10
31.58554
 20
-11.83193
 30
0.0
 10
31.58554
 20
-11.83193
 30
0.0
 10
31.58557
 20
-12.04781
 30
0.0
 10
31.58557
 20
-12.04781
 30
0.0
  0
SPLINE
  5
79
330
1F
100
AcDbEntity
  8
layer 1
 62
     5
370
     0
100
AcDbSpline
210
0.0
220
0.0
230
1.0
 70
    11
 71
     3
 72
    36
 73
    32
 74
     0
 42
0.000000001
 43
0.0000000001
 40
0.0
 40
0.0
 40
0.0
 40
0.0
 40
0.1111111111111111
 40
0.1111111111111111
 40
0.1111111111111111
 40
0.1111111111111111
 40
0.2222222222222222
 40
0.2222222222222222
 40
0.2222222222222222
 40
0.2222222222222222
 40
0.3333333333333333
 40
0.3333333333333333
 40
0.3333333333333333
 40
0.3333333333333333
 40
0.4444444444444444
 40
0.4444444444444444
 40
0.4444444444444444
 40
0.4444444444444444
 40
0.5555555555555556
 40
0.5555555555555556
 40
0.5555555555555556
 40
0.5555555555555556
 40
0.6666666666666666
 40
0.6666666666666666
 40
0.6666666666666666
 40
0.6666666666666666
 40
0.7777777777777778
 40
0.7777777777777778
 40
0.7777777777777778
 40
0.7777777777777778
 40
1.0
 40
1.0
 40
1.0
 40
1.0
 10
51.90561
 20
-12.04781
 30
0.0
 10
51.90561
 20
-12.07592
 30
0.0
 10
51.88287
 20
-12.09866
 30
0.0
 10
51.85483
 20
-12.09866
 30
0.0
 10
51.85483
 20
-12.09866
 30
0.0
 10
51.85483
 20
-12.09866
 30
0.0
 10
51.32149
 20
-12.09866
 30
0.0
 10
51.32149
 20
-12.09866
 30
0.0
 10
51.32149
 20
-12.09866
 30
0.0
 10
51.29336
 20
-12.09866
 30
0.0
 10
51.27061
 20
-12.07592
 30
0.0
 10
51.27061
 20
-12.04781
 30
0.0
 10
51.27061
 20
-12.04781
 30
0.0
 10
51.27061
 20
-12.04781
 30
0.0
 10
51.27061
 20
-11.83193
 30
0.0
 10
51.27061
 20
-11.83193
 30
0.0
 10
51.27061
 20
-11.83193
 30
0.0
 10
51.27061
 20
-11.80389
 30
0.0
 10
51.29334
 20
-11.78116
 30
0.0
 10
51.32146
 20
-11.78116
 30
0.0
 10
51.32146
 20
-11.78116
 30
0.0
 10
51.32146
 20
-11.78116
 30
0.0
 10
51.85485
 20
-11.78116
 30
0.0
 10
51.85485
 20
-11.78116
 30
0.0
 10
51.85485
 20
-11.78116
 30
0.0
 10
51.88287
 20
-11.78116
 30
0.0
 10
51.90561
 20
-11.80389
 30
0.0
 10
51.90561
 20
-11.83193
 30
0.0
 10
51.90561
 20
-11.83193
 30
0.0
 10
51.90561
 20
-11.83193
 30
0.0
 10
51.90561
 20
-12.04781
 30
0.0
 10
51.90561
 20
-12.04781
 30
0.0
  0
SPLINE
  5
7A
330
1F
100
AcDbEntity
  8
layer 1
 62
     5
370
     0
100
AcDbSpline
210
0.0
220
0.0
230
1.0
 70
    11
 71
     3
 72
   772
 73
   768
 74
     0
 42
0.000000001
 43
0.0000000001
 40
0.0
 40
0.0
 40
0.0
 40
0.0
 40
0.0051813471502591
 40
0.0051813471502591
 40
0.0051813471502591
 40
0.0051813471502591
 40
0.0103626943005181
 40
0.0103626943005181
 40
0.0103626943005181
 40
0.0103626943005181
 40
0.0155440414507772
 40
0.0155440414507772
 40
0.0155440414507772
 40
0.0155440414507772
 40
0.0207253886010363
 40
0.0207253886010363
 40
0.0207253886010363
 40
0.0207253886010363
 40
0.0259067357512953
 40
0.0259067357512953
 40
0.0259067357512953
 40
0.0259067357512953
 40
0.0310880829015544
 40
0.0310880829015544
 40
0.0310880829015544
 40
0.0310880829015544
 40
0.0362694300518135
 40
0.0362694300518135
 40
0.0362694300518135
 40
0.0362694300518135
 40
0.0414507772020725
 40
0.0414507772020725
 40
0.0414507772020725
 40
0.0414507772020725
 40
0.0466321243523316
 40
0.0466321243523316
 40
0.0466321243523316
 40
0.0466321243523316
 40
0.0518134715025907
 40
0.0518134715025907
 40
0.0518134715025907
 40
0.0518134715025907
 40
0.0569948186528497
 40
0.0569948186528497
 40
0.0569948186528497
 40
0.0569948186528497
 40
0.0621761658031088
 40
0.0621761658031088
 40
0.0621761658031088
 40
0.0621761658031088
 40
0.0673575129533679
 40
0.0673575129533679
 40
0.0673575129533679
 40
0.0673575129533679
 40
0.0725388601036269
 40
0.0725388601036269
 40
0.0725388601036269
 40
0.0725388601036269
 40
0.077720207253886
 40
0.077720207253886
 40
0.077720207253886
 40
0.077720207253886
 40
0.0829015544041451
 40
0.0829015544041451
 40
0.0829015544041451
 40
0.0829015544041451
 40
0.0880829015544041
 40
0.0880829015544041
 40
0.0880829015544041
 40
0.0880829015544041
 40
0.0932642487046632
 40
0.0932642487046632
 40
0.0932642487046632
 40
0.0932642487046632
 40
0.0984455958549223
 40
0.0984455958549223
 40
0.0984455958549223
 40
0.0984455958549223
 40
0.1036269430051813
 40
0.1036269430051813
 40
0.1036269430051813
 40
0.1036269430051813
 40
0.1088082901554404
 40
0.1088082901554404
 40
0.1088082901554404
 40
0.1088082901554404
 40
0.1139896373056995
 40
0.1139896373056995
 40
0.1139896373056995
 40
0.1139896373056995
 40
0.1191709844559585
 40
0.1191709844559585
 40
0.1191709844559585
 40
0.1191709844559585
 40
0.1243523316062176
 40
0.1243523316062176
 40
0.1243523316062176
 40
0.1243523316062176
 40
0.1295336787564767
 40
0.1295336787564767
 40
0.1295336787564767
 40
0.1295336787564767
 40
0.1347150259067358
 40
0.1347150259067358
 40
0.1347150259067358
 40
0.1347150259067358
 40
0.1398963730569948
 40
0.1398963730569948
 40
0.1398963730569948
 40
0.1398963730569948
 40
0.1450777202072539
 40
0.1450777202072539
 40
0.1450777202072539
 40
0.1450777202072539
 40
0.150259067357513
 40
0.150259067357513
 40
0.150259067357513
 40
0.150259067357513
 40
0.155440414507772
 40
0.155440414507772
 40
0.155440414507772
 40
0.155440414507772
 40
0.1606217616580311
 40
0.1606217616580311
 40
0.1606217616580311
 40
0.1606217616580311
 40
0.1658031088082902
 40
0.1658031088082902
 40
0.1658031088082902
 40
0.1658031088082902
 40
0.1709844559585492
 40
0.1709844559585492
 40
0.1709844559585492
 40
0.1709844559585492
 40
0.1761658031088083
 40
0.1761658031088083
 40
0.1761658031088083
 40
0.1761658031088083
 40
0.1813471502590674
 40
0.1813471502590674
 40
0.1813471502590674
 40
0.1813471502590674
 40
0.1865284974093264
 40
0.1865284974093264
 40
0.1865284974093264
 40
0.1865284974093264
 40
0.1917098445595855
 40
0.1917098445595855
 40
0.1917098445595855
 40
0.1917098445595855
 40
0.1968911917098446
 40
0.1968911917098446
 40
0.1968911917098446
 40
0.1968911917098446
 40
0.2020725388601036
 40
0.2020725388601036
 40
0.2020725388601036
 40
0.2020725388601036
 40
0.2072538860103627
 40
0.2072538860103627
 40
0.2072538860103627
 40
0.2072538860103627
 40
0.2124352331606218
 40
0.2124352331606218
 40
0.2124352331606218
 40
0.2124352331606218
 40
0.2176165803108808
 40
0.2176165803108808
 40
0.2176165803108808
 40
0.2176165803108808
 40
0.2227979274611399
 40
0.2227979274611399
 40
0.2227979274611399
 40
0.2227979274611399
 40
0.227979274611399
 40
0.227979274611399
 40
0.227979274611399
 40
0.227979274611399
 40
0.233160621761658
 40
0.233160621761658
 40
0.233160621761658
 40
0.233160621761658
 40
0.2383419689119171
 40
0.2383419689119171
 40
0.2383419689119171
 40
0.2383419689119171
 40
0.2435233160621762
 40
0.2435233160621762
 40
0.2435233160621762
 40
0.2435233160621762
 40
0.2487046632124352
 40
0.2487046632124352
 40
0.2487046632124352
 40
0.2487046632124352
 40
0.2538860103626943
 40
0.2538860103626943
 40
0.2538860103626943
 40
0.2538860103626943
 40
0.2590673575129533
 40
0.2590673575129533
 40
0.2590673575129533
 40
0.2590673575129533
 40
0.2642487046632124
 40
0.2642487046632124
 40
0.2642487046632124
 40
0.2642487046632124
 40
0.2694300518134715
 40
0.2694300518134715
 40
0.2694300518134715
 40
0.2694300518134715
 40
0.2746113989637305
 40
0.2746113989637305
 40
0.2746113989637305
 40
0.2746113989637305
 40
0.2797927461139896
 40
0.2797927461139896
 40
0.2797927461139896
 40
0.2797927461139896
 40
0.2849740932642487
 40
0.2849740932642487
 40
0.2849740932642487
 40
0.2849740932642487
 40
0.2901554404145077
 40
0.2901554404145077
 40
0.2901554404145077
 40
0.2901554404145077
 40
0.2953367875647668
 40
0.2953367875647668
 40
0.2953367875647668
 40
0.2953367875647668
 40
0.3005181347150259
 40
0.3005181347150259
 40
0.3005181347150259
 40
0.3005181347150259
 40
0.3056994818652849
 40
0.3056994818652849
 40
0.3056994818652849
 40
0.3056994818652849
 40
0.310880829015544
 40
0.310880829015544
 40
0.310880829015544
 40
0.310880829015544
 40
0.3160621761658031
 40
0.3160621761658031
 40
0.3160621761658031
 40
0.3160621761658031
 40
0.3212435233160622
 40
0.3212435233160622
 40
0.3212435233160622
 40
0.3212435233160622
 40
0.3264248704663212
 40
0.3264248704663212
 40
0.3264248704663212
 40
0.3264248704663212
 40
0.3316062176165803
 40
0.3316062176165803
 40
0.3316062176165803
 40
0.3316062176165803
 40
0.3367875647668394
 40
0.3367875647668394
 40
0.3367875647668394
 40
0.3367875647668394
 40
0.3419689119170984
 40
0.3419689119170984
 40
0.3419689119170984
 40
0.3419689119170984
 40
0.3471502590673575
 40
0.3471502590673575
 40
0.3471502590673575
 40
0.3471502590673575
 40
0.3523316062176166
 40
0.3523316062176166
 40
0.3523316062176166
 40
0.3523316062176166
 40
0.3575129533678756
 40
0.3575129533678756
 40
0.3575129533678756
 40
0.3575129533678756
 40
0.3626943005181347
 40
0.3626943005181347
 40
0.3626943005181347
 40
0.3626943005181347
 40
0.3678756476683938
 40
0.3678756476683938
 40
0.3678756476683938
 40
0.3678756476683938
 40
0.3730569948186528
 40
0.3730569948186528
 40
0.3730569948186528
 40
0.3730569948186528
 40
0.3782383419689119
 40
0.3782383419689119
 40
0.3782383419689119
 40
0.3782383419689119
 40
0.383419689119171
 40
0.383419689119171
 40
0.383419689119171
 40
0.383419689119171
 40
0.38860103626943
 40
0.38860103626943
 40
0.38860103626943
 40
0.38860103626943
 40
0.3937823834196891
 40
0.3937823834196891
 40
0.3937823834196891
 40
0.3937823834196891
 40
0.3989637305699482
 40
0.3989637305699482
 40
0.3989637305699482
 40
0.3989637305699482
 40
0.4041450777202072
 40
0.4041450777202072
 40
0.4041450777202072
 40
0.4041450777202072
 40
0.4093264248704663
 40
0.4093264248704663
 40
0.4093264248704663
 40
0.4093264248704663
 40
0.4145077720207254
 40
0.4145077720207254
 40
0.4145077720207254
 40
0.4145077720207254
 40
0.4196891191709844
 40
0.4196891191709844
 40
0.4196891191709844
 40
0.4196891191709844
 40
0.4248704663212435
 40
0.4248704663212435
 40
0.4248704663212435
 40
0.4248704663212435
 40
0.4300518134715026
 40
0.4300518134715026
 40
0.4300518134715026
 40
0.4300518134715026
 40
0.4352331606217616
 40
0.4352331606217616
 40
0.4352331606217616
 40
0.4352331606217616
 40
0.4404145077720207
 40
0.4404145077720207
 40
0.4404145077720207
 40
0.4404145077720207
 40
0.4455958549222798
 40
0.4455958549222798
 40
0.4455958549222798
 40
0.4455958549222798
 40
0.4507772020725389
 40
0.4507772020725389
 40
0.4507772020725389
 40
0.4507772020725389
 40
0.4559585492227979
 40
0.4559585492227979
 40
0.4559585492227979
 40
0.4559585492227979
 40
0.461139896373057
 40
0.461139896373057
 40
0.461139896373057
 40
0.461139896373057
 40
0.4663212435233161
 40
0.4663212435233161
 40
0.4663212435233161
 40
0.4663212435233161
 40
0.4715025906735751
 40
0.4715025906735751
 40
0.4715025906735751
 40
0.4715025906735751
 40
0.4766839378238342
 40
0.4766839378238342
 40
0.4766839378238342
 40
0.4766839378238342
 40
0.4818652849740933
 40
0.4818652849740933
 40
0.4818652849740933
 40
0.4818652849740933
 40
0.4870466321243523
 40
0.4870466321243523
 40
0.4870466321243523
 40
0.4870466321243523
 40
0.4922279792746114
 40
0.4922279792746114
 40
0.4922279792746114
 40
0.4922279792746114
 40
0.4974093264248705
 40
0.4974093264248705
 40
0.4974093264248705
 40
0.4974093264248705
 40
0.5025906735751295
 40
0.5025906735751295
 40
0.5025906735751295
 40
0.5025906735751295
 40
0.5077720207253886
 40
0.5077720207253886
 40
0.5077720207253886
 40
0.5077720207253886
 40
0.5129533678756477
 40
0.5129533678756477
 40
0.5129533678756477
 40
0.5129533678756477
 40
0.5181347150259067
 40
0.5181347150259067
 40
0.5181347150259067
 40
0.5181347150259067
 40
0.5233160621761658
 40
0.5233160621761658
 40
0.5233160621761658
 40
0.5233160621761658
 40
0.5284974093264249
 40
0.5284974093264249
 40
0.5284974093264249
 40
0.5284974093264249
 40
0.533678756476684
 40
0.533678756476684
 40
0.533678756476684
 40
0.533678756476684
 40
0.538860103626943
 40
0.538860103626943
 40
0.538860103626943
 40
0.538860103626943
 40
0.5440414507772021
 40
0.5440414507772021
 40
0.5440414507772021
 40
0.5440414507772021
 40
0.5492227979274611
 40
0.5492227979274611
 40
0.5492227979274611
 40
0.5492227979274611
 40
0.5544041450777202
 40
0.5544041450777202
 40
0.5544041450777202
 40
0.5544041450777202
 40
0.5595854922279793
 40
0.5595854922279793
 40
0.5595854922279793
 40
0.5595854922279793
 40
0.5647668393782384
 40
0.5647668393782384
 40
0.5647668393782384
 40
0.5647668393782384
 40
0.5699481865284974
 40
0.5699481865284974
 40
0.5699481865284974
 40
0.5699481865284974
 40
0.5751295336787565
 40
0.5751295336787565
 40
0.5751295336787565
 40
0.5751295336787565
 40
0.5803108808290155
 40
0.5803108808290155
 40
0.5803108808290155
 40
0.5803108808290155
 40
0.5854922279792746
 40
0.5854922279792746
 40
0.5854922279792746
 40
0.5854922279792746
 40
0.5906735751295337
 40
0.5906735751295337
 40
0.5906735751295337
 40
0.5906735751295337
 40
0.5958549222797928
 40
0.5958549222797928
 40
0.5958549222797928
 40
0.5958549222797928
 40
0.6010362694300518
 40
0.6010362694300518
 40
0.6010362694300518
 40
0.6010362694300518
 40
0.6062176165803109
 40
0.6062176165803109
 40
0.6062176165803109
 40
0.6062176165803109
 40
0.6113989637305699
 40
0.6113989637305699
 40
0.6113989637305699
 40
0.6113989637305699
 40
0.616580310880829
 40
0.616580310880829
 40
0.616580310880829
 40
0.616580310880829
 40
0.6217616580310881
 40
0.6217616580310881
 40
0.6217616580310881
 40
0.6217616580310881
 40
0.6269430051813472
 40
0.6269430051813472
 40
0.6269430051813472
 40
0.6269430051813472
 40
0.6321243523316062
 40
0.6321243523316062
 40
0.6321243523316062
 40
0.6321243523316062
 40
0.6373056994818653
 40
0.6373056994818653
 40
0.6373056994818653
 40
0.6373056994818653
 40
0.6424870466321243
 40
0.6424870466321243
 40
0.6424870466321243
 40
0.6424870466321243
 40
0.6476683937823834
 40
0.6476683937823834
 40
0.6476683937823834
 40
0.6476683937823834
 40
0.6528497409326425
 40
0.6528497409326425
 40
0.6528497409326425
 40
0.6528497409326425
 40
0.6580310880829016
 40
0.6580310880829016
 40
0.6580310880829016
 40
0.6580310880829016
 40
0.6632124352331606
 40
0.6632124352331606
 40
0.6632124352331606
 40
0.6632124352331606
 40
0.6683937823834197
 40
0.6683937823834197
 40
0.6683937823834197
 40
0.6683937823834197
 40
0.6735751295336787
 40
0.6735751295336787
 40
0.6735751295336787
 40
0.6735751295336787
 40
0.6787564766839378
 40
0.6787564766839378
 40
0.6787564766839378
 40
0.6787564766839378
 40
0.6839378238341969
 40
0.6839378238341969
 40
0.6839378238341969
 40
0.6839378238341969
 40
0.689119170984456
 40
0.689119170984456
 40
0.689119170984456
 40
0.689119170984456
 40
0.694300518134715
 40
0.694300518134715
 40
0.694300518134715
 40
0.694300518134715
 40
0.6994818652849741
 40
0.6994818652849741
 40
0.6994818652849741
 40
0.6994818652849741
 40
0.7046632124352331
 40
0.7046632124352331
 40
0.7046632124352331
 40
0.7046632124352331
 40
0.7098445595854922
 40
0.7098445595854922
 40
0.7098445595854922
 40
0.7098445595854922
 40
0.7150259067357513
 40
0.7150259067357513
 40
0.7150259067357513
 40
0.7150259067357513
 40
0.7202072538860104
 40
0.7202072538860104
 40
0.7202072538860104
 40
0.7202072538860104
 40
0.7253886010362695
 40
0.7253886010362695
 40
0.7253886010362695
 40
0.7253886010362695
 40
0.7305699481865285
 40
0.7305699481865285
 40
0.7305699481865285
 40
0.7305699481865285
 40
0.7357512953367875
 40
0.7357512953367875
 40
0.7357512953367875
 40
0.7357512953367875
 40
0.7409326424870466
 40
0.7409326424870466
 40
0.7409326424870466
 40
0.7409326424870466
 40
0.7461139896373057
 40
0.7461139896373057
 40
0.7461139896373057
 40
0.7461139896373057
 40
0.7512953367875648
 40
0.7512953367875648
 40
0.7512953367875648
 40
0.7512953367875648
 40
0.7564766839378239
 40
0.7564766839378239
 40
0.7564766839378239
 40
0.7564766839378239
 40
0.7616580310880829
 40
0.7616580310880829
 40
0.7616580310880829
 40
0.7616580310880829
 40
0.7668393782383419
 40
0.7668393782383419
 40
0.7668393782383419
 40
0.7668393782383419
 40
0.772020725388601
 40
0.772020725388601
 40
0.772020725388601
 40
0.772020725388601
 40
0.7772020725388601
 40
0.7772020725388601
 40
0.7772020725388601
 40
0.7772020725388601
 40
0.7823834196891192
 40
0.7823834196891192
 40
0.7823834196891192
 40
0.7823834196891192
 40
0.7875647668393783
 40
0.7875647668393783
 40
0.7875647668393783
 40
0.7875647668393783
 40
0.7927461139896373
 40
0.7927461139896373
 40
0.7927461139896373
 40
0.7927461139896373
 40
0.7979274611398963
 40
0.7979274611398963
 40
0.7979274611398963
 40
0.7979274611398963
 40
0.8031088082901554
 40
0.8031088082901554
 40
0.8031088082901554
 40
0.8031088082901554
 40
0.8082901554404145
 40
0.8082901554404145
 40
0.8082901554404145
 40
0.8082901554404145
 40
0.8134715025906736
 40
0.8134715025906736
 40
0.8134715025906736
 40
0.8134715025906736
 40
0.8186528497409327
 40
0.8186528497409327
 40
0.8186528497409327
 40
0.8186528497409327
 40
0.8238341968911918
 40
0.8238341968911918
 40
0.8238341968911918
 40
0.8238341968911918
 40
0.8290155440414507
 40
0.8290155440414507
 40
0.8290155440414507
 40
0.8290155440414507
 40
0.8341968911917098
 40
0.8341968911917098
 40
0.8341968911917098
 40
0.8341968911917098
 40
0.8393782383419689
 40
0.8393782383419689
 40
0.8393782383419689
 40
0.8393782383419689
 40
0.844559585492228
 40
0.844559585492228
 40
0.844559585492228
 40
0.844559585492228
 40
0.8497409326424871
 40
0.8497409326424871
 40
0.8497409326424871
 40
0.8497409326424871
 40
0.8549222797927462
 40
0.8549222797927462
 40
0.8549222797927462
 40
0.8549222797927462
 40
0.8601036269430051
 40
0.8601036269430051
 40
0.8601036269430051
 40
0.8601036269430051
 40
0.8652849740932642
 40
0.8652849740932642
 40
0.8652849740932642
 40
0.8652849740932642
 40
0.8704663212435233
 40
0.8704663212435233
 40
0.8704663212435233
 40
0.8704663212435233
 40
0.8756476683937824
 40
0.8756476683937824
 40
0.8756476683937824
 40
0.8756476683937824
 40
0.8808290155440415
 40
0.8808290155440415
 40
0.8808290155440415
 40
0.8808290155440415
 40
0.8860103626943006
 40
0.8860103626943006
 40
0.8860103626943006
 40
0.8860103626943006
 40
0.8911917098445595
 40
0.8911917098445595
 40
0.8911917098445595
 40
0.8911917098445595
 40
0.8963730569948186
 40
0.8963730569948186
 40
0.8963730569948186
 40
0.8963730569948186
 40
0.9015544041450777
 40
0.9015544041450777
 40
0.9015544041450777
 40
0.9015544041450777
 40
0.9067357512953368
 40
0.9067357512953368
 40
0.9067357512953368
 40
0.9067357512953368
 40
0.9119170984455959
 40
0.9119170984455959
 40
0.9119170984455959
 40
0.9119170984455959
 40
0.917098445595855
 40
0.917098445595855
 40
0.917098445595855
 40
0.917098445595855
 40
0.9222797927461139
 40
0.9222797927461139
 40
0.9222797927461139
 40
0.9222797927461139
 40
0.927461139896373
 40
0.927461139896373
 40
0.927461139896373
 40
0.927461139896373
 40
0.9326424870466321
 40
0.9326424870466321
 40
0.9326424870466321
 40
0.9326424870466321
 40
0.9378238341968912
 40
0.9378238341968912
 40
0.9378238341968912
 40
0.9378238341968912
 40
0.9430051813471503
 40
0.9430051813471503
 40
0.9430051813471503
 40
0.9430051813471503
 40
0.9481865284974094
 40
0.9481865284974094
 40
0.9481865284974094
 40
0.9481865284974094
 40
0.9533678756476683
 40
0.9533678756476683
 40
0.9533678756476683
 40
0.9533678756476683
 40
0.9585492227979274
 40
0.9585492227979274
 40
0.9585492227979274
 40
0.9585492227979274
 40
0.9637305699481865
 40
0.9637305699481865
 40
0.9637305699481865
 40
0.9637305699481865
 40
0.9689119170984456
 40
0.9689119170984456
 40
0.9689119170984456
 40
0.9689119170984456
 40
0.9740932642487047
 40
0.9740932642487047
 40
0.9740932642487047
 40
0.9740932642487047
 40
0.9792746113989638
 40
0.9792746113989638
 40
0.9792746113989638
 40
0.9792746113989638
 40
0.9844559585492227
 40
0.9844559585492227
 40
0.9844559585492227
 40
0.9844559585492227
 40
0.9896373056994818
 40
0.9896373056994818
 40
0.9896373056994818
 40
0.9896373056994818
 40
1.0
 40
1.0
 40
1.0
 40
1.0
 10
62.52845
 20
22.63144
 30
0.0
 10
62.52845
 20
22.63144
 30
0.0
 10
62.52845
 20
22.04347
 30
0.0
 10
62.52845
 20
22.04347
 30
0.0
 10
62.52845
 20
22.04347
 30
0.0
 10
62.52845
 20
22.01543
 30
0.0
 10
62.50568
 20
21.99268
 30
0.0
 10
62.47761
 20
21.99268
 30
0.0
 10
62.47761
 20
21.99268
 30
0.0
 10
62.47761
 20
21.99268
 30
0.0
 10
61.96969
 20
21.99269
 30
0.0
 10
61.96969
 20
21.99269
 30
0.0
 10
61.96969
 20
21.99269
 30
0.0
 10
61.94159
 20
21.99269
 30
0.0
 10
61.91885
 20
22.01542
 30
0.0
 10
61.91885
 20
22.04347
 30
0.0
 10
61.91885
 20
22.04347
 30
0.0
 10
61.91885
 20
22.04347
 30
0.0
 10
61.91889
 20
22.63144
 30
0.0
 10
61.91889
 20
22.63144
 30
0.0
 10
61.91889
 20
22.63144
 30
0.0
 10
61.91889
 20
22.63144
 30
0.0
 10
59.2757
 20
22.63144
 30
0.0
 10
59.2757
 20
22.63144
 30
0.0
 10
59.2757
 20
22.63144
 30
0.0
 10
59.01226
 20
19.8609
 30
0.0
 10
56.6792
 20
17.69365
 30
0.0
 10
53.83975
 20
17.69365
 30
0.0
 10
53.83975
 20
17.69365
 30
0.0
 10
51.75194
 20
17.69366
 30
0.0
 10
49.93811
 20
18.86557
 30
0.0
 10
49.01931
 20
20.58733
 30
0.0
 10
49.01931
 20
20.58733
 30
0.0
 10
49.01931
 20
20.58733
 30
0.0
 10
48.41244
 20
20.58734
 30
0.0
 10
48.41244
 20
20.58734
 30
0.0
 10
48.41244
 20
20.58734
 30
0.0
 10
48.41244
 20
20.58734
 30
0.0
 10
48.41244
 20
20.73245
 30
0.0
 10
48.41244
 20
20.73245
 30
0.0
 10
48.41244
 20
20.73245
 30
0.0
 10
48.32481
 20
20.74345
 30
0.0
 10
47.59858
 20
20.83849
 30
0.0
 10
47.06897
 20
21.03708
 30
0.0
 10
47.06897
 20
21.03708
 30
0.0
 10
46.50454
 20
21.24877
 30
0.0
 10
46.14637
 20
21.44354
 30
0.0
 10
45.65786
 20
21.95431
 30
0.0
 10
45.65786
 20
21.95431
 30
0.0
 10
45.65786
 20
21.95431
 30
0.0
 10
45.36388
 20
22.36593
 30
0.0
 10
45.36388
 20
22.36593
 30
0.0
 10
45.36388
 20
22.36593
 30
0.0
 10
45.36388
 20
22.36593
 30
0.0
 10
43.06169
 20
22.63144
 30
0.0
 10
43.06169
 20
22.63144
 30
0.0
 10
43.06169
 20
22.63144
 30
0.0
 10
43.06169
 20
22.63144
 30
0.0
 10
42.20845
 20
22.63144
 30
0.0
 10
42.20845
 20
22.63144
 30
0.0
 10
42.20845
 20
22.63144
 30
0.0
 10
42.20845
 20
22.63144
 30
0.0
 10
42.20845
 20
22.04347
 30
0.0
 10
42.20845
 20
22.04347
 30
0.0
 10
42.20845
 20
22.04347
 30
0.0
 10
42.20845
 20
22.01543
 30
0.0
 10
42.18568
 20
21.99268
 30
0.0
 10
42.15757
 20
21.99268
 30
0.0
 10
42.15757
 20
21.99268
 30
0.0
 10
42.15757
 20
21.99268
 30
0.0
 10
41.64957
 20
21.99269
 30
0.0
 10
41.64957
 20
21.99269
 30
0.0
 10
41.64957
 20
21.99269
 30
0.0
 10
41.62155
 20
21.99269
 30
0.0
 10
41.59878
 20
22.01542
 30
0.0
 10
41.59878
 20
22.04347
 30
0.0
 10
41.59878
 20
22.04347
 30
0.0
 10
41.59878
 20
22.04347
 30
0.0
 10
41.59881
 20
22.63144
 30
0.0
 10
41.59881
 20
22.63144
 30
0.0
 10
41.59881
 20
22.63144
 30
0.0
 10
41.59881
 20
22.63144
 30
0.0
 10
28.20311
 20
22.63144
 30
0.0
 10
28.20311
 20
22.63144
 30
0.0
 10
28.20311
 20
22.63144
 30
0.0
 10
28.20311
 20
22.63144
 30
0.0
 10
28.20311
 20
22.04347
 30
0.0
 10
28.20311
 20
22.04347
 30
0.0
 10
28.20311
 20
22.04347
 30
0.0
 10
28.20311
 20
22.01543
 30
0.0
 10
28.18032
 20
21.99268
 30
0.0
 10
28.15228
 20
21.99268
 30
0.0
 10
28.15228
 20
21.99268
 30
0.0
 10
28.15228
 20
21.99268
 30
0.0
 10
27.64427
 20
21.99269
 30
0.0
 10
27.64427
 20
21.99269
 30
0.0
 10
27.64427
 20
21.99269
 30
0.0
 10
27.61623
 20
21.99269
 30
0.0
 10
27.59348
 20
22.01542
 30
0.0
 10
27.59348
 20
22.04347
 30
0.0
 10
27.59348
 20
22.04347
 30
0.0
 10
27.59348
 20
22.04347
 30
0.0
 10
27.59349
 20
22.63144
 30
0.0
 10
27.59349
 20
22.63144
 30
0.0
 10
27.59349
 20
22.63144
 30
0.0
 10
27.59349
 20
22.63144
 30
0.0
 10
26.40487
 20
22.63144
 30
0.0
 10
26.40487
 20
22.63144
 30
0.0
 10
26.40487
 20
22.63144
 30
0.0
 10
26.40487
 20
22.63144
 30
0.0
 10
26.40487
 20
22.62769
 30
0.0
 10
26.40487
 20
22.62769
 30
0.0
 10
26.40487
 20
22.62769
 30
0.0
 10
26.40487
 20
22.62769
 30
0.0
 10
25.11137
 20
22.62769
 30
0.0
 10
25.11137
 20
22.62769
 30
0.0
 10
25.11137
 20
22.62769
 30
0.0
 10
25.11137
 20
22.62769
 30
0.0
 10
25.11137
 20
22.16015
 30
0.0
 10
25.11137
 20
22.16015
 30
0.0
 10
25.11137
 20
22.16015
 30
0.0
 10
25.12893
 20
21.92965
 30
0.0
 10
25.40964
 20
21.85498
 30
0.0
 10
25.52587
 20
22.04929
 30
0.0
 10
25.52587
 20
22.04929
 30
0.0
 10
25.52587
 20
22.06873
 30
0.0
 10
25.52549
 20
22.08815
 30
0.0
 10
25.52484
 20
22.10761
 30
0.0
 10
25.52484
 20
22.10761
 30
0.0
 10
25.52396
 20
22.13576
 30
0.0
 10
25.5461
 20
22.15926
 30
0.0
 10
25.57424
 20
22.16001
 30
0.0
 10
25.57424
 20
22.16001
 30
0.0
 10
25.57424
 20
22.16001
 30
0.0
 10
25.71653
 20
22.16003
 30
0.0
 10
25.71653
 20
22.16003
 30
0.0
 10
25.71653
 20
22.16003
 30
0.0
 10
25.7423
 20
22.16003
 30
0.0
 10
25.75566
 20
22.15099
 30
0.0
 10
25.76531
 20
22.12711
 30
0.0
 10
25.76531
 20
22.12711
 30
0.0
 10
25.80311
 20
21.93643
 30
0.0
 10
26.03151
 20
21.87297
 30
0.0
 10
26.15154
 20
22.0158
 30
0.0
 10
26.15154
 20
22.0158
 30
0.0
 10
26.21721
 20
21.7063
 30
0.0
 10
26.47024
 20
21.48505
 30
0.0
 10
26.76308
 20
21.48505
 30
0.0
 10
26.76308
 20
21.48505
 30
0.0
 10
26.76308
 20
21.48505
 30
0.0
 10
26.76309
 20
21.48465
 30
0.0
 10
26.76309
 20
21.48465
 30
0.0
 10
26.76309
 20
21.48465
 30
0.0
 10
26.82055
 20
20.65951
 30
0.0
 10
27.45044
 20
20.02089
 30
0.0
 10
28.20943
 20
20.02089
 30
0.0
 10
28.20943
 20
20.02089
 30
0.0
 10
28.20943
 20
20.02089
 30
0.0
 10
28.20944
 20
20.03082
 30
0.0
 10
28.20944
 20
20.03082
 30
0.0
 10
28.20944
 20
20.03082
 30
0.0
 10
28.61814
 20
20.53642
 30
0.0
 10
28.858
 20
20.89746
 30
0.0
 10
29.17278
 20
21.18598
 30
0.0
 10
29.17278
 20
21.18598
 30
0.0
 10
29.4872
 20
21.47562
 30
0.0
 10
29.87622
 20
21.691
 30
0.0
 10
30.36384
 20
21.79477
 30
0.0
 10
30.36384
 20
21.79477
 30
0.0
 10
30.85148
 20
21.89917
 30
0.0
 10
31.43905
 20
21.8913
 30
0.0
 10
32.05252
 20
21.84541
 30
0.0
 10
32.05252
 20
21.84541
 30
0.0
 10
32.66646
 20
21.79957
 30
0.0
 10
33.30702
 20
21.71601
 30
0.0
 10
33.90984
 20
21.48274
 30
0.0
 10
33.90984
 20
21.48274
 30
0.0
 10
34.51185
 20
21.25065
 30
0.0
 10
35.07587
 20
21.04397
 30
0.0
 10
35.60596
 20
20.6532
 30
0.0
 10
35.60596
 20
20.6532
 30
0.0
 10
36.13598
 20
20.26261
 30
0.0
 10
36.63178
 20
19.86399
 30
0.0
 10
37.02431
 20
19.62022
 30
0.0
 10
37.02431
 20
19.62022
 30
0.0
 10
37.41678
 20
19.37504
 30
0.0
 10
37.70603
 20
19.28532
 30
0.0
 10
37.97736
 20
19.24119
 30
0.0
 10
37.97736
 20
19.24119
 30
0.0
 10
38.24796
 20
19.19635
 30
0.0
 10
38.49888
 20
19.19634
 30
0.0
 10
38.74341
 20
19.23706
 30
0.0
 10
38.74341
 20
19.23706
 30
0.0
 10
38.98781
 20
19.27717
 30
0.0
 10
39.22421
 20
19.35863
 30
0.0
 10
39.43932
 20
19.51783
 30
0.0
 10
39.43932
 20
19.51783
 30
0.0
 10
39.6548
 20
19.67673
 30
0.0
 10
39.85749
 20
19.9113
 30
0.0
 10
39.94548
 20
20.2546
 30
0.0
 10
39.94548
 20
20.2546
 30
0.0
 10
39.94548
 20
20.2546
 30
0.0
 10
39.94551
 20
20.34915
 30
0.0
 10
39.94551
 20
20.34915
 30
0.0
 10
39.94551
 20
20.34915
 30
0.0
 10
40.30075
 20
20.24059
 30
0.0
 10
40.65503
 20
20.46716
 30
0.0
 10
40.74598
 20
20.82201
 30
0.0
 10
40.74598
 20
20.82201
 30
0.0
 10
40.74598
 20
20.82201
 30
0.0
 10
41.13681
 20
20.82201
 30
0.0
 10
41.13681
 20
20.82201
 30
0.0
 10
41.13681
 20
20.82201
 30
0.0
 10
41.13681
 20
20.82201
 30
0.0
 10
41.13681
 20
20.74122
 30
0.0
 10
41.13681
 20
20.74122
 30
0.0
 10
41.13681
 20
20.74122
 30
0.0
 10
41.56456
 20
20.01911
 30
0.0
 10
42.31605
 20
20.12748
 30
0.0
 10
42.6671
 20
20.82201
 30
0.0
 10
42.6671
 20
20.82201
 30
0.0
 10
42.6671
 20
20.82201
 30
0.0
 10
43.08412
 20
20.82201
 30
0.0
 10
43.08412
 20
20.82201
 30
0.0
 10
43.08412
 20
20.82201
 30
0.0
 10
43.13317
 20
20.69717
 30
0.0
 10
43.19661
 20
20.59377
 30
0.0
 10
43.29114
 20
20.51102
 30
0.0
 10
43.29114
 20
20.51102
 30
0.0
 10
43.47932
 20
20.34641
 30
0.0
 10
43.71448
 20
20.2053
 30
0.0
 10
43.87915
 20
20.18177
 30
0.0
 10
43.87915
 20
20.18177
 30
0.0
 10
44.13806
 20
20.14478
 30
0.0
 10
44.54854
 20
20.125
 30
0.0
 10
44.76902
 20
20.09144
 30
0.0
 10
44.76902
 20
20.09144
 30
0.0
 10
44.98781
 20
20.05776
 30
0.0
 10
45.18195
 20
20.01858
 30
0.0
 10
45.37033
 20
19.96053
 30
0.0
 10
45.37033
 20
19.96053
 30
0.0
 10
45.56292
 20
19.89987
 30
0.0
 10
45.75412
 20
19.82217
 30
0.0
 10
45.90363
 20
19.7284
 30
0.0
 10
45.90363
 20
19.7284
 30
0.0
 10
46.05711
 20
19.63684
 30
0.0
 10
46.11668
 20
19.59745
 30
0.0
 10
46.22513
 20
19.48796
 30
0.0
 10
46.22513
 20
19.48796
 30
0.0
 10
46.33662
 20
19.37849
 30
0.0
 10
46.49054
 20
19.2456
 30
0.0
 10
46.59555
 20
19.13519
 30
0.0
 10
46.59555
 20
19.13519
 30
0.0
 10
46.69969
 20
19.02664
 30
0.0
 10
46.86681
 20
18.86009
 30
0.0
 10
46.9836
 20
18.74713
 30
0.0
 10
46.9836
 20
18.74713
 30
0.0
 10
47.09509
 20
18.63501
 30
0.0
 10
47.23406
 20
18.44951
 30
0.0
 10
47.40693
 20
18.3238
 30
0.0
 10
47.40693
 20
18.3238
 30
0.0
 10
47.66163
 20
18.13856
 30
0.0
 10
47.98481
 20
18.04498
 30
0.0
 10
48.33139
 20
18.1768
 30
0.0
 10
48.33139
 20
18.1768
 30
0.0
 10
49.65942
 20
16.70375
 30
0.0
 10
51.56798
 20
15.76454
 30
0.0
 10
53.69672
 20
15.71961
 30
0.0
 10
53.69672
 20
15.71961
 30
0.0
 10
53.95063
 20
15.49039
 30
0.0
 10
53.78567
 20
15.30469
 30
0.0
 10
53.78567
 20
15.30469
 30
0.0
 10
53.78567
 20
15.30469
 30
0.0
 10
52.83744
 20
13.73539
 30
0.0
 10
52.85308
 20
12.01941
 30
0.0
 10
54.02909
 20
10.54763
 30
0.0
 10
54.02909
 20
10.54763
 30
0.0
 10
55.20511
 20
9.07576
 30
0.0
 10
56.18992
 20
9.19867
 30
0.0
 10
57.84723
 20
8.05297
 30
0.0
 10
57.84723
 20
8.05297
 30
0.0
 10
59.96626
 20
6.58785
 30
0.0
 10
60.68901
 20
5.07801
 30
0.0
 10
60.68901
 20
3.59999
 30
0.0
 10
60.68901
 20
3.59999
 30
0.0
 10
60.68901
 20
0.84371
 30
0.0
 10
59.02338
 20
0.1828
 30
0.0
 10
58.13393
 20
0.07276
 30
0.0
 10
58.13393
 20
0.07276
 30
0.0
 10
58.13393
 20
0.07276
 30
0.0
 10
58.13393
 20
0.07649
 30
0.0
 10
58.13393
 20
0.07649
 30
0.0
 10
58.13393
 20
0.07649
 30
0.0
 10
58.07178
 20
0.1939
 30
0.0
 10
58.00969
 20
0.3113
 30
0.0
 10
57.94755
 20
0.42878
 30
0.0
 10
57.94755
 20
0.42878
 30
0.0
 10
57.94755
 20
0.42878
 30
0.0
 10
57.73472
 20
0.42878
 30
0.0
 10
57.73472
 20
0.42878
 30
0.0
 10
57.73472
 20
0.42878
 30
0.0
 10
57.73472
 20
0.42878
 30
0.0
 10
57.73472
 20
0.5331
 30
0.0
 10
57.73472
 20
0.5331
 30
0.0
 10
57.73472
 20
0.5331
 30
0.0
 10
57.61161
 20
0.78569
 30
0.0
 10
57.22236
 20
0.78569
 30
0.0
 10
57.09847
 20
0.5331
 30
0.0
 10
57.09847
 20
0.5331
 30
0.0
 10
57.09847
 20
0.5331
 30
0.0
 10
57.09849
 20
0.42878
 30
0.0
 10
57.09849
 20
0.42878
 30
0.0
 10
57.09849
 20
0.42878
 30
0.0
 10
57.09849
 20
0.42878
 30
0.0
 10
56.88449
 20
0.42878
 30
0.0
 10
56.88449
 20
0.42878
 30
0.0
 10
56.88449
 20
0.42878
 30
0.0
 10
56.81428
 20
0.31131
 30
0.0
 10
56.74397
 20
0.19389
 30
0.0
 10
56.67369
 20
0.07649
 30
0.0
 10
56.67369
 20
0.07649
 30
0.0
 10
56.67369
 20
0.07649
 30
0.0
 10
56.28882
 20
0.07649
 30
0.0
 10
56.28882
 20
0.07649
 30
0.0
 10
56.28882
 20
0.07649
 30
0.0
 10
56.28882
 20
0.07649
 30
0.0
 10
56.28882
 20
0.0769
 30
0.0
 10
56.28882
 20
0.0769
 30
0.0
 10
56.28882
 20
0.0769
 30
0.0
 10
56.29612
 20
0.19225
 30
0.0
 10
56.21384
 20
0.29036
 30
0.0
 10
56.10387
 20
0.30855
 30
0.0
 10
56.10387
 20
0.30855
 30
0.0
 10
56.08554
 20
0.4549
 30
0.0
 10
55.96482
 20
0.56983
 30
0.0
 10
55.81697
 20
0.5814
 30
0.0
 10
55.81697
 20
0.5814
 30
0.0
 10
55.81697
 20
0.5814
 30
0.0
 10
55.81698
 20
0.9153
 30
0.0
 10
55.81698
 20
0.9153
 30
0.0
 10
55.81698
 20
0.9153
 30
0.0
 10
55.36879
 20
1.2319
 30
0.0
 10
55.10493
 20
1.72489
 30
0.0
 10
55.10293
 20
2.25048
 30
0.0
 10
55.10293
 20
2.25048
 30
0.0
 10
55.10293
 20
2.25048
 30
0.0
 10
55.10296
 20
3.69343
 30
0.0
 10
55.10296
 20
3.69343
 30
0.0
 10
55.10296
 20
3.69343
 30
0.0
 10
54.66453
 20
3.61991
 30
0.0
 10
54.4946
 20
3.50304
 30
0.0
 10
54.47855
 20
3.2694
 30
0.0
 10
54.47855
 20
3.2694
 30
0.0
 10
54.47855
 20
3.2694
 30
0.0
 10
54.47856
 20
1.49063
 30
0.0
 10
54.47856
 20
1.49063
 30
0.0
 10
54.47856
 20
1.49063
 30
0.0
 10
54.45494
 20
1.3726
 30
0.0
 10
54.44374
 20
1.30783
 30
0.0
 10
54.43196
 20
1.25753
 30
0.0
 10
54.43196
 20
1.25753
 30
0.0
 10
54.42049
 20
1.20772
 30
0.0
 10
54.40758
 20
1.17182
 30
0.0
 10
54.39262
 20
1.13709
 30
0.0
 10
54.39262
 20
1.13709
 30
0.0
 10
54.37894
 20
1.10216
 30
0.0
 10
54.36258
 20
1.06929
 30
0.0
 10
54.34315
 20
1.03718
 30
0.0
 10
54.34315
 20
1.03718
 30
0.0
 10
54.3227
 20
1.00591
 30
0.0
 10
54.29836
 20
0.97703
 30
0.0
 10
54.27604
 20
0.95568
 30
0.0
 10
54.27604
 20
0.95568
 30
0.0
 10
54.25186
 20
0.93342
 30
0.0
 10
54.22878
 20
0.91984
 30
0.0
 10
54.20611
 20
0.90724
 30
0.0
 10
54.20611
 20
0.90724
 30
0.0
 10
54.18483
 20
0.89333
 30
0.0
 10
54.16311
 20
0.88181
 30
0.0
 10
54.13789
 20
0.86589
 30
0.0
 10
54.13789
 20
0.86589
 30
0.0
 10
54.11331
 20
0.85013
 30
0.0
 10
54.08504
 20
0.83186
 30
0.0
 10
54.0599
 20
0.80168
 30
0.0
 10
54.0599
 20
0.80168
 30
0.0
 10
54.03636
 20
0.77247
 30
0.0
 10
54.01587
 20
0.73043
 30
0.0
 10
54.00209
 20
0.67021
 30
0.0
 10
54.00209
 20
0.67021
 30
0.0
 10
53.98786
 20
0.61027
 30
0.0
 10
53.9788
 20
0.53145
 30
0.0
 10
53.95841
 20
0.3689
 30
0.0
 10
53.95841
 20
0.3689
 30
0.0
 10
53.95841
 20
0.3689
 30
0.0
 10
53.95841
 20
0.36003
 30
0.0
 10
53.95841
 20
0.36003
 30
0.0
 10
53.95841
 20
0.36003
 30
0.0
 10
53.83736
 20
0.36071
 30
0.0
 10
53.73929
 20
0.25846
 30
0.0
 10
53.7486
 20
0.13712
 30
0.0
 10
53.7486
 20
0.13712
 30
0.0
 10
53.7486
 20
0.13712
 30
0.0
 10
53.74862
 20
0.09874
 30
0.0
 10
53.74862
 20
0.09874
 30
0.0
 10
53.74862
 20
0.09874
 30
0.0
 10
53.74862
 20
0.09874
 30
0.0
 10
52.68051
 20
0.09874
 30
0.0
 10
52.68051
 20
0.09874
 30
0.0
 10
52.68051
 20
0.09874
 30
0.0
 10
52.68539
 20
0.24516
 30
0.0
 10
52.61434
 20
0.32171
 30
0.0
 10
52.43422
 20
0.36911
 30
0.0
 10
52.43422
 20
0.36911
 30
0.0
 10
52.42798
 20
0.39323
 30
0.0
 10
52.42057
 20
0.41438
 30
0.0
 10
52.41224
 20
0.43498
 30
0.0
 10
52.41224
 20
0.43498
 30
0.0
 10
52.3896
 20
0.49163
 30
0.0
 10
52.35857
 20
0.54523
 30
0.0
 10
52.32294
 20
0.59483
 30
0.0
 10
52.32294
 20
0.59483
 30
0.0
 10
52.28808
 20
0.64431
 30
0.0
 10
52.24819
 20
0.69047
 30
0.0
 10
52.19486
 20
0.71445
 30
0.0
 10
52.19486
 20
0.71445
 30
0.0
 10
52.1414
 20
0.73912
 30
0.0
 10
52.07187
 20
0.74153
 30
0.0
 10
52.01075
 20
0.7316
 30
0.0
 10
52.01075
 20
0.7316
 30
0.0
 10
51.9505
 20
0.7221
 30
0.0
 10
51.89679
 20
0.70115
 30
0.0
 10
51.8715
 20
0.6348
 30
0.0
 10
51.8715
 20
0.6348
 30
0.0
 10
51.81667
 20
0.6348
 30
0.0
 10
51.76188
 20
0.6348
 30
0.0
 10
51.70704
 20
0.63494
 30
0.0
 10
51.70704
 20
0.63494
 30
0.0
 10
51.63931
 20
0.69386
 30
0.0
 10
51.57157
 20
0.75262
 30
0.0
 10
51.50384
 20
0.81139
 30
0.0
 10
51.50384
 20
0.81139
 30
0.0
 10
51.50384
 20
0.81139
 30
0.0
 10
51.3203
 20
0.8114
 30
0.0
 10
51.3203
 20
0.8114
 30
0.0
 10
51.3203
 20
0.8114
 30
0.0
 10
51.3203
 20
0.95071
 30
0.0
 10
51.19902
 20
1.06351
 30
0.0
 10
51.04943
 20
1.06351
 30
0.0
 10
51.04943
 20
1.06351
 30
0.0
 10
50.90112
 20
1.06351
 30
0.0
 10
50.77886
 20
0.95044
 30
0.0
 10
50.77886
 20
0.81077
 30
0.0
 10
50.77886
 20
0.81077
 30
0.0
 10
50.77886
 20
0.81077
 30
0.0
 10
50.77889
 20
0.80616
 30
0.0
 10
50.77889
 20
0.80616
 30
0.0
 10
50.77889
 20
0.80616
 30
0.0
 10
50.77889
 20
0.80616
 30
0.0
 10
50.59347
 20
0.80616
 30
0.0
 10
50.59347
 20
0.80616
 30
0.0
 10
50.59347
 20
0.80616
 30
0.0
 10
50.59347
 20
0.80616
 30
0.0
 10
50.59347
 20
0.8032
 30
0.0
 10
50.59347
 20
0.8032
 30
0.0
 10
50.59347
 20
0.8032
 30
0.0
 10
50.52251
 20
0.62846
 30
0.0
 10
50.45143
 20
0.45366
 30
0.0
 10
50.38039
 20
0.27892
 30
0.0
 10
50.38039
 20
0.27892
 30
0.0
 10
50.38039
 20
0.27892
 30
0.0
 10
50.38042
 20
0.25873
 30
0.0
 10
50.38042
 20
0.25873
 30
0.0
 10
50.38042
 20
0.25873
 30
0.0
 10
50.38042
 20
0.25873
 30
0.0
 10
42.3647
 20
0.25873
 30
0.0
 10
42.3647
 20
0.25873
 30
0.0
 10
42.3647
 20
0.25873
 30
0.0
 10
42.26671
 20
0.21505
 30
0.0
 10
42.31729
 20
0.08324
 30
0.0
 10
42.33217
 20
-0.05767
 30
0.0
 10
42.33217
 20
-0.05767
 30
0.0
 10
42.36196
 20
-0.34037
 30
0.0
 10
42.3722
 20
-0.54604
 30
0.0
 10
42.3722
 20
-0.70479
 30
0.0
 10
42.3722
 20
-0.70479
 30
0.0
 10
42.3722
 20
-0.70479
 30
0.0
 10
42.30223
 20
-0.70479
 30
0.0
 10
42.30223
 20
-0.70479
 30
0.0
 10
42.30223
 20
-0.70479
 30
0.0
 10
42.20789
 20
-0.47797
 30
0.0
 10
41.86908
 20
-0.28938
 30
0.0
 10
41.72356
 20
-0.31019
 30
0.0
 10
41.72356
 20
-0.31019
 30
0.0
 10
41.48427
 20
-0.34436
 30
0.0
 10
41.03985
 20
-0.44689
 30
0.0
 10
40.76631
 20
-0.51531
 30
0.0
 10
40.76631
 20
-0.51531
 30
0.0
 10
40.49284
 20
-0.58366
 30
0.0
 10
39.56975
 20
-0.85714
 30
0.0
 10
39.56975
 20
-0.85714
 30
0.0
 10
39.56975
 20
-0.85714
 30
0.0
 10
39.56975
 20
-0.85714
 30
0.0
 10
40.45859
 20
-1.13068
 30
0.0
 10
40.66378
 20
-1.19903
 30
0.0
 10
40.66378
 20
-1.19903
 30
0.0
 10
40.86892
 20
-1.26737
 30
0.0
 10
41.58679
 20
-1.43839
 30
0.0
 10
41.75773
 20
-1.40422
 30
0.0
 10
41.75773
 20
-1.40422
 30
0.0
 10
41.91163
 20
-1.37342
 30
0.0
 10
42.12057
 20
-1.25911
 30
0.0
 10
42.26051
 20
-1.01244
 30
0.0
 10
42.26051
 20
-1.01244
 30
0.0
 10
42.26051
 20
-1.01244
 30
0.0
 10
42.35347
 20
-1.01244
 30
0.0
 10
42.35347
 20
-1.01244
 30
0.0
 10
42.35347
 20
-1.01244
 30
0.0
 10
42.3191
 20
-1.27598
 30
0.0
 10
42.25259
 20
-1.38678
 30
0.0
 10
42.28848
 20
-1.85511
 30
0.0
 10
42.28848
 20
-1.85511
 30
0.0
 10
42.29945
 20
-1.99752
 30
0.0
 10
42.38205
 20
-1.96549
 30
0.0
 10
42.37578
 20
-1.98796
 30
0.0
 10
42.37578
 20
-1.98796
 30
0.0
 10
42.37578
 20
-1.98796
 30
0.0
 10
50.38042
 20
-1.98795
 30
0.0
 10
50.38042
 20
-1.98795
 30
0.0
 10
50.38042
 20
-1.98795
 30
0.0
 10
50.38042
 20
-1.98795
 30
0.0
 10
50.38042
 20
-2.00786
 30
0.0
 10
50.38042
 20
-2.00786
 30
0.0
 10
50.38042
 20
-2.00786
 30
0.0
 10
50.45146
 20
-2.18266
 30
0.0
 10
50.52247
 20
-2.35754
 30
0.0
 10
50.59345
 20
-2.53241
 30
0.0
 10
50.59345
 20
-2.53241
 30
0.0
 10
50.59345
 20
-2.53241
 30
0.0
 10
50.59347
 20
-2.53538
 30
0.0
 10
50.59347
 20
-2.53538
 30
0.0
 10
50.59347
 20
-2.53538
 30
0.0
 10
50.59347
 20
-2.53538
 30
0.0
 10
50.77889
 20
-2.53538
 30
0.0
 10
50.77889
 20
-2.53538
 30
0.0
 10
50.77889
 20
-2.53538
 30
0.0
 10
50.77889
 20
-2.53538
 30
0.0
 10
50.77889
 20
-2.53985
 30
0.0
 10
50.77889
 20
-2.53985
 30
0.0
 10
50.77889
 20
-2.53985
 30
0.0
 10
50.77889
 20
-2.67883
 30
0.0
 10
50.90109
 20
-2.79273
 30
0.0
 10
51.04943
 20
-2.79273
 30
0.0
 10
51.04943
 20
-2.79273
 30
0.0
 10
51.19898
 20
-2.79273
 30
0.0
 10
51.32029
 20
-2.67925
 30
0.0
 10
51.32029
 20
-2.54062
 30
0.0
 10
51.32029
 20
-2.54062
 30
0.0
 10
51.32029
 20
-2.54062
 30
0.0
 10
51.50386
 20
-2.54062
 30
0.0
 10
51.50386
 20
-2.54062
 30
0.0
 10
51.50386
 20
-2.54062
 30
0.0
 10
51.57153
 20
-2.48177
 30
0.0
 10
51.63916
 20
-2.42286
 30
0.0
 10
51.70676
 20
-2.36402
 30
0.0
 10
51.70676
 20
-2.36402
 30
0.0
 10
51.70676
 20
-2.36402
 30
0.0
 10
51.8716
 20
-2.36402
 30
0.0
 10
51.8716
 20
-2.36402
 30
0.0
 10
51.8716
 20
-2.36402
 30
0.0
 10
51.89696
 20
-2.42982
 30
0.0
 10
51.95054
 20
-2.45104
 30
0.0
 10
52.01075
 20
-2.46124
 30
0.0
 10
52.01075
 20
-2.46124
 30
0.0
 10
52.07187
 20
-2.47054
 30
0.0
 10
52.14139
 20
-2.46813
 30
0.0
 10
52.19486
 20
-2.44415
 30
0.0
 10
52.19486
 20
-2.44415
 30
0.0
 10
52.2482
 20
-2.41983
 30
0.0
 10
52.28808
 20
-2.37366
 30
0.0
 10
52.32294
 20
-2.32406
 30
0.0
 10
52.32294
 20
-2.32406
 30
0.0
 10
52.35861
 20
-2.27458
 30
0.0
 10
52.38957
 20
-2.2216
 30
0.0
 10
52.41224
 20
-2.16434
 30
0.0
 10
52.41224
 20
-2.16434
 30
0.0
 10
52.4206
 20
-2.14367
 30
0.0
 10
52.42796
 20
-2.12252
 30
0.0
 10
52.43422
 20
-2.09834
 30
0.0
 10
52.43422
 20
-2.09834
 30
0.0
 10
52.61416
 20
-2.05148
 30
0.0
 10
52.68523
 20
-1.97438
 30
0.0
 10
52.68048
 20
-1.82796
 30
0.0
 10
52.68048
 20
-1.82796
 30
0.0
 10
52.68048
 20
-1.82796
 30
0.0
 10
53.74862
 20
-1.82796
 30
0.0
 10
53.74862
 20
-1.82796
 30
0.0
 10
53.74862
 20
-1.82796
 30
0.0
 10
53.74862
 20
-1.82796
 30
0.0
 10
53.74862
 20
-1.86633
 30
0.0
 10
53.74862
 20
-1.86633
 30
0.0
 10
53.74862
 20
-1.86633
 30
0.0
 10
53.7393
 20
-1.98816
 30
0.0
 10
53.83734
 20
-2.08993
 30
0.0
 10
53.95841
 20
-2.08924
 30
0.0
 10
53.95841
 20
-2.08924
 30
0.0
 10
53.95841
 20
-2.08924
 30
0.0
 10
53.95841
 20
-2.09833
 30
0.0
 10
53.95841
 20
-2.09833
 30
0.0
 10
53.95841
 20
-2.09833
 30
0.0
 10
53.97881
 20
-2.26204
 30
0.0
 10
53.98783
 20
-2.34052
 30
0.0
 10
54.00209
 20
-2.4004
 30
0.0
 10
54.00209
 20
-2.4004
 30
0.0
 10
54.01588
 20
-2.46055
 30
0.0
 10
54.03633
 20
-2.50189
 30
0.0
 10
54.0599
 20
-2.53262
 30
0.0
 10
54.0599
 20
-2.53262
 30
0.0
 10
54.08505
 20
-2.56204
 30
0.0
 10
54.11329
 20
-2.58106
 30
0.0
 10
54.13789
 20
-2.59622
 30
0.0
 10
54.13789
 20
-2.59622
 30
0.0
 10
54.16312
 20
-2.61117
 30
0.0
 10
54.18481
 20
-2.62426
 30
0.0
 10
54.20611
 20
-2.63694
 30
0.0
 10
54.20611
 20
-2.63694
 30
0.0
 10
54.2288
 20
-2.64976
 30
0.0
 10
54.25186
 20
-2.66354
 30
0.0
 10
54.27604
 20
-2.68538
 30
0.0
 10
54.27604
 20
-2.68538
 30
0.0
 10
54.29837
 20
-2.70674
 30
0.0
 10
54.32269
 20
-2.7365
 30
0.0
 10
54.34315
 20
-2.76813
 30
0.0
 10
54.34315
 20
-2.76813
 30
0.0
 10
54.36259
 20
-2.79858
 30
0.0
 10
54.37891
 20
-2.83304
 30
0.0
 10
54.39262
 20
-2.86762
 30
0.0
 10
54.39262
 20
-2.86762
 30
0.0
 10
54.40759
 20
-2.90207
 30
0.0
 10
54.42046
 20
-2.9377
 30
0.0
 10
54.43196
 20
-2.98848
 30
0.0
 10
54.43196
 20
-2.98848
 30
0.0
 10
54.44375
 20
-3.0376
 30
0.0
 10
54.45491
 20
-3.10265
 30
0.0
 10
54.47855
 20
-3.21985
 30
0.0
 10
54.47855
 20
-3.21985
 30
0.0
 10
54.47855
 20
-3.21985
 30
0.0
 10
54.47856
 20
-4.99862
 30
0.0
 10
54.47856
 20
-4.99862
 30
0.0
 10
54.47856
 20
-4.99862
 30
0.0
 10
54.49463
 20
-5.23337
 30
0.0
 10
54.66452
 20
-5.34995
 30
0.0
 10
55.10293
 20
-5.42265
 30
0.0
 10
55.10293
 20
-5.42265
 30
0.0
 10
55.10293
 20
-5.42265
 30
0.0
 10
55.10296
 20
-3.97976
 30
0.0
 10
55.10296
 20
-3.97976
 30
0.0
 10
55.10296
 20
-3.97976
 30
0.0
 10
55.10494
 20
-3.45528
 30
0.0
 10
55.36876
 20
-2.96112
 30
0.0
 10
55.81697
 20
-2.645
 30
0.0
 10
55.81697
 20
-2.645
 30
0.0
 10
55.81697
 20
-2.645
 30
0.0
 10
55.81698
 20
-2.31069
 30
0.0
 10
55.81698
 20
-2.31069
 30
0.0
 10
55.81698
 20
-2.31069
 30
0.0
 10
55.96513
 20
-2.29966
 30
0.0
 10
56.08588
 20
-2.18439
 30
0.0
 10
56.10394
 20
-2.03777
 30
0.0
 10
56.10394
 20
-2.03777
 30
0.0
 10
56.21373
 20
-2.01958
 30
0.0
 10
56.2959
 20
-1.92119
 30
0.0
 10
56.2888
 20
-1.80571
 30
0.0
 10
56.2888
 20
-1.80571
 30
0.0
 10
56.2888
 20
-1.80571
 30
0.0
 10
56.67371
 20
-1.8057
 30
0.0
 10
56.67371
 20
-1.8057
 30
0.0
 10
56.67371
 20
-1.8057
 30
0.0
 10
56.744
 20
-1.92312
 30
0.0
 10
56.81425
 20
-2.04053
 30
0.0
 10
56.88446
 20
-2.158
 30
0.0
 10
56.88446
 20
-2.158
 30
0.0
 10
56.88446
 20
-2.158
 30
0.0
 10
57.09849
 20
-2.158
 30
0.0
 10
57.09849
 20
-2.158
 30
0.0
 10
57.09849
 20
-2.158
 30
0.0
 10
57.09849
 20
-2.158
 30
0.0
 10
57.09849
 20
-2.26204
 30
0.0
 10
57.09849
 20
-2.26204
 30
0.0
 10
57.09849
 20
-2.26204
 30
0.0
 10
57.22239
 20
-2.51505
 30
0.0
 10
57.61158
 20
-2.51505
 30
0.0
 10
57.73471
 20
-2.26205
 30
0.0
 10
57.73471
 20
-2.26205
 30
0.0
 10
57.73471
 20
-2.26205
 30
0.0
 10
57.73472
 20
-2.158
 30
0.0
 10
57.73472
 20
-2.158
 30
0.0
 10
57.73472
 20
-2.158
 30
0.0
 10
57.73472
 20
-2.158
 30
0.0
 10
57.94756
 20
-2.158
 30
0.0
 10
57.94756
 20
-2.158
 30
0.0
 10
57.94756
 20
-2.158
 30
0.0
 10
58.00971
 20
-2.04052
 30
0.0
 10
58.07178
 20
-1.92312
 30
0.0
 10
58.13393
 20
-1.80571
 30
0.0
 10
58.13393
 20
-1.80571
 30
0.0
 10
58.13393
 20
-1.80571
 30
0.0
 10
58.13393
 20
-1.76608
 30
0.0
 10
58.13393
 20
-1.76608
 30
0.0
 10
58.13393
 20
-1.76608
 30
0.0
 10
59.52157
 20
-1.66618
 30
0.0
 10
62.48129
 20
-0.78465
 30
0.0
 10
62.48129
 20
3.53364
 30
0.0
 10
62.48129
 20
3.53364
 30
0.0
 10
62.48129
 20
5.92735
 30
0.0
 10
61.35599
 20
8.20352
 30
0.0
 10
58.60922
 20
9.77317
 30
0.0
 10
58.60922
 20
9.77317
 30
0.0
 10
56.76444
 20
10.82721
 30
0.0
 10
55.50669
 20
11.07411
 30
0.0
 10
55.17969
 20
12.53897
 30
0.0
 10
55.17969
 20
12.53897
 30
0.0
 10
54.9298
 20
13.65855
 30
0.0
 10
55.51152
 20
15.24247
 30
0.0
 10
57.59208
 20
16.36419
 30
0.0
 10
57.59208
 20
16.36419
 30
0.0
 10
57.59208
 20
16.36419
 30
0.0
 10
57.76248
 20
16.5164
 30
0.0
 10
57.69343
 20
16.78277
 30
0.0
 10
57.69343
 20
16.78277
 30
0.0
 10
59.17652
 20
17.6778
 30
0.0
 10
60.32167
 20
19.07593
 30
0.0
 10
60.89272
 20
20.74084
 30
0.0
 10
60.89272
 20
20.74084
 30
0.0
 10
60.89272
 20
20.74084
 30
0.0
 10
61.2088
 20
20.74085
 30
0.0
 10
61.2088
 20
20.74085
 30
0.0
 10
61.2088
 20
20.74085
 30
0.0
 10
61.28318
 20
20.617
 30
0.0
 10
61.39554
 20
20.50885
 30
0.0
 10
61.55229
 20
20.40467
 30
0.0
 10
61.55229
 20
20.40467
 30
0.0
 10
61.55229
 20
20.40467
 30
0.0
 10
61.5523
 20
20.39562
 30
0.0
 10
61.5523
 20
20.39562
 30
0.0
 10
61.5523
 20
20.39562
 30
0.0
 10
61.67445
 20
19.61833
 30
0.0
 10
62.92509
 20
19.70104
 30
0.0
 10
62.92509
 20
20.48669
 30
0.0
 10
62.92509
 20
20.48669
 30
0.0
 10
62.92509
 20
20.48669
 30
0.0
 10
62.92513
 20
20.59615
 30
0.0
 10
62.92513
 20
20.59615
 30
0.0
 10
62.92513
 20
20.59615
 30
0.0
 10
62.92513
 20
20.59615
 30
0.0
 10
63.45839
 20
21.3613
 30
0.0
 10
64.42495
 20
21.65283
 30
0.0
 10
64.42495
 20
21.65283
 30
0.0
 10
64.42495
 20
21.65283
 30
0.0
 10
65.41348
 20
22.08064
 30
0.0
 10
65.9935
 20
21.12222
 30
0.0
 10
65.9935
 20
21.12222
 30
0.0
 10
66.7845
 20
21.12222
 30
0.0
 10
67.44306
 20
21.77757
 30
0.0
 10
67.52119
 20
22.63144
 30
0.0
 10
67.52119
 20
22.63144
 30
0.0
 10
67.52119
 20
22.63144
 30
0.0
 10
62.52845
 20
22.63144
 30
0.0
 10
62.52845
 20
22.63144
 30
0.0
  0
SPLINE
  5
7B
330
1F
100
AcDbEntity
  8
layer 1
 62
     5
370
     0
100
AcDbSpline
210
0.0
220
0.0
230
1.0
 70
    11
 71
     3
 72
    36
 73
    32
 74
     0
 42
0.000000001
 43
0.0000000001
 40
0.0
 40
0.0
 40
0.0
 40
0.0
 40
0.1111111111111111
 40
0.1111111111111111
 40
0.1111111111111111
 40
0.1111111111111111
 40
0.2222222222222222
 40
0.2222222222222222
 40
0.2222222222222222
 40
0.2222222222222222
 40
0.3333333333333333
 40
0.3333333333333333
 40
0.3333333333333333
 40
0.3333333333333333
 40
0.4444444444444444
 40
0.4444444444444444
 40
0.4444444444444444
 40
0.4444444444444444
 40
0.5555555555555556
 40
0.5555555555555556
 40
0.5555555555555556
 40
0.5555555555555556
 40
0.6666666666666666
 40
0.6666666666666666
 40
0.6666666666666666
 40
0.6666666666666666
 40
0.7777777777777778
 40
0.7777777777777778
 40
0.7777777777777778
 40
0.7777777777777778
 40
1.0
 40
1.0
 40
1.0
 40
1.0
 10
40.96437
 20
21.74661
 30
0.0
 10
40.96437
 20
21.71857
 30
0.0
 10
40.94159
 20
21.69582
 30
0.0
 10
40.91348
 20
21.69582
 30
0.0
 10
40.91348
 20
21.69582
 30
0.0
 10
40.91348
 20
21.69582
 30
0.0
 10
40.38013
 20
21.69583
 30
0.0
 10
40.38013
 20
21.69583
 30
0.0
 10
40.38013
 20
21.69583
 30
0.0
 10
40.35207
 20
21.69583
 30
0.0
 10
40.32933
 20
21.71856
 30
0.0
 10
40.32933
 20
21.7466
 30
0.0
 10
40.32933
 20
21.7466
 30
0.0
 10
40.32933
 20
21.7466
 30
0.0
 10
40.32937
 20
21.96251
 30
0.0
 10
40.32937
 20
21.96251
 30
0.0
 10
40.32937
 20
21.96251
 30
0.0
 10
40.32937
 20
21.99059
 30
0.0
 10
40.35207
 20
22.01332
 30
0.0
 10
40.38011
 20
22.01332
 30
0.0
 10
40.38011
 20
22.01332
 30
0.0
 10
40.38011
 20
22.01332
 30
0.0
 10
40.91349
 20
22.01333
 30
0.0
 10
40.91349
 20
22.01333
 30
0.0
 10
40.91349
 20
22.01333
 30
0.0
 10
40.94163
 20
22.01333
 30
0.0
 10
40.96433
 20
21.99058
 30
0.0
 10
40.96433
 20
21.96251
 30
0.0
 10
40.96433
 20
21.96251
 30
0.0
 10
40.96433
 20
21.96251
 30
0.0
 10
40.96437
 20
21.74661
 30
0.0
 10
40.96437
 20
21.74661
 30
0.0
  0
SPLINE
  5
7C
330
1F
100
AcDbEntity
  8
layer 1
 62
     5
370
     0
100
AcDbSpline
210
0.0
220
0.0
230
1.0
 70
    11
 71
     3
 72
    36
 73
    32
 74
     0
 42
0.000000001
 43
0.0000000001
 40
0.0
 40
0.0
 40
0.0
 40
0.0
 40
0.1111111111111111
 40
0.1111111111111111
 40
0.1111111111111111
 40
0.1111111111111111
 40
0.2222222222222222
 40
0.2222222222222222
 40
0.2222222222222222
 40
0.2222222222222222
 40
0.3333333333333333
 40
0.3333333333333333
 40
0.3333333333333333
 40
0.3333333333333333
 40
0.4444444444444444
 40
0.4444444444444444
 40
0.4444444444444444
 40
0.4444444444444444
 40
0.5555555555555556
 40
0.5555555555555556
 40
0.5555555555555556
 40
0.5555555555555556
 40
0.6666666666666666
 40
0.6666666666666666
 40
0.6666666666666666
 40
0.6666666666666666
 40
0.7777777777777778
 40
0.7777777777777778
 40
0.7777777777777778
 40
0.7777777777777778
 40
1.0
 40
1.0
 40
1.0
 40
1.0
 10
61.28437
 20
21.74661
 30
0.0
 10
61.28437
 20
21.71857
 30
0.0
 10
61.26163
 20
21.69582
 30
0.0
 10
61.23355
 20
21.69582
 30
0.0
 10
61.23355
 20
21.69582
 30
0.0
 10
61.23355
 20
21.69582
 30
0.0
 10
60.70021
 20
21.69583
 30
0.0
 10
60.70021
 20
21.69583
 30
0.0
 10
60.70021
 20
21.69583
 30
0.0
 10
60.67211
 20
21.69583
 30
0.0
 10
60.64936
 20
21.71856
 30
0.0
 10
60.64936
 20
21.7466
 30
0.0
 10
60.64936
 20
21.7466
 30
0.0
 10
60.64936
 20
21.7466
 30
0.0
 10
60.64937
 20
21.96251
 30
0.0
 10
60.64937
 20
21.96251
 30
0.0
 10
60.64937
 20
21.96251
 30
0.0
 10
60.64937
 20
21.99059
 30
0.0
 10
60.6721
 20
22.01332
 30
0.0
 10
60.70018
 20
22.01332
 30
0.0
 10
60.70018
 20
22.01332
 30
0.0
 10
60.70018
 20
22.01332
 30
0.0
 10
61.23357
 20
22.01333
 30
0.0
 10
61.23357
 20
22.01333
 30
0.0
 10
61.23357
 20
22.01333
 30
0.0
 10
61.26163
 20
22.01333
 30
0.0
 10
61.28436
 20
21.99058
 30
0.0
 10
61.28436
 20
21.96251
 30
0.0
 10
61.28436
 20
21.96251
 30
0.0
 10
61.28436
 20
21.96251
 30
0.0
 10
61.28437
 20
21.74661
 30
0.0
 10
61.28437
 20
21.74661
 30
0.0
  0
SPLINE
  5
7D
330
1F
100
AcDbEntity
  8
layer 1
 62
     5
370
     0
100
AcDbSpline
210
0.0
220
0.0
230
1.0
 70
    11
 71
     3
 72
   196
 73
   192
 74
     0
 42
0.000000001
 43
0.0000000001
 40
0.0
 40
0.0
 40
0.0
 40
0.0
 40
0.0204081632653061
 40
0.0204081632653061
 40
0.0204081632653061
 40
0.0204081632653061
 40
0.0408163265306122
 40
0.0408163265306122
 40
0.0408163265306122
 40
0.0408163265306122
 40
0.0612244897959184
 40
0.0612244897959184
 40
0.0612244897959184
 40
0.0612244897959184
 40
0.0816326530612245
 40
0.0816326530612245
 40
0.0816326530612245
 40
0.0816326530612245
 40
0.1020408163265306
 40
0.1020408163265306
 40
0.1020408163265306
 40
0.1020408163265306
 40
0.1224489795918367
 40
0.1224489795918367
 40
0.1224489795918367
 40
0.1224489795918367
 40
0.1428571428571428
 40
0.1428571428571428
 40
0.1428571428571428
 40
0.1428571428571428
 40
0.163265306122449
 40
0.163265306122449
 40
0.163265306122449
 40
0.163265306122449
 40
0.1836734693877551
 40
0.1836734693877551
 40
0.1836734693877551
 40
0.1836734693877551
 40
0.2040816326530612
 40
0.2040816326530612
 40
0.2040816326530612
 40
0.2040816326530612
 40
0.2244897959183673
 40
0.2244897959183673
 40
0.2244897959183673
 40
0.2244897959183673
 40
0.2448979591836735
 40
0.2448979591836735
 40
0.2448979591836735
 40
0.2448979591836735
 40
0.2653061224489796
 40
0.2653061224489796
 40
0.2653061224489796
 40
0.2653061224489796
 40
0.2857142857142857
 40
0.2857142857142857
 40
0.2857142857142857
 40
0.2857142857142857
 40
0.3061224489795918
 40
0.3061224489795918
 40
0.3061224489795918
 40
0.3061224489795918
 40
0.3265306122448979
 40
0.3265306122448979
 40
0.3265306122448979
 40
0.3265306122448979
 40
0.3469387755102041
 40
0.3469387755102041
 40
0.3469387755102041
 40
0.3469387755102041
 40
0.3673469387755102
 40
0.3673469387755102
 40
0.3673469387755102
 40
0.3673469387755102
 40
0.3877551020408163
 40
0.3877551020408163
 40
0.3877551020408163
 40
0.3877551020408163
 40
0.4081632653061225
 40
0.4081632653061225
 40
0.4081632653061225
 40
0.4081632653061225
 40
0.4285714285714285
 40
0.4285714285714285
 40
0.4285714285714285
 40
0.4285714285714285
 40
0.4489795918367347
 40
0.4489795918367347
 40
0.4489795918367347
 40
0.4489795918367347
 40
0.4693877551020408
 40
0.4693877551020408
 40
0.4693877551020408
 40
0.4693877551020408
 40
0.4897959183673469
 40
0.4897959183673469
 40
0.4897959183673469
 40
0.4897959183673469
 40
0.5102040816326531
 40
0.5102040816326531
 40
0.5102040816326531
 40
0.5102040816326531
 40
0.5306122448979592
 40
0.5306122448979592
 40
0.5306122448979592
 40
0.5306122448979592
 40
0.5510204081632653
 40
0.5510204081632653
 40
0.5510204081632653
 40
0.5510204081632653
 40
0.5714285714285714
 40
0.5714285714285714
 40
0.5714285714285714
 40
0.5714285714285714
 40
0.5918367346938775
 40
0.5918367346938775
 40
0.5918367346938775
 40
0.5918367346938775
 40
0.6122448979591837
 40
0.6122448979591837
 40
0.6122448979591837
 40
0.6122448979591837
 40
0.6326530612244898
 40
0.6326530612244898
 40
0.6326530612244898
 40
0.6326530612244898
 40
0.6530612244897959
 40
0.6530612244897959
 40
0.6530612244897959
 40
0.6530612244897959
 40
0.673469387755102
 40
0.673469387755102
 40
0.673469387755102
 40
0.673469387755102
 40
0.6938775510204082
 40
0.6938775510204082
 40
0.6938775510204082
 40
0.6938775510204082
 40
0.7142857142857143
 40
0.7142857142857143
 40
0.7142857142857143
 40
0.7142857142857143
 40
0.7346938775510204
 40
0.7346938775510204
 40
0.7346938775510204
 40
0.7346938775510204
 40
0.7551020408163265
 40
0.7551020408163265
 40
0.7551020408163265
 40
0.7551020408163265
 40
0.7755102040816326
 40
0.7755102040816326
 40
0.7755102040816326
 40
0.7755102040816326
 40
0.7959183673469388
 40
0.7959183673469388
 40
0.7959183673469388
 40
0.7959183673469388
 40
0.8163265306122449
 40
0.8163265306122449
 40
0.8163265306122449
 40
0.8163265306122449
 40
0.8367346938775511
 40
0.8367346938775511
 40
0.8367346938775511
 40
0.8367346938775511
 40
0.8571428571428571
 40
0.8571428571428571
 40
0.8571428571428571
 40
0.8571428571428571
 40
0.8775510204081632
 40
0.8775510204081632
 40
0.8775510204081632
 40
0.8775510204081632
 40
0.8979591836734694
 40
0.8979591836734694
 40
0.8979591836734694
 40
0.8979591836734694
 40
0.9183673469387755
 40
0.9183673469387755
 40
0.9183673469387755
 40
0.9183673469387755
 40
0.9387755102040817
 40
0.9387755102040817
 40
0.9387755102040817
 40
0.9387755102040817
 40
0.9591836734693877
 40
0.9591836734693877
 40
0.9591836734693877
 40
0.9591836734693877
 40
1.0
 40
1.0
 40
1.0
 40
1.0
 10
9.72743
 20
19.7287
 30
0.0
 10
9.74135
 20
19.75285
 30
0.0
 10
9.77211
 20
19.76124
 30
0.0
 10
9.79639
 20
19.74753
 30
0.0
 10
9.79639
 20
19.74753
 30
0.0
 10
10.05278
 20
19.60279
 30
0.0
 10
10.30916
 20
19.45804
 30
0.0
 10
10.56555
 20
19.31331
 30
0.0
 10
10.56555
 20
19.31331
 30
0.0
 10
10.66217
 20
19.21796
 30
0.0
 10
10.76578
 20
19.15942
 30
0.0
 10
10.89731
 20
19.12597
 30
0.0
 10
10.89731
 20
19.12597
 30
0.0
 10
11.18398
 20
19.79599
 30
0.0
 10
11.18398
 20
20.5541
 30
0.0
 10
10.89731
 20
21.2241
 30
0.0
 10
10.89731
 20
21.2241
 30
0.0
 10
10.76579
 20
21.19068
 30
0.0
 10
10.66215
 20
21.13215
 30
0.0
 10
10.56555
 20
21.03679
 30
0.0
 10
10.56555
 20
21.03679
 30
0.0
 10
10.30917
 20
20.89208
 30
0.0
 10
10.05278
 20
20.7473
 30
0.0
 10
9.79639
 20
20.60257
 30
0.0
 10
9.79639
 20
20.60257
 30
0.0
 10
9.77211
 20
20.5889
 30
0.0
 10
9.74134
 20
20.59727
 30
0.0
 10
9.72742
 20
20.62142
 30
0.0
 10
9.72742
 20
20.62142
 30
0.0
 10
9.64257
 20
20.76833
 30
0.0
 10
9.55775
 20
20.91528
 30
0.0
 10
9.4729
 20
21.06218
 30
0.0
 10
9.4729
 20
21.06218
 30
0.0
 10
9.45899
 20
21.08635
 30
0.0
 10
9.46711
 20
21.11717
 30
0.0
 10
9.49109
 20
21.13136
 30
0.0
 10
9.49109
 20
21.13136
 30
0.0
 10
9.74465
 20
21.28103
 30
0.0
 10
9.99821
 20
21.43067
 30
0.0
 10
10.25173
 20
21.58032
 30
0.0
 10
10.25173
 20
21.58032
 30
0.0
 10
10.38263
 20
21.61629
 30
0.0
 10
10.48514
 20
21.67682
 30
0.0
 10
10.57981
 20
21.77401
 30
0.0
 10
10.57981
 20
21.77401
 30
0.0
 10
10.1429
 20
22.35728
 30
0.0
 10
9.48637
 20
22.73633
 30
0.0
 10
8.7628
 20
22.82311
 30
0.0
 10
8.7628
 20
22.82311
 30
0.0
 10
8.726
 20
22.69248
 30
0.0
 10
8.72483
 20
22.57341
 30
0.0
 10
8.75914
 20
22.44208
 30
0.0
 10
8.75914
 20
22.44208
 30
0.0
 10
8.75628
 20
22.14767
 30
0.0
 10
8.75343
 20
21.85328
 30
0.0
 10
8.7506
 20
21.55886
 30
0.0
 10
8.7506
 20
21.55886
 30
0.0
 10
8.7506
 20
21.531
 30
0.0
 10
8.72766
 20
21.50853
 30
0.0
 10
8.69982
 20
21.50853
 30
0.0
 10
8.69982
 20
21.50853
 30
0.0
 10
8.69982
 20
21.50853
 30
0.0
 10
8.19085
 20
21.50854
 30
0.0
 10
8.19085
 20
21.50854
 30
0.0
 10
8.19085
 20
21.50854
 30
0.0
 10
8.16297
 20
21.50854
 30
0.0
 10
8.14003
 20
21.53099
 30
0.0
 10
8.14003
 20
21.55886
 30
0.0
 10
8.14003
 20
21.55886
 30
0.0
 10
8.13717
 20
21.85329
 30
0.0
 10
8.13434
 20
22.14766
 30
0.0
 10
8.13152
 20
22.44208
 30
0.0
 10
8.13152
 20
22.44208
 30
0.0
 10
8.1658
 20
22.57342
 30
0.0
 10
8.16466
 20
22.69247
 30
0.0
 10
8.1278
 20
22.82311
 30
0.0
 10
8.1278
 20
22.82311
 30
0.0
 10
7.40426
 20
22.73633
 30
0.0
 10
6.74769
 20
22.35726
 30
0.0
 10
6.31079
 20
21.77401
 30
0.0
 10
6.31079
 20
21.77401
 30
0.0
 10
6.40553
 20
21.67684
 30
0.0
 10
6.50805
 20
21.61629
 30
0.0
 10
6.63889
 20
21.58032
 30
0.0
 10
6.63889
 20
21.58032
 30
0.0
 10
6.89246
 20
21.43067
 30
0.0
 10
7.14601
 20
21.28102
 30
0.0
 10
7.39954
 20
21.13136
 30
0.0
 10
7.39954
 20
21.13136
 30
0.0
 10
7.42356
 20
21.11718
 30
0.0
 10
7.43164
 20
21.08633
 30
0.0
 10
7.41769
 20
21.06218
 30
0.0
 10
7.41769
 20
21.06218
 30
0.0
 10
7.33288
 20
20.91529
 30
0.0
 10
7.24806
 20
20.76831
 30
0.0
 10
7.16324
 20
20.62142
 30
0.0
 10
7.16324
 20
20.62142
 30
0.0
 10
7.14933
 20
20.59728
 30
0.0
 10
7.11852
 20
20.5889
 30
0.0
 10
7.09427
 20
20.60257
 30
0.0
 10
7.09427
 20
20.60257
 30
0.0
 10
6.83789
 20
20.74732
 30
0.0
 10
6.5815
 20
20.89206
 30
0.0
 10
6.32508
 20
21.03679
 30
0.0
 10
6.32508
 20
21.03679
 30
0.0
 10
6.22852
 20
21.13217
 30
0.0
 10
6.12482
 20
21.19068
 30
0.0
 10
5.99329
 20
21.2241
 30
0.0
 10
5.99329
 20
21.2241
 30
0.0
 10
5.70666
 20
20.55412
 30
0.0
 10
5.70665
 20
19.79597
 30
0.0
 10
5.99329
 20
19.12597
 30
0.0
 10
5.99329
 20
19.12597
 30
0.0
 10
6.12482
 20
19.15944
 30
0.0
 10
6.22851
 20
19.21796
 30
0.0
 10
6.32508
 20
19.31331
 30
0.0
 10
6.32508
 20
19.31331
 30
0.0
 10
6.58151
 20
19.45805
 30
0.0
 10
6.83788
 20
19.60277
 30
0.0
 10
7.09427
 20
19.74753
 30
0.0
 10
7.09427
 20
19.74753
 30
0.0
 10
7.11853
 20
19.76126
 30
0.0
 10
7.14932
 20
19.75284
 30
0.0
 10
7.16324
 20
19.72869
 30
0.0
 10
7.16324
 20
19.72869
 30
0.0
 10
7.24806
 20
19.58177
 30
0.0
 10
7.33287
 20
19.43486
 30
0.0
 10
7.41769
 20
19.28789
 30
0.0
 10
7.41769
 20
19.28789
 30
0.0
 10
7.43165
 20
19.26378
 30
0.0
 10
7.42355
 20
19.2329
 30
0.0
 10
7.39954
 20
19.21878
 30
0.0
 10
7.39954
 20
19.21878
 30
0.0
 10
7.14601
 20
19.06909
 30
0.0
 10
6.89245
 20
18.9194
 30
0.0
 10
6.63889
 20
18.76975
 30
0.0
 10
6.63889
 20
18.76975
 30
0.0
 10
6.50806
 20
18.73379
 30
0.0
 10
6.40552
 20
18.67328
 30
0.0
 10
6.31079
 20
18.57606
 30
0.0
 10
6.31079
 20
18.57606
 30
0.0
 10
6.7477
 20
17.99284
 30
0.0
 10
7.40426
 20
17.6138
 30
0.0
 10
8.1278
 20
17.52705
 30
0.0
 10
8.1278
 20
17.52705
 30
0.0
 10
8.16466
 20
17.6577
 30
0.0
 10
8.1658
 20
17.77668
 30
0.0
 10
8.13152
 20
17.90801
 30
0.0
 10
8.13152
 20
17.90801
 30
0.0
 10
8.13435
 20
18.20241
 30
0.0
 10
8.13717
 20
18.49682
 30
0.0
 10
8.14003
 20
18.79124
 30
0.0
 10
8.14003
 20
18.79124
 30
0.0
 10
8.14003
 20
18.8191
 30
0.0
 10
8.16297
 20
18.84154
 30
0.0
 10
8.19084
 20
18.84154
 30
0.0
 10
8.19084
 20
18.84154
 30
0.0
 10
8.19084
 20
18.84154
 30
0.0
 10
8.69983
 20
18.84154
 30
0.0
 10
8.69983
 20
18.84154
 30
0.0
 10
8.69983
 20
18.84154
 30
0.0
 10
8.72766
 20
18.84154
 30
0.0
 10
8.7506
 20
18.81908
 30
0.0
 10
8.7506
 20
18.79124
 30
0.0
 10
8.7506
 20
18.79124
 30
0.0
 10
8.75343
 20
18.49684
 30
0.0
 10
8.75628
 20
18.20241
 30
0.0
 10
8.75914
 20
17.90801
 30
0.0
 10
8.75914
 20
17.90801
 30
0.0
 10
8.72483
 20
17.77669
 30
0.0
 10
8.726
 20
17.65769
 30
0.0
 10
8.7628
 20
17.52705
 30
0.0
 10
8.7628
 20
17.52705
 30
0.0
 10
9.48637
 20
17.61381
 30
0.0
 10
10.1429
 20
17.99283
 30
0.0
 10
10.57981
 20
18.57606
 30
0.0
 10
10.57981
 20
18.57606
 30
0.0
 10
10.48514
 20
18.67329
 30
0.0
 10
10.38261
 20
18.73378
 30
0.0
 10
10.25173
 20
18.76975
 30
0.0
 10
10.25173
 20
18.76975
 30
0.0
 10
9.99821
 20
18.91941
 30
0.0
 10
9.74465
 20
19.06909
 30
0.0
 10
9.49109
 20
19.21878
 30
0.0
 10
9.49109
 20
19.21878
 30
0.0
 10
9.46712
 20
19.23292
 30
0.0
 10
9.45898
 20
19.26377
 30
0.0
 10
9.4729
 20
19.28789
 30
0.0
 10
9.4729
 20
19.28789
 30
0.0
 10
9.55775
 20
19.43487
 30
0.0
 10
9.64257
 20
19.58176
 30
0.0
 10
9.72743
 20
19.7287
 30
0.0
  0
SPLINE
  5
7E
330
1F
100
AcDbEntity
  8
layer 1
 62
     5
370
     0
100
AcDbSpline
210
0.0
220
0.0
230
1.0
 70
    11
 71
     3
 72
    20
 73
    16
 74
     0
 42
0.000000001
 43
0.0000000001
 40
0.0
 40
0.0
 40
0.0
 40
0.0
 40
0.2
 40
0.2
 40
0.2
 40
0.2
 40
0.4
 40
0.4
 40
0.4
 40
0.4
 40
0.6
 40
0.6
 40
0.6
 40
0.6
 40
1.0
 40
1.0
 40
1.0
 40
1.0
 10
8.4453
 20
19.81948
 30
0.0
 10
8.24892
 20
19.81948
 30
0.0
 10
8.08969
 20
19.9787
 30
0.0
 10
8.08969
 20
20.17507
 30
0.0
 10
8.08969
 20
20.17507
 30
0.0
 10
8.08969
 20
20.37147
 30
0.0
 10
8.24891
 20
20.53067
 30
0.0
 10
8.4453
 20
20.53067
 30
0.0
 10
8.4453
 20
20.53067
 30
0.0
 10
8.64169
 20
20.53068
 30
0.0
 10
8.8009
 20
20.37147
 30
0.0
 10
8.8009
 20
20.17507
 30
0.0
 10
8.8009
 20
20.17507
 30
0.0
 10
8.8009
 20
19.97871
 30
0.0
 10
8.64168
 20
19.81946
 30
0.0
 10
8.4453
 20
19.81948
 30
0.0
  0
SPLINE
  5
7F
330
1F
100
AcDbEntity
  8
layer 1
 62
     5
370
     0
100
AcDbSpline
210
0.0
220
0.0
230
1.0
 70
    11
 71
     3
 72
   196
 73
   192
 74
     0
 42
0.000000001
 43
0.0000000001
 40
0.0
 40
0.0
 40
0.0
 40
0.0
 40
0.0204081632653061
 40
0.0204081632653061
 40
0.0204081632653061
 40
0.0204081632653061
 40
0.0408163265306122
 40
0.0408163265306122
 40
0.0408163265306122
 40
0.0408163265306122
 40
0.0612244897959184
 40
0.0612244897959184
 40
0.0612244897959184
 40
0.0612244897959184
 40
0.0816326530612245
 40
0.0816326530612245
 40
0.0816326530612245
 40
0.0816326530612245
 40
0.1020408163265306
 40
0.1020408163265306
 40
0.1020408163265306
 40
0.1020408163265306
 40
0.1224489795918367
 40
0.1224489795918367
 40
0.1224489795918367
 40
0.1224489795918367
 40
0.1428571428571428
 40
0.1428571428571428
 40
0.1428571428571428
 40
0.1428571428571428
 40
0.163265306122449
 40
0.163265306122449
 40
0.163265306122449
 40
0.163265306122449
 40
0.1836734693877551
 40
0.1836734693877551
 40
0.1836734693877551
 40
0.1836734693877551
 40
0.2040816326530612
 40
0.2040816326530612
 40
0.2040816326530612
 40
0.2040816326530612
 40
0.2244897959183673
 40
0.2244897959183673
 40
0.2244897959183673
 40
0.2244897959183673
 40
0.2448979591836735
 40
0.2448979591836735
 40
0.2448979591836735
 40
0.2448979591836735
 40
0.2653061224489796
 40
0.2653061224489796
 40
0.2653061224489796
 40
0.2653061224489796
 40
0.2857142857142857
 40
0.2857142857142857
 40
0.2857142857142857
 40
0.2857142857142857
 40
0.3061224489795918
 40
0.3061224489795918
 40
0.3061224489795918
 40
0.3061224489795918
 40
0.3265306122448979
 40
0.3265306122448979
 40
0.3265306122448979
 40
0.3265306122448979
 40
0.3469387755102041
 40
0.3469387755102041
 40
0.3469387755102041
 40
0.3469387755102041
 40
0.3673469387755102
 40
0.3673469387755102
 40
0.3673469387755102
 40
0.3673469387755102
 40
0.3877551020408163
 40
0.3877551020408163
 40
0.3877551020408163
 40
0.3877551020408163
 40
0.4081632653061225
 40
0.4081632653061225
 40
0.4081632653061225
 40
0.4081632653061225
 40
0.4285714285714285
 40
0.4285714285714285
 40
0.4285714285714285
 40
0.4285714285714285
 40
0.4489795918367347
 40
0.4489795918367347
 40
0.4489795918367347
 40
0.4489795918367347
 40
0.4693877551020408
 40
0.4693877551020408
 40
0.4693877551020408
 40
0.4693877551020408
 40
0.4897959183673469
 40
0.4897959183673469
 40
0.4897959183673469
 40
0.4897959183673469
 40
0.5102040816326531
 40
0.5102040816326531
 40
0.5102040816326531
 40
0.5102040816326531
 40
0.5306122448979592
 40
0.5306122448979592
 40
0.5306122448979592
 40
0.5306122448979592
 40
0.5510204081632653
 40
0.5510204081632653
 40
0.5510204081632653
 40
0.5510204081632653
 40
0.5714285714285714
 40
0.5714285714285714
 40
0.5714285714285714
 40
0.5714285714285714
 40
0.5918367346938775
 40
0.5918367346938775
 40
0.5918367346938775
 40
0.5918367346938775
 40
0.6122448979591837
 40
0.6122448979591837
 40
0.6122448979591837
 40
0.6122448979591837
 40
0.6326530612244898
 40
0.6326530612244898
 40
0.6326530612244898
 40
0.6326530612244898
 40
0.6530612244897959
 40
0.6530612244897959
 40
0.6530612244897959
 40
0.6530612244897959
 40
0.673469387755102
 40
0.673469387755102
 40
0.673469387755102
 40
0.673469387755102
 40
0.6938775510204082
 40
0.6938775510204082
 40
0.6938775510204082
 40
0.6938775510204082
 40
0.7142857142857143
 40
0.7142857142857143
 40
0.7142857142857143
 40
0.7142857142857143
 40
0.7346938775510204
 40
0.7346938775510204
 40
0.7346938775510204
 40
0.7346938775510204
 40
0.7551020408163265
 40
0.7551020408163265
 40
0.7551020408163265
 40
0.7551020408163265
 40
0.7755102040816326
 40
0.7755102040816326
 40
0.7755102040816326
 40
0.7755102040816326
 40
0.7959183673469388
 40
0.7959183673469388
 40
0.7959183673469388
 40
0.7959183673469388
 40
0.8163265306122449
 40
0.8163265306122449
 40
0.8163265306122449
 40
0.8163265306122449
 40
0.8367346938775511
 40
0.8367346938775511
 40
0.8367346938775511
 40
0.8367346938775511
 40
0.8571428571428571
 40
0.8571428571428571
 40
0.8571428571428571
 40
0.8571428571428571
 40
0.8775510204081632
 40
0.8775510204081632
 40
0.8775510204081632
 40
0.8775510204081632
 40
0.8979591836734694
 40
0.8979591836734694
 40
0.8979591836734694
 40
0.8979591836734694
 40
0.9183673469387755
 40
0.9183673469387755
 40
0.9183673469387755
 40
0.9183673469387755
 40
0.9387755102040817
 40
0.9387755102040817
 40
0.9387755102040817
 40
0.9387755102040817
 40
0.9591836734693877
 40
0.9591836734693877
 40
0.9591836734693877
 40
0.9591836734693877
 40
1.0
 40
1.0
 40
1.0
 40
1.0
 10
2.62507
 20
19.72356
 30
0.0
 10
2.63899
 20
19.74773
 30
0.0
 10
2.66975
 20
19.75611
 30
0.0
 10
2.69404
 20
19.7424
 30
0.0
 10
2.69404
 20
19.7424
 30
0.0
 10
2.95043
 20
19.59765
 30
0.0
 10
3.2068
 20
19.45291
 30
0.0
 10
3.46319
 20
19.30818
 30
0.0
 10
3.46319
 20
19.30818
 30
0.0
 10
3.55979
 20
19.21282
 30
0.0
 10
3.66342
 20
19.15429
 30
0.0
 10
3.79495
 20
19.12084
 30
0.0
 10
3.79495
 20
19.12084
 30
0.0
 10
4.08162
 20
19.79085
 30
0.0
 10
4.08162
 20
20.54896
 30
0.0
 10
3.79495
 20
21.21897
 30
0.0
 10
3.79495
 20
21.21897
 30
0.0
 10
3.66342
 20
21.18556
 30
0.0
 10
3.55979
 20
21.12702
 30
0.0
 10
3.46319
 20
21.03166
 30
0.0
 10
3.46319
 20
21.03166
 30
0.0
 10
3.20681
 20
20.88694
 30
0.0
 10
2.95042
 20
20.74217
 30
0.0
 10
2.69404
 20
20.59744
 30
0.0
 10
2.69404
 20
20.59744
 30
0.0
 10
2.66975
 20
20.58376
 30
0.0
 10
2.63898
 20
20.59213
 30
0.0
 10
2.62507
 20
20.61628
 30
0.0
 10
2.62507
 20
20.61628
 30
0.0
 10
2.54022
 20
20.76319
 30
0.0
 10
2.45539
 20
20.91015
 30
0.0
 10
2.37054
 20
21.05705
 30
0.0
 10
2.37054
 20
21.05705
 30
0.0
 10
2.35662
 20
21.08121
 30
0.0
 10
2.36475
 20
21.11203
 30
0.0
 10
2.38873
 20
21.12623
 30
0.0
 10
2.38873
 20
21.12623
 30
0.0
 10
2.64229
 20
21.27589
 30
0.0
 10
2.89585
 20
21.42554
 30
0.0
 10
3.14938
 20
21.57519
 30
0.0
 10
3.14938
 20
21.57519
 30
0.0
 10
3.28026
 20
21.61117
 30
0.0
 10
3.38278
 20
21.67169
 30
0.0
 10
3.47745
 20
21.76887
 30
0.0
 10
3.47745
 20
21.76887
 30
0.0
 10
3.04055
 20
22.35214
 30
0.0
 10
2.38401
 20
22.73119
 30
0.0
 10
1.66044
 20
22.81798
 30
0.0
 10
1.66044
 20
22.81798
 30
0.0
 10
1.62365
 20
22.68734
 30
0.0
 10
1.62247
 20
22.56827
 30
0.0
 10
1.65679
 20
22.43695
 30
0.0
 10
1.65679
 20
22.43695
 30
0.0
 10
1.65394
 20
22.14253
 30
0.0
 10
1.65107
 20
21.84814
 30
0.0
 10
1.64825
 20
21.55373
 30
0.0
 10
1.64825
 20
21.55373
 30
0.0
 10
1.64825
 20
21.52587
 30
0.0
 10
1.6253
 20
21.50339
 30
0.0
 10
1.59746
 20
21.50339
 30
0.0
 10
1.59746
 20
21.50339
 30
0.0
 10
1.59746
 20
21.50339
 30
0.0
 10
1.08849
 20
21.5034
 30
0.0
 10
1.08849
 20
21.5034
 30
0.0
 10
1.08849
 20
21.5034
 30
0.0
 10
1.06062
 20
21.5034
 30
0.0
 10
1.03767
 20
21.52586
 30
0.0
 10
1.03767
 20
21.55373
 30
0.0
 10
1.03767
 20
21.55373
 30
0.0
 10
1.03481
 20
21.84815
 30
0.0
 10
1.03199
 20
22.14253
 30
0.0
 10
1.02916
 20
22.43695
 30
0.0
 10
1.02916
 20
22.43695
 30
0.0
 10
1.06345
 20
22.56828
 30
0.0
 10
1.0623
 20
22.68734
 30
0.0
 10
1.02544
 20
22.81798
 30
0.0
 10
1.02544
 20
22.81798
 30
0.0
 10
0.3019
 20
22.73119
 30
0.0
 10
-0.35466
 20
22.35213
 30
0.0
 10
-0.79157
 20
21.76887
 30
0.0
 10
-0.79157
 20
21.76887
 30
0.0
 10
-0.69683
 20
21.6717
 30
0.0
 10
-0.59431
 20
21.61116
 30
0.0
 10
-0.46346
 20
21.57519
 30
0.0
 10
-0.46346
 20
21.57519
 30
0.0
 10
-0.2099
 20
21.42554
 30
0.0
 10
0.04366
 20
21.27588
 30
0.0
 10
0.29718
 20
21.12623
 30
0.0
 10
0.29718
 20
21.12623
 30
0.0
 10
0.3212
 20
21.11204
 30
0.0
 10
0.32929
 20
21.0812
 30
0.0
 10
0.31533
 20
21.05705
 30
0.0
 10
0.31533
 20
21.05705
 30
0.0
 10
0.23052
 20
20.91015
 30
0.0
 10
0.1457
 20
20.76318
 30
0.0
 10
0.06088
 20
20.61628
 30
0.0
 10
0.06088
 20
20.61628
 30
0.0
 10
0.04697
 20
20.59214
 30
0.0
 10
0.01617
 20
20.58376
 30
0.0
 10
-0.00809
 20
20.59744
 30
0.0
 10
-0.00809
 20
20.59744
 30
0.0
 10
-0.26447
 20
20.74218
 30
0.0
 10
-0.52086
 20
20.88693
 30
0.0
 10
-0.77727
 20
21.03166
 30
0.0
 10
-0.77727
 20
21.03166
 30
0.0
 10
-0.87384
 20
21.12703
 30
0.0
 10
-0.97754
 20
21.18555
 30
0.0
 10
-1.10907
 20
21.21897
 30
0.0
 10
-1.10907
 20
21.21897
 30
0.0
 10
-1.39571
 20
20.54898
 30
0.0
 10
-1.39571
 20
19.79084
 30
0.0
 10
-1.10907
 20
19.12084
 30
0.0
 10
-1.10907
 20
19.12084
 30
0.0
 10
-0.97754
 20
19.1543
 30
0.0
 10
-0.87384
 20
19.21282
 30
0.0
 10
-0.77727
 20
19.30818
 30
0.0
 10
-0.77727
 20
19.30818
 30
0.0
 10
-0.52086
 20
19.45293
 30
0.0
 10
-0.26447
 20
19.59764
 30
0.0
 10
-0.00809
 20
19.7424
 30
0.0
 10
-0.00809
 20
19.7424
 30
0.0
 10
0.01617
 20
19.75612
 30
0.0
 10
0.04696
 20
19.74771
 30
0.0
 10
0.06088
 20
19.72356
 30
0.0
 10
0.06088
 20
19.72356
 30
0.0
 10
0.1457
 20
19.57663
 30
0.0
 10
0.23052
 20
19.42972
 30
0.0
 10
0.31533
 20
19.28276
 30
0.0
 10
0.31533
 20
19.28276
 30
0.0
 10
0.3293
 20
19.25866
 30
0.0
 10
0.32119
 20
19.22777
 30
0.0
 10
0.29718
 20
19.21365
 30
0.0
 10
0.29718
 20
19.21365
 30
0.0
 10
0.04366
 20
19.06397
 30
0.0
 10
-0.2099
 20
18.91427
 30
0.0
 10
-0.46346
 20
18.76461
 30
0.0
 10
-0.46346
 20
18.76461
 30
0.0
 10
-0.59431
 20
18.72865
 30
0.0
 10
-0.69683
 20
18.66815
 30
0.0
 10
-0.79157
 20
18.57093
 30
0.0
 10
-0.79157
 20
18.57093
 30
0.0
 10
-0.35466
 20
17.98768
 30
0.0
 10
0.3019
 20
17.60865
 30
0.0
 10
1.02544
 20
17.5219
 30
0.0
 10
1.02544
 20
17.5219
 30
0.0
 10
1.06231
 20
17.65254
 30
0.0
 10
1.06344
 20
17.77153
 30
0.0
 10
1.02916
 20
17.90286
 30
0.0
 10
1.02916
 20
17.90286
 30
0.0
 10
1.03199
 20
18.19727
 30
0.0
 10
1.03481
 20
18.49169
 30
0.0
 10
1.03767
 20
18.78611
 30
0.0
 10
1.03767
 20
18.78611
 30
0.0
 10
1.03767
 20
18.81396
 30
0.0
 10
1.06061
 20
18.83641
 30
0.0
 10
1.08849
 20
18.83641
 30
0.0
 10
1.08849
 20
18.83641
 30
0.0
 10
1.08849
 20
18.83641
 30
0.0
 10
1.59747
 20
18.83642
 30
0.0
 10
1.59747
 20
18.83642
 30
0.0
 10
1.59747
 20
18.83642
 30
0.0
 10
1.6253
 20
18.83642
 30
0.0
 10
1.64825
 20
18.81395
 30
0.0
 10
1.64825
 20
18.78611
 30
0.0
 10
1.64825
 20
18.78611
 30
0.0
 10
1.65107
 20
18.4917
 30
0.0
 10
1.65393
 20
18.19727
 30
0.0
 10
1.65679
 20
17.90286
 30
0.0
 10
1.65679
 20
17.90286
 30
0.0
 10
1.62247
 20
17.77155
 30
0.0
 10
1.62365
 20
17.65254
 30
0.0
 10
1.66044
 20
17.5219
 30
0.0
 10
1.66044
 20
17.5219
 30
0.0
 10
2.38402
 20
17.60865
 30
0.0
 10
3.04054
 20
17.98767
 30
0.0
 10
3.47745
 20
18.57093
 30
0.0
 10
3.47745
 20
18.57093
 30
0.0
 10
3.38278
 20
18.66817
 30
0.0
 10
3.28025
 20
18.72865
 30
0.0
 10
3.14938
 20
18.76461
 30
0.0
 10
3.14938
 20
18.76461
 30
0.0
 10
2.89586
 20
18.91429
 30
0.0
 10
2.64229
 20
19.06396
 30
0.0
 10
2.38873
 20
19.21365
 30
0.0
 10
2.38873
 20
19.21365
 30
0.0
 10
2.36476
 20
19.22778
 30
0.0
 10
2.35662
 20
19.25864
 30
0.0
 10
2.37054
 20
19.28276
 30
0.0
 10
2.37054
 20
19.28276
 30
0.0
 10
2.4554
 20
19.42973
 30
0.0
 10
2.54021
 20
19.57662
 30
0.0
 10
2.62507
 20
19.72356
 30
0.0
  0
SPLINE
  5
80
330
1F
100
AcDbEntity
  8
layer 1
 62
     5
370
     0
100
AcDbSpline
210
0.0
220
0.0
230
1.0
 70
    11
 71
     3
 72
    20
 73
    16
 74
     0
 42
0.000000001
 43
0.0000000001
 40
0.0
 40
0.0
 40
0.0
 40
0.0
 40
0.2
 40
0.2
 40
0.2
 40
0.2
 40
0.4
 40
0.4
 40
0.4
 40
0.4
 40
0.6
 40
0.6
 40
0.6
 40
0.6
 40
1.0
 40
1.0
 40
1.0
 40
1.0
 10
1.34295
 20
19.81434
 30
0.0
 10
1.14655
 20
19.81434
 30
0.0
 10
0.98734
 20
19.97357
 30
0.0
 10
0.98734
 20
20.16994
 30
0.0
 10
0.98734
 20
20.16994
 30
0.0
 10
0.98734
 20
20.36636
 30
0.0
 10
1.14655
 20
20.52554
 30
0.0
 10
1.34294
 20
20.52554
 30
0.0
 10
1.34294
 20
20.52554
 30
0.0
 10
1.53933
 20
20.52554
 30
0.0
 10
1.69854
 20
20.36634
 30
0.0
 10
1.69854
 20
20.16994
 30
0.0
 10
1.69854
 20
20.16994
 30
0.0
 10
1.69854
 20
19.97357
 30
0.0
 10
1.53932
 20
19.81433
 30
0.0
 10
1.34295
 20
19.81434
 30
0.0
  0
ENDSEC
  0
SECTION
  2
OBJECTS
  0
DICTIONARY
  5
C
330
0
100
AcDbDictionary
281
     1
  3
ACAD_DETAILVIEWSTYLE
350
BC
  3
ACAD_GROUP
350
D
  3
ACAD_LAYOUT
350
1A
  3
ACAD_MATERIAL
350
43
  3
ACAD_MLEADERSTYLE
350
6B
  3
ACAD_MLINESTYLE
350
17
  3
ACAD_PLOTSETTINGS
350
19
  3
ACAD_PLOTSTYLENAME
350
E
  3
ACAD_SCALELIST
350
47
  3
ACAD_SECTIONVIEWSTYLE
350
BD
  3
ACAD_TABLESTYLE
350
69
  3
ACAD_VISUALSTYLE
350
2A
  3
ACDB_RECOMPOSE_DATA
350
B9
  3
AcDbVariableDictionary
350
81
  0
SUN
  5
6D
330
29
100
AcDbSun
 90
        1
290
     0
 63
     7
421
 16777215
 40
1.0
291
     1
 91
  2455826
 92
 54000000
292
     0
 70
     2
 71
   256
280
     1
  0
DICTIONARY
  5
BC
102
{ACAD_REACTORS
330
C
102
}
330
C
100
AcDbDictionary
281
     1
  0
DICTIONARY
  5
D
102
{ACAD_REACTORS
330
C
102
}
330
C
100
AcDbDictionary
281
     1
  0
DICTIONARY
  5
1A
102
{ACAD_REACTORS
330
C
102
}
330
C
100
AcDbDictionary
281
     1
  3
Layout1
350
1E
  3
Layout2
350
26
  3
Model
350
22
  0
DICTIONARY
  5
43
102
{ACAD_REACTORS
330
C
102
}
330
C
100
AcDbDictionary
281
     1
  3
ByBlock
350
45
  3
ByLayer
350
44
  3
Global
350
46
  0
DICTIONARY
  5
6B
102
{ACAD_REACTORS
330
C
102
}
330
C
100
AcDbDictionary
281
     1
  3
Standard
350
6C
  0
DICTIONARY
  5
17
102
{ACAD_REACTORS
330
C
102
}
330
C
100
AcDbDictionary
281
     1
  3
Standard
350
18
  0
DICTIONARY
  5
19
102
{ACAD_REACTORS
330
C
102
}
330
C
100
AcDbDictionary
281
     1
  0
ACDBDICTIONARYWDFLT
  5
E
102
{ACAD_REACTORS
330
C
102
}
330
C
100
AcDbDictionary
281
     1
  3
Normal
350
F
100
AcDbDictionaryWithDefault
340
F
  0
DICTIONARY
  5
47
102
{ACAD_REACTORS
330
C
102
}
330
C
100
AcDbDictionary
281
     1
  3
A0
350
48
  3
A1
350
49
  3
A2
350
4A
  3
A3
350
4B
  3
A4
350
4C
  3
A5
350
4D
  3
A6
350
4E
  3
A7
350
4F
  3
A8
350
50
  3
A9
350
51
  3
B0
350
52
  3
B1
350
53
  3
B2
350
54
  3
B3
350
55
  3
B4
350
56
  3
B5
350
57
  3
B6
350
58
  3
B7
350
59
  3
B8
350
5A
  3
B9
350
5B
  3
C0
350
5C
  3
C1
350
5D
  3
C2
350
5E
  3
C3
350
5F
  3
C4
350
60
  3
C5
350
61
  3
C6
350
62
  3
C7
350
63
  3
C8
350
64
  3
C9
350
65
  3
D0
350
66
  3
D1
350
67
  3
D2
350
68
  0
DICTIONARY
  5
BD
102
{ACAD_REACTORS
330
C
102
}
330
C
100
AcDbDictionary
281
     1
  0
DICTIONARY
  5
69
102
{ACAD_REACTORS
330
C
102
}
330
C
100
AcDbDictionary
281
     1
  3
Standard
350
6A
  0
DICTIONARY
  5
2A
102
{ACAD_REACTORS
330
C
102
}
330
C
100
AcDbDictionary
281
     1
  3
2dWireframe
350
2F
  3
Basic
350
32
  3
Brighten
350
36
  3
ColorChange
350
3A
  3
Conceptual
350
34
  3
Dim
350
35
  3
EdgeColorOff
350
3D
  3
Facepattern
350
39
  3
Flat
350
2B
  3
FlatWithEdges
350
2C
  3
Gouraud
350
2D
  3
GouraudWithEdges
350
2E
  3
Hidden
350
31
  3
JitterOff
350
3B
  3
Linepattern
350
38
  3
OverhangOff
350
3C
  3
Realistic
350
33
  3
Shaded
350
42
  3
Shaded with edges
350
41
  3
Shades of Gray
350
3E
  3
Sketchy
350
3F
  3
Thicken
350
37
  3
Wireframe
350
30
  3
X-Ray
350
40
  0
XRECORD
  5
B9
102
{ACAD_REACTORS
330
C
102
}
330
C
100
AcDbXrecord
280
     1
 90
        1
330
6A
  0
DICTIONARY
  5
81
102
{ACAD_REACTORS
330
C
102
}
330
C
100
AcDbDictionary
281
     1
  3
CANNOSCALE
350
82
  3
CMLEADERSTYLE
350
BB
  3
CTABLESTYLE
350
BA
  3
XCLIPFRAME
350
83
  0
LAYOUT
  5
1E
102
{ACAD_REACTORS
330
1A
102
}
330
1A
100
AcDbPlotSettings
  1

  2
none_device
  4

  6

 40
0.0
 41
0.0
 42
0.0
 43
0.0
 44
0.0
 45
0.0
 46
0.0
 47
0.0
 48
0.0
 49
0.0
140
0.0
141
0.0
142
1.0
143
1.0
 70
   688
 72
     0
 73
     0
 74
     5
  7

 75
    16
 76
     0
 77
     2
 78
   300
147
1.0
148
0.0
149
0.0
100
AcDbLayout
  1
Layout1
 70
     1
 71
     1
 10
0.0
 20
0.0
 11
12.0
 21
9.0
 12
0.0
 22
0.0
 32
0.0
 14
1.000000000000000E+20
 24
1.000000000000000E+20
 34
1.000000000000000E+20
 15
-1.000000000000000E+20
 25
-1.000000000000000E+20
 35
-1.000000000000000E+20
146
0.0
 13
0.0
 23
0.0
 33
0.0
 16
1.0
 26
0.0
 36
0.0
 17
0.0
 27
1.0
 37
0.0
 76
     0
330
1B
  0
LAYOUT
  5
26
102
{ACAD_REACTORS
330
1A
102
}
330
1A
100
AcDbPlotSettings
  1

  2
none_device
  4

  6

 40
0.0
 41
0.0
 42
0.0
 43
0.0
 44
0.0
 45
0.0
 46
0.0
 47
0.0
 48
0.0
 49
0.0
140
0.0
141
0.0
142
1.0
143
1.0
 70
   688
 72
     0
 73
     0
 74
     5
  7

 75
    16
 76
     0
 77
     2
 78
   300
147
1.0
148
0.0
149
0.0
100
AcDbLayout
  1
Layout2
 70
     1
 71
     2
 10
0.0
 20
0.0
 11
0.0
 21
0.0
 12
0.0
 22
0.0
 32
0.0
 14
0.0
 24
0.0
 34
0.0
 15
0.0
 25
0.0
 35
0.0
146
0.0
 13
0.0
 23
0.0
 33
0.0
 16
1.0
 26
0.0
 36
0.0
 17
0.0
 27
1.0
 37
0.0
 76
     0
330
23
  0
LAYOUT
  5
22
102
{ACAD_REACTORS
330
1A
102
}
330
1A
100
AcDbPlotSettings
  1

  2
none_device
  4
Letter_(8.50_x_11.00_Inches)
  6

 40
6.35
 41
6.35
 42
6.35000508
 43
6.35000508
 44
215.9
 45
279.4
 46
0.0
 47
0.0
 48
0.0
 49
0.0
140
0.0
141
0.0
142
1.0
143
1.0
 70
  1712
 72
     0
 73
     0
 74
     0
  7

 75
     0
 76
     0
 77
     2
 78
   300
147
1.0
148
0.0
149
0.0
100
AcDbLayout
  1
Model
 70
     1
 71
     0
 10
0.0
 20
0.0
 11
12.0
 21
9.0
 12
0.0
 22
0.0
 32
0.0
 14
-8.26255
 24
-12.71692
 34
0.0
 15
67.52135
 25
22.92075
 35
0.0
146
0.0
 13
0.0
 23
0.0
 33
0.0
 16
1.0
 26
0.0
 36
0.0
 17
0.0
 27
1.0
 37
0.0
 76
     0
330
1F
331
29
  0
MATERIAL
  5
45
102
{ACAD_REACTORS
330
43
102
}
330
43
100
AcDbMaterial
  1
ByBlock
 72
     1
 94
      127
  0
MATERIAL
  5
44
102
{ACAD_REACTORS
330
43
102
}
330
43
100
AcDbMaterial
  1
ByLayer
 72
     1
 94
      127
  0
MATERIAL
  5
46
102
{ACAD_REACTORS
330
43
102
}
330
43
100
AcDbMaterial
  1
Global
 72
     1
 94
      127
  0
MLEADERSTYLE
  5
6C
102
{ACAD_REACTORS
330
6B
102
}
102
{ACAD_XDICTIONARY
360
B7
102
}
330
6B
100
AcDbMLeaderStyle
170
     2
171
     1
172
     0
 90
        2
 40
0.0
 41
0.0
173
     1
 91
-1056964608
340
14
 92
       -2
290
     1
 42
0.09
291
     1
 43
0.36
  3
Standard
341
0
 44
0.18
300

342
11
174
     1
178
     6
175
     1
176
     0
 93
-1056964608
 45
0.18
292
     0
297
     0
 46
0.18
343
0
 94
-1056964608
 47
1.0
 49
1.0
140
1.0
293
     1
141
0.0
294
     1
177
     0
142
1.0
295
     0
296
     0
143
0.125
1001
ACAD_MLEADERVER
1070
     2
  0
MLINESTYLE
  5
18
102
{ACAD_REACTORS
330
17
102
}
330
17
100
AcDbMlineStyle
  2
Standard
 70
     0
  3

 62
   256
 51
90.0
 52
90.0
 71
     2
 49
0.5
 62
   256
  6
BYLAYER
 49
-0.5
 62
   256
  6
BYLAYER
  0
ACDBPLACEHOLDER
  5
F
102
{ACAD_REACTORS
330
E
102
}
330
E
  0
SCALE
  5
48
102
{ACAD_REACTORS
330
47
102
}
330
47
100
AcDbScale
 70
     0
300
1:1
140
1.0
141
1.0
290
     1
  0
SCALE
  5
49
102
{ACAD_REACTORS
330
47
102
}
330
47
100
AcDbScale
 70
     0
300
1:2
140
1.0
141
2.0
290
     0
  0
SCALE
  5
4A
102
{ACAD_REACTORS
330
47
102
}
330
47
100
AcDbScale
 70
     0
300
1:4
140
1.0
141
4.0
290
     0
  0
SCALE
  5
4B
102
{ACAD_REACTORS
330
47
102
}
330
47
100
AcDbScale
 70
     0
300
1:5
140
1.0
141
5.0
290
     0
  0
SCALE
  5
4C
102
{ACAD_REACTORS
330
47
102
}
330
47
100
AcDbScale
 70
     0
300
1:8
140
1.0
141
8.0
290
     0
  0
SCALE
  5
4D
102
{ACAD_REACTORS
330
47
102
}
330
47
100
AcDbScale
 70
     0
300
1:10
140
1.0
141
10.0
290
     0
  0
SCALE
  5
4E
102
{ACAD_REACTORS
330
47
102
}
330
47
100
AcDbScale
 70
     0
300
1:16
140
1.0
141
16.0
290
     0
  0
SCALE
  5
4F
102
{ACAD_REACTORS
330
47
102
}
330
47
100
AcDbScale
 70
     0
300
1:20
140
1.0
141
20.0
290
     0
  0
SCALE
  5
50
102
{ACAD_REACTORS
330
47
102
}
330
47
100
AcDbScale
 70
     0
300
1:30
140
1.0
141
30.0
290
     0
  0
SCALE
  5
51
102
{ACAD_REACTORS
330
47
102
}
330
47
100
AcDbScale
 70
     0
300
1:40
140
1.0
141
40.0
290
     0
  0
SCALE
  5
52
102
{ACAD_REACTORS
330
47
102
}
330
47
100
AcDbScale
 70
     0
300
1:50
140
1.0
141
50.0
290
     0
  0
SCALE
  5
53
102
{ACAD_REACTORS
330
47
102
}
330
47
100
AcDbScale
 70
     0
300
1:100
140
1.0
141
100.0
290
     0
  0
SCALE
  5
54
102
{ACAD_REACTORS
330
47
102
}
330
47
100
AcDbScale
 70
     0
300
2:1
140
2.0
141
1.0
290
     0
  0
SCALE
  5
55
102
{ACAD_REACTORS
330
47
102
}
330
47
100
AcDbScale
 70
     0
300
4:1
140
4.0
141
1.0
290
     0
  0
SCALE
  5
56
102
{ACAD_REACTORS
330
47
102
}
330
47
100
AcDbScale
 70
     0
300
8:1
140
8.0
141
1.0
290
     0
  0
SCALE
  5
57
102
{ACAD_REACTORS
330
47
102
}
330
47
100
AcDbScale
 70
     0
300
10:1
140
10.0
141
1.0
290
     0
  0
SCALE
  5
58
102
{ACAD_REACTORS
330
47
102
}
330
47
100
AcDbScale
 70
     0
300
100:1
140
100.0
141
1.0
290
     0
  0
SCALE
  5
59
102
{ACAD_REACTORS
330
47
102
}
330
47
100
AcDbScale
 70
     0
300
1/128" = 1'-0"
140
0.0078125
141
12.0
290
     0
  0
SCALE
  5
5A
102
{ACAD_REACTORS
330
47
102
}
330
47
100
AcDbScale
 70
     0
300
1/64" = 1'-0"
140
0.015625
141
12.0
290
     0
  0
SCALE
  5
5B
102
{ACAD_REACTORS
330
47
102
}
330
47
100
AcDbScale
 70
     0
300
1/32" = 1'-0"
140
0.03125
141
12.0
290
     0
  0
SCALE
  5
5C
102
{ACAD_REACTORS
330
47
102
}
330
47
100
AcDbScale
 70
     0
300
1/16" = 1'-0"
140
0.0625
141
12.0
290
     0
  0
SCALE
  5
5D
102
{ACAD_REACTORS
330
47
102
}
330
47
100
AcDbScale
 70
     0
300
3/32" = 1'-0"
140
0.09375
141
12.0
290
     0
  0
SCALE
  5
5E
102
{ACAD_REACTORS
330
47
102
}
330
47
100
AcDbScale
 70
     0
300
1/8" = 1'-0"
140
0.125
141
12.0
290
     0
  0
SCALE
  5
5F
102
{ACAD_REACTORS
330
47
102
}
330
47
100
AcDbScale
 70
     0
300
3/16" = 1'-0"
140
0.1875
141
12.0
290
     0
  0
SCALE
  5
60
102
{ACAD_REACTORS
330
47
102
}
330
47
100
AcDbScale
 70
     0
300
1/4" = 1'-0"
140
0.25
141
12.0
290
     0
  0
SCALE
  5
61
102
{ACAD_REACTORS
330
47
102
}
330
47
100
AcDbScale
 70
     0
300
3/8" = 1'-0"
140
0.375
141
12.0
290
     0
  0
SCALE
  5
62
102
{ACAD_REACTORS
330
47
102
}
330
47
100
AcDbScale
 70
     0
300
1/2" = 1'-0"
140
0.5
141
12.0
290
     0
  0
SCALE
  5
63
102
{ACAD_REACTORS
330
47
102
}
330
47
100
AcDbScale
 70
     0
300
3/4" = 1'-0"
140
0.75
141
12.0
290
     0
  0
SCALE
  5
64
102
{ACAD_REACTORS
330
47
102
}
330
47
100
AcDbScale
 70
     0
300
1" = 1'-0"
140
1.0
141
12.0
290
     0
  0
SCALE
  5
65
102
{ACAD_REACTORS
330
47
102
}
330
47
100
AcDbScale
 70
     0
300
1-1/2" = 1'-0"
140
1.5
141
12.0
290
     0
  0
SCALE
  5
66
102
{ACAD_REACTORS
330
47
102
}
330
47
100
AcDbScale
 70
     0
300
3" = 1'-0"
140
3.0
141
12.0
290
     0
  0
SCALE
  5
67
102
{ACAD_REACTORS
330
47
102
}
330
47
100
AcDbScale
 70
     0
300
6" = 1'-0"
140
6.0
141
12.0
290
     0
  0
SCALE
  5
68
102
{ACAD_REACTORS
330
47
102
}
330
47
100
AcDbScale
 70
     0
300
1'-0" = 1'-0"
140
12.0
141
12.0
290
     0
  0
TABLESTYLE
  5
6A
102
{ACAD_REACTORS
330
69
102
}
102
{ACAD_XDICTIONARY
360
B4
102
}
330
69
100
AcDbTableStyle
  3
Standard
 70
     0
 71
     0
 40
0.06
 41
0.06
280
     0
281
     0
  7
Standard
140
0.18
170
     2
 62
     0
 63
   257
283
     0
 90
        4
 91
        0
  1

274
    -2
284
     1
 64
     0
275
    -2
285
     1
 65
     0
276
    -2
286
     1
 66
     0
277
    -2
287
     1
 67
     0
278
    -2
288
     1
 68
     0
279
    -2
289
     1
 69
     0
  7
Standard
140
0.25
170
     5
 62
     0
 63
   257
283
     0
 90
        4
 91
        0
  1

274
    -2
284
     1
 64
     0
275
    -2
285
     1
 65
     0
276
    -2
286
     1
 66
     0
277
    -2
287
     1
 67
     0
278
    -2
288
     1
 68
     0
279
    -2
289
     1
 69
     0
  7
Standard
140
0.18
170
     5
 62
     0
 63
   257
283
     0
 90
        4
 91
        0
  1

274
    -2
284
     1
 64
     0
275
    -2
285
     1
 65
     0
276
    -2
286
     1
 66
     0
277
    -2
287
     1
 67
     0
278
    -2
288
     1
 68
     0
279
    -2
289
     1
 69
     0
  0
VISUALSTYLE
  5
2F
102
{ACAD_REACTORS
330
2A
102
}
102
{ACAD_XDICTIONARY
360
8C
102
}
330
2A
100
AcDbVisualStyle
  2
2dWireframe
 70
     4
 71
     0
 72
     2
 73
     0
 90
        0
 40
0.6
 41
30.0
 62
     5
 63
     7
421
 16777215
 74
     1
 91
        4
 64
     7
 65
   257
 75
     1
175
     1
 42
1.0
 92
        0
 66
   257
 43
1.0
 76
     1
 77
     6
 78
     2
 67
     7
 79
     5
170
     0
171
     0
290
     0
174
     0
 93
        1
 44
0.0
173
     0
291
     0
 45
0.0
  0
VISUALSTYLE
  5
32
102
{ACAD_REACTORS
330
2A
102
}
102
{ACAD_XDICTIONARY
360
92
102
}
330
2A
100
AcDbVisualStyle
  2
Basic
 70
     7
 71
     1
 72
     0
 73
     1
 90
        0
 40
0.6
 41
30.0
 62
     5
 63
     7
421
 16777215
 74
     0
 91
        4
 64
     7
 65
   257
 75
     1
175
     1
 42
1.0
 92
        8
 66
     7
 43
1.0
 76
     1
 77
     6
 78
     2
 67
     7
 79
     5
170
     0
171
     0
290
     0
174
     0
 93
        1
 44
0.0
173
     0
291
     1
 45
0.0
  0
VISUALSTYLE
  5
36
102
{ACAD_REACTORS
330
2A
102
}
102
{ACAD_XDICTIONARY
360
9A
102
}
330
2A
100
AcDbVisualStyle
  2
Brighten
 70
    12
 71
     2
 72
     2
 73
     0
 90
        0
 40
0.6
 41
30.0
 62
     5
 63
     7
421
 16777215
 74
     1
 91
        4
 64
     7
 65
   257
 75
     1
175
     1
 42
1.0
 92
        8
 66
     7
 43
1.0
 76
     1
 77
     6
 78
     2
 67
     7
 79
     5
170
     0
171
     0
290
     0
174
     0
 93
        1
 44
50.0
173
     0
291
     1
 45
0.0
  0
VISUALSTYLE
  5
3A
102
{ACAD_REACTORS
330
2A
102
}
102
{ACAD_XDICTIONARY
360
A2
102
}
330
2A
100
AcDbVisualStyle
  2
ColorChange
 70
    16
 71
     2
 72
     2
 73
     3
 90
        0
 40
0.6
 41
30.0
 62
     5
 63
     8
421
  8421504
 74
     1
 91
        4
 64
     7
 65
   257
 75
     1
175
     1
 42
1.0
 92
        8
 66
     8
424
  8421504
 43
1.0
 76
     1
 77
     6
 78
     2
 67
     7
 79
     5
170
     0
171
     0
290
     0
174
     0
 93
        1
 44
0.0
173
     0
291
     1
 45
0.0
  0
VISUALSTYLE
  5
34
102
{ACAD_REACTORS
330
2A
102
}
102
{ACAD_XDICTIONARY
360
96
102
}
330
2A
100
AcDbVisualStyle
  2
Conceptual
 70
     9
 71
     3
 72
     2
 73
     0
 90
        0
 40
0.6
 41
30.0
 62
     5
 63
     7
421
 16777215
 74
     2
 91
        2
 64
     7
 65
   257
 75
     1
175
     1
 42
179.0
 92
        8
 66
     7
 43
1.0
 76
     1
 77
     6
 78
     2
 67
     7
 79
     3
170
     0
171
     0
290
     0
174
     0
 93
        1
 44
0.0
173
     0
291
     0
 45
0.0
  0
VISUALSTYLE
  5
35
102
{ACAD_REACTORS
330
2A
102
}
102
{ACAD_XDICTIONARY
360
98
102
}
330
2A
100
AcDbVisualStyle
  2
Dim
 70
    11
 71
     2
 72
     2
 73
     0
 90
        0
 40
0.6
 41
30.0
 62
     5
 63
     7
421
 16777215
 74
     1
 91
        4
 64
     7
 65
   257
 75
     1
175
     1
 42
1.0
 92
        8
 66
     7
 43
1.0
 76
     1
 77
     6
 78
     2
 67
     7
 79
     5
170
     0
171
     0
290
     0
174
     0
 93
        1
 44
-50.0
173
     0
291
     1
 45
0.0
  0
VISUALSTYLE
  5
3D
102
{ACAD_REACTORS
330
2A
102
}
102
{ACAD_XDICTIONARY
360
A8
102
}
330
2A
100
AcDbVisualStyle
  2
EdgeColorOff
 70
    22
 71
     2
 72
     2
 73
     0
 90
        0
 40
0.6
 41
30.0
 62
     5
 63
     7
421
 16777215
 74
     1
 91
        4
 64
     7
 65
   257
 75
     1
175
     1
 42
1.0
 92
        8
 66
     7
 43
1.0
 76
     1
 77
     6
 78
     2
 67
     7
 79
     5
170
     0
171
     0
290
     0
174
     0
 93
        1
 44
0.0
173
     0
291
     1
 45
0.0
  0
VISUALSTYLE
  5
39
102
{ACAD_REACTORS
330
2A
102
}
102
{ACAD_XDICTIONARY
360
A0
102
}
330
2A
100
AcDbVisualStyle
  2
Facepattern
 70
    15
 71
     2
 72
     2
 73
     0
 90
        0
 40
0.6
 41
30.0
 62
     5
 63
     7
421
 16777215
 74
     1
 91
        4
 64
     7
 65
   257
 75
     1
175
     1
 42
1.0
 92
        8
 66
     7
 43
1.0
 76
     1
 77
     6
 78
     2
 67
     7
 79
     5
170
     0
171
     0
290
     0
174
     0
 93
        1
 44
0.0
173
     0
291
     1
 45
0.0
  0
VISUALSTYLE
  5
2B
102
{ACAD_REACTORS
330
2A
102
}
102
{ACAD_XDICTIONARY
360
84
102
}
330
2A
100
AcDbVisualStyle
  2
Flat
 70
     0
 71
     2
 72
     1
 73
     1
 90
        2
 40
0.6
 41
30.0
 62
     5
 63
     7
421
 16777215
 74
     0
 91
        0
 64
     7
 65
   257
 75
     1
175
     1
 42
1.0
 92
        8
 66
     7
 43
1.0
 76
     1
 77
     6
 78
     2
 67
     7
 79
     5
170
     0
171
     0
290
     0
174
     0
 93
       13
 44
0.0
173
     0
291
     1
 45
0.0
  0
VISUALSTYLE
  5
2C
102
{ACAD_REACTORS
330
2A
102
}
102
{ACAD_XDICTIONARY
360
86
102
}
330
2A
100
AcDbVisualStyle
  2
FlatWithEdges
 70
     1
 71
     2
 72
     1
 73
     1
 90
        2
 40
0.6
 41
30.0
 62
     5
 63
     7
421
 16777215
 74
     1
 91
        0
 64
     7
 65
   257
 75
     1
175
     1
 42
1.0
 92
        0
 66
   257
 43
1.0
 76
     1
 77
     6
 78
     2
 67
     7
 79
     5
170
     0
171
     0
290
     0
174
     0
 93
       13
 44
0.0
173
     0
291
     1
 45
0.0
  0
VISUALSTYLE
  5
2D
102
{ACAD_REACTORS
330
2A
102
}
102
{ACAD_XDICTIONARY
360
88
102
}
330
2A
100
AcDbVisualStyle
  2
Gouraud
 70
     2
 71
     2
 72
     2
 73
     1
 90
        2
 40
0.6
 41
30.0
 62
     5
 63
     7
421
 16777215
 74
     0
 91
        0
 64
     7
 65
   257
 75
     1
175
     1
 42
1.0
 92
        0
 66
     7
 43
1.0
 76
     1
 77
     6
 78
     2
 67
     7
 79
     5
170
     0
171
     0
290
     0
174
     0
 93
       13
 44
0.0
173
     0
291
     1
 45
0.0
  0
VISUALSTYLE
  5
2E
102
{ACAD_REACTORS
330
2A
102
}
102
{ACAD_XDICTIONARY
360
8A
102
}
330
2A
100
AcDbVisualStyle
  2
GouraudWithEdges
 70
     3
 71
     2
 72
     2
 73
     1
 90
        2
 40
0.6
 41
30.0
 62
     5
 63
     7
421
 16777215
 74
     1
 91
        0
 64
     7
 65
   257
 75
     1
175
     1
 42
1.0
 92
        0
 66
   257
 43
1.0
 76
     1
 77
     6
 78
     2
 67
     7
 79
     5
170
     0
171
     0
290
     0
174
     0
 93
       13
 44
0.0
173
     0
291
     1
 45
0.0
  0
VISUALSTYLE
  5
31
102
{ACAD_REACTORS
330
2A
102
}
102
{ACAD_XDICTIONARY
360
90
102
}
330
2A
100
AcDbVisualStyle
  2
Hidden
 70
     6
 71
     1
 72
     2
 73
     2
 90
        0
 40
0.6
 41
30.0
 62
     5
 63
     7
421
 16777215
 74
     2
 91
        2
 64
     7
 65
   257
 75
     2
175
     1
 42
40.0
 92
        0
 66
   257
 43
1.0
 76
     1
 77
     6
 78
     2
 67
     7
 79
     3
170
     0
171
     0
290
     0
174
     0
 93
        1
 44
0.0
173
     0
291
     0
 45
0.0
  0
VISUALSTYLE
  5
3B
102
{ACAD_REACTORS
330
2A
102
}
102
{ACAD_XDICTIONARY
360
A4
102
}
330
2A
100
AcDbVisualStyle
  2
JitterOff
 70
    20
 71
     2
 72
     2
 73
     0
 90
        0
 40
0.6
 41
30.0
 62
     5
 63
     7
421
 16777215
 74
     1
 91
        4
 64
     7
 65
   257
 75
     1
175
     1
 42
1.0
 92
       10
 66
     7
 43
1.0
 76
     1
 77
     6
 78
     2
 67
     7
 79
     5
170
     0
171
     0
290
     0
174
     0
 93
        1
 44
0.0
173
     0
291
     1
 45
0.0
  0
VISUALSTYLE
  5
38
102
{ACAD_REACTORS
330
2A
102
}
102
{ACAD_XDICTIONARY
360
9E
102
}
330
2A
100
AcDbVisualStyle
  2
Linepattern
 70
    14
 71
     2
 72
     2
 73
     0
 90
        0
 40
0.6
 41
30.0
 62
     5
 63
     7
421
 16777215
 74
     1
 91
        4
 64
     7
 65
   257
 75
     7
175
     7
 42
1.0
 92
        8
 66
     7
 43
1.0
 76
     1
 77
     6
 78
     2
 67
     7
 79
     5
170
     0
171
     0
290
     0
174
     0
 93
        1
 44
0.0
173
     0
291
     1
 45
0.0
  0
VISUALSTYLE
  5
3C
102
{ACAD_REACTORS
330
2A
102
}
102
{ACAD_XDICTIONARY
360
A6
102
}
330
2A
100
AcDbVisualStyle
  2
OverhangOff
 70
    21
 71
     2
 72
     2
 73
     0
 90
        0
 40
0.6
 41
30.0
 62
     5
 63
     7
421
 16777215
 74
     1
 91
        4
 64
     7
 65
   257
 75
     1
175
     1
 42
1.0
 92
        9
 66
     7
 43
1.0
 76
     1
 77
     6
 78
     2
 67
     7
 79
     5
170
     0
171
     0
290
     0
174
     0
 93
        1
 44
0.0
173
     0
291
     1
 45
0.0
  0
VISUALSTYLE
  5
33
102
{ACAD_REACTORS
330
2A
102
}
102
{ACAD_XDICTIONARY
360
94
102
}
330
2A
100
AcDbVisualStyle
  2
Realistic
 70
     8
 71
     2
 72
     3
 73
     0
 90
        2
 40
0.6
 41
30.0
 62
     5
 63
     7
421
 16777215
 74
     0
 91
        0
 64
     7
 65
   257
 75
     1
175
     1
 42
1.0
 92
        8
 66
   257
 43
1.0
 76
     1
 77
     6
 78
     2
 67
     7
 79
     3
170
     0
171
     0
290
     0
174
     0
 93
       13
 44
0.0
173
     0
291
     0
 45
0.0
  0
VISUALSTYLE
  5
42
102
{ACAD_REACTORS
330
2A
102
}
102
{ACAD_XDICTIONARY
360
B2
102
}
330
2A
100
AcDbVisualStyle
  2
Shaded
 70
    27
 71
     2
 72
     2
 73
     1
 90
        2
 40
0.6
 41
30.0
 62
     5
 63
     7
421
 16777215
 74
     0
 91
        4
 64
     7
 65
   257
 75
     1
175
     1
 42
1.0
 92
        8
 66
   257
 43
1.0
 76
     1
 77
     6
 78
     2
 67
     8
425
  7895160
 79
     3
170
     0
171
     0
290
     0
174
     0
 93
        5
 44
0.0
173
     0
291
     0
 45
0.0
  0
VISUALSTYLE
  5
41
102
{ACAD_REACTORS
330
2A
102
}
102
{ACAD_XDICTIONARY
360
B0
102
}
330
2A
100
AcDbVisualStyle
  2
Shaded with edges
 70
    26
 71
     2
 72
     2
 73
     1
 90
        2
 40
0.6
 41
30.0
 62
     5
 63
     7
421
 16777215
 74
     1
 91
       10
 64
     7
 65
   257
 75
     2
175
     1
 42
1.0
 92
        8
 66
   257
 43
1.0
 76
     1
 77
     6
 78
     2
 67
     7
 79
     3
170
     0
171
     0
290
     0
174
     0
 93
        5
 44
0.0
173
     0
291
     0
 45
0.0
  0
VISUALSTYLE
  5
3E
102
{ACAD_REACTORS
330
2A
102
}
102
{ACAD_XDICTIONARY
360
AA
102
}
330
2A
100
AcDbVisualStyle
  2
Shades of Gray
 70
    23
 71
     2
 72
     2
 73
     3
 90
        0
 40
0.6
 41
30.0
 62
     5
 63
     7
421
 16777215
 74
     2
 91
        2
 64
     7
 65
     7
 75
     1
175
     1
 42
40.0
 92
        8
 66
     7
 43
1.0
 76
     1
 77
     6
 78
     2
 67
     7
 79
     3
170
     0
171
     0
290
     0
174
     0
 93
        1
 44
0.0
173
     0
291
     0
 45
0.0
  0
VISUALSTYLE
  5
3F
102
{ACAD_REACTORS
330
2A
102
}
102
{ACAD_XDICTIONARY
360
AC
102
}
330
2A
100
AcDbVisualStyle
  2
Sketchy
 70
    24
 71
     1
 72
     2
 73
     2
 90
        0
 40
0.6
 41
30.0
 62
     5
 63
     7
421
 16777215
 74
     2
 91
        2
 64
     7
 65
     7
 75
     1
175
     1
 42
40.0
 92
       11
 66
     7
 43
1.0
 76
     1
 77
     6
 78
     2
 67
     7
 79
     6
170
     0
171
     0
290
     0
174
     0
 93
        1
 44
0.0
173
     0
291
     0
 45
0.0
  0
VISUALSTYLE
  5
37
102
{ACAD_REACTORS
330
2A
102
}
102
{ACAD_XDICTIONARY
360
9C
102
}
330
2A
100
AcDbVisualStyle
  2
Thicken
 70
    13
 71
     2
 72
     2
 73
     0
 90
        0
 40
0.6
 41
30.0
 62
     5
 63
     7
421
 16777215
 74
     1
 91
        4
 64
     7
 65
   257
 75
     1
175
     1
 42
1.0
 92
       12
 66
     7
 43
1.0
 76
     1
 77
     6
 78
     2
 67
     7
 79
     5
170
     0
171
     0
290
     0
174
     0
 93
        1
 44
0.0
173
     0
291
     1
 45
0.0
  0
VISUALSTYLE
  5
30
102
{ACAD_REACTORS
330
2A
102
}
102
{ACAD_XDICTIONARY
360
8E
102
}
330
2A
100
AcDbVisualStyle
  2
Wireframe
 70
     5
 71
     0
 72
     2
 73
     0
 90
        0
 40
0.6
 41
30.0
 62
     5
 63
     7
421
 16777215
 74
     1
 91
        4
 64
     7
 65
   257
 75
     1
175
     1
 42
1.0
 92
        0
 66
   257
 43
1.0
 76
     1
 77
     6
 78
     2
 67
     7
 79
     3
170
     0
171
     0
290
     0
174
     0
 93
        1
 44
0.0
173
     0
291
     0
 45
0.0
  0
VISUALSTYLE
  5
40
102
{ACAD_REACTORS
330
2A
102
}
102
{ACAD_XDICTIONARY
360
AE
102
}
330
2A
100
AcDbVisualStyle
  2
X-Ray
 70
    25
 71
     2
 72
     2
 73
     1
 90
        1
 40
0.5
 41
30.0
 62
     5
 63
     7
421
 16777215
 74
     1
 91
        0
 64
     7
 65
   257
 75
     1
175
     1
 42
1.0
 92
        8
 66
     7
 43
1.0
 76
     1
 77
     6
 78
     2
 67
     7
 79
     3
170
     0
171
     0
290
     0
174
     0
 93
       13
 44
0.0
173
     0
291
     0
 45
0.0
  0
DICTIONARYVAR
  5
82
102
{ACAD_REACTORS
330
81
102
}
330
81
100
DictionaryVariables
280
     0
  1
1:1
  0
DICTIONARYVAR
  5
BB
102
{ACAD_REACTORS
330
81
102
}
330
81
100
DictionaryVariables
280
     0
  1
Standard
  0
DICTIONARYVAR
  5
BA
102
{ACAD_REACTORS
330
81
102
}
330
81
100
DictionaryVariables
280
     0
  1
Standard
  0
DICTIONARYVAR
  5
83
102
{ACAD_REACTORS
330
81
102
}
330
81
100
DictionaryVariables
280
     0
  1
2
  0
DICTIONARY
  5
B7
330
6C
100
AcDbDictionary
280
     1
281
     1
  3
ACAD_XREC_ROUNDTRIP
360
B8
  0
DICTIONARY
  5
B4
330
6A
100
AcDbDictionary
280
     1
281
     1
  3
ACAD_ROUNDTRIP_2008_TABLESTYLE_CELLSTYLEMAP
360
B5
  0
DICTIONARY
  5
8C
330
2F
100
AcDbDictionary
280
     1
281
     1
  3
ACAD_XREC_ROUNDTRIP
360
8D
  0
DICTIONARY
  5
92
330
32
100
AcDbDictionary
280
     1
281
     1
  3
ACAD_XREC_ROUNDTRIP
360
93
  0
DICTIONARY
  5
9A
330
36
100
AcDbDictionary
280
     1
281
     1
  3
ACAD_XREC_ROUNDTRIP
360
9B
  0
DICTIONARY
  5
A2
330
3A
100
AcDbDictionary
280
     1
281
     1
  3
ACAD_XREC_ROUNDTRIP
360
A3
  0
DICTIONARY
  5
96
330
34
100
AcDbDictionary
280
     1
281
     1
  3
ACAD_XREC_ROUNDTRIP
360
97
  0
DICTIONARY
  5
98
330
35
100
AcDbDictionary
280
     1
281
     1
  3
ACAD_XREC_ROUNDTRIP
360
99
  0
DICTIONARY
  5
A8
330
3D
100
AcDbDictionary
280
     1
281
     1
  3
ACAD_XREC_ROUNDTRIP
360
A9
  0
DICTIONARY
  5
A0
330
39
100
AcDbDictionary
280
     1
281
     1
  3
ACAD_XREC_ROUNDTRIP
360
A1
  0
DICTIONARY
  5
84
330
2B
100
AcDbDictionary
280
     1
281
     1
  3
ACAD_XREC_ROUNDTRIP
360
85
  0
DICTIONARY
  5
86
330
2C
100
AcDbDictionary
280
     1
281
     1
  3
ACAD_XREC_ROUNDTRIP
360
87
  0
DICTIONARY
  5
88
330
2D
100
AcDbDictionary
280
     1
281
     1
  3
ACAD_XREC_ROUNDTRIP
360
89
  0
DICTIONARY
  5
8A
330
2E
100
AcDbDictionary
280
     1
281
     1
  3
ACAD_XREC_ROUNDTRIP
360
8B
  0
DICTIONARY
  5
90
330
31
100
AcDbDictionary
280
     1
281
     1
  3
ACAD_XREC_ROUNDTRIP
360
91
  0
DICTIONARY
  5
A4
330
3B
100
AcDbDictionary
280
     1
281
     1
  3
ACAD_XREC_ROUNDTRIP
360
A5
  0
DICTIONARY
  5
9E
330
38
100
AcDbDictionary
280
     1
281
     1
  3
ACAD_XREC_ROUNDTRIP
360
9F
  0
DICTIONARY
  5
A6
330
3C
100
AcDbDictionary
280
     1
281
     1
  3
ACAD_XREC_ROUNDTRIP
360
A7
  0
DICTIONARY
  5
94
330
33
100
AcDbDictionary
280
     1
281
     1
  3
ACAD_XREC_ROUNDTRIP
360
95
  0
DICTIONARY
  5
B2
330
42
100
AcDbDictionary
280
     1
281
     1
  3
ACAD_XREC_ROUNDTRIP
360
B3
  0
DICTIONARY
  5
B0
330
41
100
AcDbDictionary
280
     1
281
     1
  3
ACAD_XREC_ROUNDTRIP
360
B1
  0
DICTIONARY
  5
AA
330
3E
100
AcDbDictionary
280
     1
281
     1
  3
ACAD_XREC_ROUNDTRIP
360
AB
  0
DICTIONARY
  5
AC
330
3F
100
AcDbDictionary
280
     1
281
     1
  3
ACAD_XREC_ROUNDTRIP
360
AD
  0
DICTIONARY
  5
9C
330
37
100
AcDbDictionary
280
     1
281
     1
  3
ACAD_XREC_ROUNDTRIP
360
9D
  0
DICTIONARY
  5
8E
330
30
100
AcDbDictionary
280
     1
281
     1
  3
ACAD_XREC_ROUNDTRIP
360
8F
  0
DICTIONARY
  5
AE
330
40
100
AcDbDictionary
280
     1
281
     1
  3
ACAD_XREC_ROUNDTRIP
360
AF
  0
XRECORD
  5
B8
102
{ACAD_REACTORS
330
B7
102
}
330
B7
100
AcDbXrecord
280
     1
102
ACAD_ROUNDTRIP_2010_MLEADER_STYLE
  0
CELLSTYLEMAP
  5
B5
102
{ACAD_REACTORS
330
B4
102
}
330
B4
100
AcDbCellStyleMap
 90
        3
300
CELLSTYLE
  1
TABLEFORMAT_BEGIN
 90
        5
170
     1
 91
        0
 92
    32768
 62
   257
 93
        1
300
CONTENTFORMAT
  1
CONTENTFORMAT_BEGIN
 90
        0
 91
        0
 92
        4
 93
        0
300

 40
0.0
140
1.0
 94
        5
 62
     0
340
11
144
0.25
309
CONTENTFORMAT_END
171
     1
301
MARGIN
  1
CELLMARGIN_BEGIN
 40
0.06
 40
0.06
 40
0.06
 40
0.06
 40
0.06
 40
0.06
309
CELLMARGIN_END
 94
        6
 95
        1
302
GRIDFORMAT
  1
GRIDFORMAT_BEGIN
 90
        0
 91
        1
 62
     0
 92
       -2
340
14
 93
        0
 40
0.045
309
GRIDFORMAT_END
 95
        2
302
GRIDFORMAT
  1
GRIDFORMAT_BEGIN
 90
        0
 91
        1
 62
     0
 92
       -2
340
14
 93
        0
 40
0.045
309
GRIDFORMAT_END
 95
        4
302
GRIDFORMAT
  1
GRIDFORMAT_BEGIN
 90
        0
 91
        1
 62
     0
 92
       -2
340
14
 93
        0
 40
0.045
309
GRIDFORMAT_END
 95
        8
302
GRIDFORMAT
  1
GRIDFORMAT_BEGIN
 90
        0
 91
        1
 62
     0
 92
       -2
340
14
 93
        0
 40
0.045
309
GRIDFORMAT_END
 95
       16
302
GRIDFORMAT
  1
GRIDFORMAT_BEGIN
 90
        0
 91
        1
 62
     0
 92
       -2
340
14
 93
        0
 40
0.045
309
GRIDFORMAT_END
 95
       32
302
GRIDFORMAT
  1
GRIDFORMAT_BEGIN
 90
        0
 91
        1
 62
     0
 92
       -2
340
14
 93
        0
 40
0.045
309
GRIDFORMAT_END
309
TABLEFORMAT_END
  1
CELLSTYLE_BEGIN
 90
        1
 91
        1
300
_TITLE
309
CELLSTYLE_END
300
CELLSTYLE
  1
TABLEFORMAT_BEGIN
 90
        5
170
     1
 91
        0
 92
        0
 62
   257
 93
        1
300
CONTENTFORMAT
  1
CONTENTFORMAT_BEGIN
 90
        0
 91
        0
 92
        4
 93
        0
300

 40
0.0
140
1.0
 94
        5
 62
     0
340
11
144
0.18
309
CONTENTFORMAT_END
171
     1
301
MARGIN
  1
CELLMARGIN_BEGIN
 40
0.06
 40
0.06
 40
0.06
 40
0.06
 40
0.06
 40
0.06
309
CELLMARGIN_END
 94
        6
 95
        1
302
GRIDFORMAT
  1
GRIDFORMAT_BEGIN
 90
        0
 91
        1
 62
     0
 92
       -2
340
14
 93
        0
 40
0.045
309
GRIDFORMAT_END
 95
        2
302
GRIDFORMAT
  1
GRIDFORMAT_BEGIN
 90
        0
 91
        1
 62
     0
 92
       -2
340
14
 93
        0
 40
0.045
309
GRIDFORMAT_END
 95
        4
302
GRIDFORMAT
  1
GRIDFORMAT_BEGIN
 90
        0
 91
        1
 62
     0
 92
       -2
340
14
 93
        0
 40
0.045
309
GRIDFORMAT_END
 95
        8
302
GRIDFORMAT
  1
GRIDFORMAT_BEGIN
 90
        0
 91
        1
 62
     0
 92
       -2
340
14
 93
        0
 40
0.045
309
GRIDFORMAT_END
 95
       16
302
GRIDFORMAT
  1
GRIDFORMAT_BEGIN
 90
        0
 91
        1
 62
     0
 92
       -2
340
14
 93
        0
 40
0.045
309
GRIDFORMAT_END
 95
       32
302
GRIDFORMAT
  1
GRIDFORMAT_BEGIN
 90
        0
 91
        1
 62
     0
 92
       -2
340
14
 93
        0
 40
0.045
309
GRIDFORMAT_END
309
TABLEFORMAT_END
  1
CELLSTYLE_BEGIN
 90
        2
 91
        1
300
_HEADER
309
CELLSTYLE_END
300
CELLSTYLE
  1
TABLEFORMAT_BEGIN
 90
        5
170
     1
 91
        0
 92
        0
 62
   257
 93
        1
300
CONTENTFORMAT
  1
CONTENTFORMAT_BEGIN
 90
        0
 91
        0
 92
        4
 93
        0
300

 40
0.0
140
1.0
 94
        2
 62
     0
340
11
144
0.18
309
CONTENTFORMAT_END
171
     1
301
MARGIN
  1
CELLMARGIN_BEGIN
 40
0.06
 40
0.06
 40
0.06
 40
0.06
 40
0.06
 40
0.06
309
CELLMARGIN_END
 94
        6
 95
        1
302
GRIDFORMAT
  1
GRIDFORMAT_BEGIN
 90
        0
 91
        1
 62
     0
 92
       -2
340
14
 93
        0
 40
0.045
309
GRIDFORMAT_END
 95
        2
302
GRIDFORMAT
  1
GRIDFORMAT_BEGIN
 90
        0
 91
        1
 62
     0
 92
       -2
340
14
 93
        0
 40
0.045
309
GRIDFORMAT_END
 95
        4
302
GRIDFORMAT
  1
GRIDFORMAT_BEGIN
 90
        0
 91
        1
 62
     0
 92
       -2
340
14
 93
        0
 40
0.045
309
GRIDFORMAT_END
 95
        8
302
GRIDFORMAT
  1
GRIDFORMAT_BEGIN
 90
        0
 91
        1
 62
     0
 92
       -2
340
14
 93
        0
 40
0.045
309
GRIDFORMAT_END
 95
       16
302
GRIDFORMAT
  1
GRIDFORMAT_BEGIN
 90
        0
 91
        1
 62
     0
 92
       -2
340
14
 93
        0
 40
0.045
309
GRIDFORMAT_END
 95
       32
302
GRIDFORMAT
  1
GRIDFORMAT_BEGIN
 90
        0
 91
        1
 62
     0
 92
       -2
340
14
 93
        0
 40
0.045
309
GRIDFORMAT_END
309
TABLEFORMAT_END
  1
CELLSTYLE_BEGIN
 90
        3
 91
        2
300
_DATA
309
CELLSTYLE_END
  0
XRECORD
  5
8D
102
{ACAD_REACTORS
330
8C
102
}
330
8C
100
AcDbXrecord
280
     1
102
RTVSPropertyOp0
 70
     1
102
RTVSPropertyOp1
 70
     1
102
RTVSPropertyOp2
 70
     1
102
RTVSPropertyOp3
 70
     1
102
RTVSPropertyOp4
 70
     1
102
RTVSPropertyOp5
 70
     1
102
RTVSPropertyOp6
 70
     1
102
RTVSPropertyOp7
 70
     1
102
RTVSPropertyOp8
 70
     1
102
RTVSPropertyOp9
 70
     1
102
RTVSPropertyOp10
 70
     1
102
RTVSPropertyOp11
 70
     1
102
RTVSPropertyOp12
 70
     1
102
RTVSPropertyOp13
 70
     1
102
RTVSPropertyOp14
 70
     1
102
RTVSPropertyOp15
 70
     1
102
RTVSPropertyOp16
 70
     1
102
RTVSPropertyOp17
 70
     1
102
RTVSPropertyOp18
 70
     1
102
RTVSPropertyOp19
 70
     1
102
RTVSPropertyOp20
 70
     1
102
RTVSPropertyOp21
 70
     1
102
RTVSPropertyOp22
 70
     1
102
RTVSPropertyOp23
 70
     1
102
RTVSPropertyOp24
 70
     1
102
RTVSPropertyOp25
 70
     1
102
RTVSPropertyOp26
 70
     1
102
RTVSPropertyOp27
 70
     1
102
RTVSPropertyOp28
 70
     1
102
RTVSPropertyOp29
 70
     1
102
RTVSPropertyOp30
 70
     1
102
RTVSPropertyOp31
 70
     1
102
RTVSPropertyOp32
 70
     1
102
RTVSPropertyOp33
 70
     1
102
RTVSPropertyOp34
 70
     1
102
RTVSPropertyOp35
 70
     1
102
RTVSPropertyOp36
 70
     1
102
RTVSPropertyOp37
 70
     1
102
RTVSPropertyOp38
 70
     1
102
RTVSPropertyOp39
 70
     1
102
RTVSPropertyOp40
 70
     1
102
RTVSPropertyOp41
 70
     1
102
RTVSPropertyOp42
 70
     1
102
RTVSPropertyOp43
 70
     1
102
RTVSPropertyOp44
 70
     1
102
RTVSPropertyOp45
 70
     1
102
RTVSPropertyOp46
 70
     1
102
RTVSPropertyOp47
 70
     1
102
RTVSPropertyOp48
 70
     1
102
RTVSPropertyOp49
 70
     1
102
RTVSPropertyOp50
 70
     1
102
RTVSPropertyOp51
 70
     0
102
RTVSPropertyOp52
 70
     0
102
RTVSPropertyOp53
 70
     1
102
RTVSPropertyOp54
 70
     1
102
RTVSPropertyOp55
 70
     1
102
RTVSPropertyOp56
 70
     1
102
RTVSPropertyOp57
 70
     1
102
RTVSPost2010Prop28
280
     1
102
RTVSPost2010PropOp28
 70
     1
102
RTVSPost2010Prop29
280
     1
102
RTVSPost2010PropOp29
 70
     1
102
RTVSPost2010Prop30
280
     0
102
RTVSPost2010PropOp30
 70
     1
102
RTVSPost2010Prop31
280
     0
102
RTVSPost2010PropOp31
 70
     1
102
RTVSPost2010Prop32
280
     0
102
RTVSPost2010PropOp32
 70
     1
102
RTVSPost2010Prop33
280
     0
102
RTVSPost2010PropOp33
 70
     1
102
RTVSPost2010Prop34
280
     0
102
RTVSPost2010PropOp34
 70
     1
102
RTVSPost2010Prop35
280
     0
102
RTVSPost2010PropOp35
 70
     1
102
RTVSPost2010Prop36
280
     0
102
RTVSPost2010PropOp36
 70
     1
102
RTVSPost2010Prop37
 90
       50
102
RTVSPost2010PropOp37
 70
     1
102
RTVSPost2010Prop38
140
0.0
102
RTVSPost2010PropOp38
 70
     1
102
RTVSPost2010Prop39
140
1.0
102
RTVSPost2010PropOp39
 70
     1
102
RTVSPost2010Prop40
 90
        0
102
RTVSPost2010PropOp40
 70
     1
102
RTVSPost2010Prop41ColorIndex
 90
       18
102
RTVSPost2010Prop41ColorRGB
 90
        0
102
RTVSPost2010PropOp41
 70
     1
102
RTVSPost2010Prop42
 90
       50
102
RTVSPost2010PropOp42
 70
     1
102
RTVSPost2010Prop43
 90
        3
102
RTVSPost2010PropOp43
 70
     1
102
RTVSPost2010Prop44ColorIndex
 90
        5
102
RTVSPost2010Prop44ColorRGB
 90
      255
102
RTVSPost2010PropOp44
 70
     1
102
RTVSPost2010Prop45
280
     0
102
RTVSPost2010PropOp45
 70
     1
102
RTVSPost2010Prop46
 90
       50
102
RTVSPost2010PropOp46
 70
     1
102
RTVSPost2010Prop47
 90
       50
102
RTVSPost2010PropOp47
 70
     1
102
RTVSPost2010Prop48
 90
       50
102
RTVSPost2010PropOp48
 70
     1
102
RTVSPost2010Prop49
280
     0
102
RTVSPost2010PropOp49
 70
     1
102
RTVSPost2010Prop50
 90
       50
102
RTVSPost2010PropOp50
 70
     1
102
RTVSPost2010Prop51ColorIndex
 90
      256
102
RTVSPost2010Prop51ColorRGB
 90
-16777216
102
RTVSPost2010PropOp51
 70
     0
102
RTVSPost2010Prop52
140
1.0
102
RTVSPost2010PropOp52
 70
     0
102
RTVSPost2010Prop53
 90
        2
102
RTVSPost2010PropOp53
 70
     1
102
RTVSPost2010Prop54
  1
strokes_ogs.tif
102
RTVSPost2010PropOp54
 70
     1
102
RTVSPost2010Prop55
280
     0
102
RTVSPost2010PropOp55
 70
     1
102
RTVSPost2010Prop56
140
1.0
102
RTVSPost2010PropOp56
 70
     1
102
RTVSPost2010Prop57
140
1.0
102
RTVSPost2010PropOp57
 70
     1
  0
XRECORD
  5
93
102
{ACAD_REACTORS
330
92
102
}
330
92
100
AcDbXrecord
280
     1
102
RTVSPropertyOp0
 70
     1
102
RTVSPropertyOp1
 70
     1
102
RTVSPropertyOp2
 70
     1
102
RTVSPropertyOp3
 70
     1
102
RTVSPropertyOp4
 70
     1
102
RTVSPropertyOp5
 70
     1
102
RTVSPropertyOp6
 70
     1
102
RTVSPropertyOp7
 70
     1
102
RTVSPropertyOp8
 70
     1
102
RTVSPropertyOp9
 70
     1
102
RTVSPropertyOp10
 70
     1
102
RTVSPropertyOp11
 70
     1
102
RTVSPropertyOp12
 70
     1
102
RTVSPropertyOp13
 70
     1
102
RTVSPropertyOp14
 70
     1
102
RTVSPropertyOp15
 70
     1
102
RTVSPropertyOp16
 70
     1
102
RTVSPropertyOp17
 70
     1
102
RTVSPropertyOp18
 70
     1
102
RTVSPropertyOp19
 70
     1
102
RTVSPropertyOp20
 70
     1
102
RTVSPropertyOp21
 70
     1
102
RTVSPropertyOp22
 70
     1
102
RTVSPropertyOp23
 70
     1
102
RTVSPropertyOp24
 70
     1
102
RTVSPropertyOp25
 70
     1
102
RTVSPropertyOp26
 70
     1
102
RTVSPropertyOp27
 70
     1
102
RTVSPropertyOp28
 70
     1
102
RTVSPropertyOp29
 70
     1
102
RTVSPropertyOp30
 70
     1
102
RTVSPropertyOp31
 70
     1
102
RTVSPropertyOp32
 70
     1
102
RTVSPropertyOp33
 70
     1
102
RTVSPropertyOp34
 70
     1
102
RTVSPropertyOp35
 70
     1
102
RTVSPropertyOp36
 70
     1
102
RTVSPropertyOp37
 70
     1
102
RTVSPropertyOp38
 70
     1
102
RTVSPropertyOp39
 70
     1
102
RTVSPropertyOp40
 70
     1
102
RTVSPropertyOp41
 70
     1
102
RTVSPropertyOp42
 70
     1
102
RTVSPropertyOp43
 70
     1
102
RTVSPropertyOp44
 70
     1
102
RTVSPropertyOp45
 70
     1
102
RTVSPropertyOp46
 70
     1
102
RTVSPropertyOp47
 70
     1
102
RTVSPropertyOp48
 70
     1
102
RTVSPropertyOp49
 70
     1
102
RTVSPropertyOp50
 70
     1
102
RTVSPropertyOp51
 70
     0
102
RTVSPropertyOp52
 70
     0
102
RTVSPropertyOp53
 70
     1
102
RTVSPropertyOp54
 70
     1
102
RTVSPropertyOp55
 70
     1
102
RTVSPropertyOp56
 70
     1
102
RTVSPropertyOp57
 70
     1
102
RTVSPost2010Prop28
280
     0
102
RTVSPost2010PropOp28
 70
     1
102
RTVSPost2010Prop29
280
     1
102
RTVSPost2010PropOp29
 70
     1
102
RTVSPost2010Prop30
280
     1
102
RTVSPost2010PropOp30
 70
     1
102
RTVSPost2010Prop31
280
     0
102
RTVSPost2010PropOp31
 70
     1
102
RTVSPost2010Prop32
280
     0
102
RTVSPost2010PropOp32
 70
     1
102
RTVSPost2010Prop33
280
     0
102
RTVSPost2010PropOp33
 70
     1
102
RTVSPost2010Prop34
280
     0
102
RTVSPost2010PropOp34
 70
     1
102
RTVSPost2010Prop35
280
     0
102
RTVSPost2010PropOp35
 70
     1
102
RTVSPost2010Prop36
280
     0
102
RTVSPost2010PropOp36
 70
     1
102
RTVSPost2010Prop37
 90
       50
102
RTVSPost2010PropOp37
 70
     1
102
RTVSPost2010Prop38
140
0.0
102
RTVSPost2010PropOp38
 70
     1
102
RTVSPost2010Prop39
140
1.0
102
RTVSPost2010PropOp39
 70
     1
102
RTVSPost2010Prop40
 90
        0
102
RTVSPost2010PropOp40
 70
     1
102
RTVSPost2010Prop41ColorIndex
 90
       18
102
RTVSPost2010Prop41ColorRGB
 90
        0
102
RTVSPost2010PropOp41
 70
     1
102
RTVSPost2010Prop42
 90
       50
102
RTVSPost2010PropOp42
 70
     1
102
RTVSPost2010Prop43
 90
        3
102
RTVSPost2010PropOp43
 70
     1
102
RTVSPost2010Prop44ColorIndex
 90
        5
102
RTVSPost2010Prop44ColorRGB
 90
      255
102
RTVSPost2010PropOp44
 70
     1
102
RTVSPost2010Prop45
280
     0
102
RTVSPost2010PropOp45
 70
     1
102
RTVSPost2010Prop46
 90
       50
102
RTVSPost2010PropOp46
 70
     1
102
RTVSPost2010Prop47
 90
       50
102
RTVSPost2010PropOp47
 70
     1
102
RTVSPost2010Prop48
 90
       50
102
RTVSPost2010PropOp48
 70
     1
102
RTVSPost2010Prop49
280
     0
102
RTVSPost2010PropOp49
 70
     1
102
RTVSPost2010Prop50
 90
       50
102
RTVSPost2010PropOp50
 70
     1
102
RTVSPost2010Prop51ColorIndex
 90
      256
102
RTVSPost2010Prop51ColorRGB
 90
-16777216
102
RTVSPost2010PropOp51
 70
     0
102
RTVSPost2010Prop52
140
1.0
102
RTVSPost2010PropOp52
 70
     0
102
RTVSPost2010Prop53
 90
        2
102
RTVSPost2010PropOp53
 70
     1
102
RTVSPost2010Prop54
  1
strokes_ogs.tif
102
RTVSPost2010PropOp54
 70
     1
102
RTVSPost2010Prop55
280
     0
102
RTVSPost2010PropOp55
 70
     1
102
RTVSPost2010Prop56
140
1.0
102
RTVSPost2010PropOp56
 70
     1
102
RTVSPost2010Prop57
140
1.0
102
RTVSPost2010PropOp57
 70
     1
  0
XRECORD
  5
9B
102
{ACAD_REACTORS
330
9A
102
}
330
9A
100
AcDbXrecord
280
     1
102
RTVSPropertyOp0
 70
     1
102
RTVSPropertyOp1
 70
     1
102
RTVSPropertyOp2
 70
     1
102
RTVSPropertyOp3
 70
     1
102
RTVSPropertyOp4
 70
     1
102
RTVSPropertyOp5
 70
     1
102
RTVSPropertyOp6
 70
     1
102
RTVSPropertyOp7
 70
     1
102
RTVSPropertyOp8
 70
     1
102
RTVSPropertyOp9
 70
     1
102
RTVSPropertyOp10
 70
     1
102
RTVSPropertyOp11
 70
     1
102
RTVSPropertyOp12
 70
     1
102
RTVSPropertyOp13
 70
     1
102
RTVSPropertyOp14
 70
     1
102
RTVSPropertyOp15
 70
     1
102
RTVSPropertyOp16
 70
     1
102
RTVSPropertyOp17
 70
     1
102
RTVSPropertyOp18
 70
     1
102
RTVSPropertyOp19
 70
     1
102
RTVSPropertyOp20
 70
     1
102
RTVSPropertyOp21
 70
     1
102
RTVSPropertyOp22
 70
     1
102
RTVSPropertyOp23
 70
     1
102
RTVSPropertyOp24
 70
     1
102
RTVSPropertyOp25
 70
     1
102
RTVSPropertyOp26
 70
     1
102
RTVSPropertyOp27
 70
     1
102
RTVSPropertyOp28
 70
     1
102
RTVSPropertyOp29
 70
     1
102
RTVSPropertyOp30
 70
     1
102
RTVSPropertyOp31
 70
     1
102
RTVSPropertyOp32
 70
     1
102
RTVSPropertyOp33
 70
     1
102
RTVSPropertyOp34
 70
     1
102
RTVSPropertyOp35
 70
     1
102
RTVSPropertyOp36
 70
     1
102
RTVSPropertyOp37
 70
     1
102
RTVSPropertyOp38
 70
     1
102
RTVSPropertyOp39
 70
     1
102
RTVSPropertyOp40
 70
     1
102
RTVSPropertyOp41
 70
     1
102
RTVSPropertyOp42
 70
     1
102
RTVSPropertyOp43
 70
     1
102
RTVSPropertyOp44
 70
     1
102
RTVSPropertyOp45
 70
     1
102
RTVSPropertyOp46
 70
     1
102
RTVSPropertyOp47
 70
     1
102
RTVSPropertyOp48
 70
     1
102
RTVSPropertyOp49
 70
     1
102
RTVSPropertyOp50
 70
     1
102
RTVSPropertyOp51
 70
     0
102
RTVSPropertyOp52
 70
     0
102
RTVSPropertyOp53
 70
     1
102
RTVSPropertyOp54
 70
     1
102
RTVSPropertyOp55
 70
     1
102
RTVSPropertyOp56
 70
     1
102
RTVSPropertyOp57
 70
     1
102
RTVSPost2010Prop28
280
     0
102
RTVSPost2010PropOp28
 70
     1
102
RTVSPost2010Prop29
280
     1
102
RTVSPost2010PropOp29
 70
     1
102
RTVSPost2010Prop30
280
     1
102
RTVSPost2010PropOp30
 70
     1
102
RTVSPost2010Prop31
280
     0
102
RTVSPost2010PropOp31
 70
     1
102
RTVSPost2010Prop32
280
     0
102
RTVSPost2010PropOp32
 70
     1
102
RTVSPost2010Prop33
280
     0
102
RTVSPost2010PropOp33
 70
     1
102
RTVSPost2010Prop34
280
     0
102
RTVSPost2010PropOp34
 70
     1
102
RTVSPost2010Prop35
280
     0
102
RTVSPost2010PropOp35
 70
     1
102
RTVSPost2010Prop36
280
     0
102
RTVSPost2010PropOp36
 70
     1
102
RTVSPost2010Prop37
 90
       50
102
RTVSPost2010PropOp37
 70
     1
102
RTVSPost2010Prop38
140
0.0
102
RTVSPost2010PropOp38
 70
     1
102
RTVSPost2010Prop39
140
1.0
102
RTVSPost2010PropOp39
 70
     1
102
RTVSPost2010Prop40
 90
        0
102
RTVSPost2010PropOp40
 70
     1
102
RTVSPost2010Prop41ColorIndex
 90
       18
102
RTVSPost2010Prop41ColorRGB
 90
        0
102
RTVSPost2010PropOp41
 70
     1
102
RTVSPost2010Prop42
 90
       50
102
RTVSPost2010PropOp42
 70
     1
102
RTVSPost2010Prop43
 90
        3
102
RTVSPost2010PropOp43
 70
     1
102
RTVSPost2010Prop44ColorIndex
 90
        5
102
RTVSPost2010Prop44ColorRGB
 90
      255
102
RTVSPost2010PropOp44
 70
     1
102
RTVSPost2010Prop45
280
     0
102
RTVSPost2010PropOp45
 70
     1
102
RTVSPost2010Prop46
 90
       50
102
RTVSPost2010PropOp46
 70
     1
102
RTVSPost2010Prop47
 90
       50
102
RTVSPost2010PropOp47
 70
     1
102
RTVSPost2010Prop48
 90
       50
102
RTVSPost2010PropOp48
 70
     1
102
RTVSPost2010Prop49
280
     0
102
RTVSPost2010PropOp49
 70
     1
102
RTVSPost2010Prop50
 90
       50
102
RTVSPost2010PropOp50
 70
     1
102
RTVSPost2010Prop51ColorIndex
 90
      256
102
RTVSPost2010Prop51ColorRGB
 90
-16777216
102
RTVSPost2010PropOp51
 70
     0
102
RTVSPost2010Prop52
140
1.0
102
RTVSPost2010PropOp52
 70
     0
102
RTVSPost2010Prop53
 90
        2
102
RTVSPost2010PropOp53
 70
     1
102
RTVSPost2010Prop54
  1
strokes_ogs.tif
102
RTVSPost2010PropOp54
 70
     1
102
RTVSPost2010Prop55
280
     0
102
RTVSPost2010PropOp55
 70
     1
102
RTVSPost2010Prop56
140
1.0
102
RTVSPost2010PropOp56
 70
     1
102
RTVSPost2010Prop57
140
1.0
102
RTVSPost2010PropOp57
 70
     1
  0
XRECORD
  5
A3
102
{ACAD_REACTORS
330
A2
102
}
330
A2
100
AcDbXrecord
280
     1
102
RTVSPropertyOp0
 70
     1
102
RTVSPropertyOp1
 70
     1
102
RTVSPropertyOp2
 70
     1
102
RTVSPropertyOp3
 70
     1
102
RTVSPropertyOp4
 70
     1
102
RTVSPropertyOp5
 70
     1
102
RTVSPropertyOp6
 70
     1
102
RTVSPropertyOp7
 70
     1
102
RTVSPropertyOp8
 70
     1
102
RTVSPropertyOp9
 70
     1
102
RTVSPropertyOp10
 70
     1
102
RTVSPropertyOp11
 70
     1
102
RTVSPropertyOp12
 70
     1
102
RTVSPropertyOp13
 70
     1
102
RTVSPropertyOp14
 70
     1
102
RTVSPropertyOp15
 70
     1
102
RTVSPropertyOp16
 70
     1
102
RTVSPropertyOp17
 70
     1
102
RTVSPropertyOp18
 70
     1
102
RTVSPropertyOp19
 70
     1
102
RTVSPropertyOp20
 70
     1
102
RTVSPropertyOp21
 70
     1
102
RTVSPropertyOp22
 70
     1
102
RTVSPropertyOp23
 70
     1
102
RTVSPropertyOp24
 70
     1
102
RTVSPropertyOp25
 70
     1
102
RTVSPropertyOp26
 70
     1
102
RTVSPropertyOp27
 70
     1
102
RTVSPropertyOp28
 70
     1
102
RTVSPropertyOp29
 70
     1
102
RTVSPropertyOp30
 70
     1
102
RTVSPropertyOp31
 70
     1
102
RTVSPropertyOp32
 70
     1
102
RTVSPropertyOp33
 70
     1
102
RTVSPropertyOp34
 70
     1
102
RTVSPropertyOp35
 70
     1
102
RTVSPropertyOp36
 70
     1
102
RTVSPropertyOp37
 70
     1
102
RTVSPropertyOp38
 70
     1
102
RTVSPropertyOp39
 70
     1
102
RTVSPropertyOp40
 70
     1
102
RTVSPropertyOp41
 70
     1
102
RTVSPropertyOp42
 70
     1
102
RTVSPropertyOp43
 70
     1
102
RTVSPropertyOp44
 70
     1
102
RTVSPropertyOp45
 70
     1
102
RTVSPropertyOp46
 70
     1
102
RTVSPropertyOp47
 70
     1
102
RTVSPropertyOp48
 70
     1
102
RTVSPropertyOp49
 70
     1
102
RTVSPropertyOp50
 70
     1
102
RTVSPropertyOp51
 70
     0
102
RTVSPropertyOp52
 70
     0
102
RTVSPropertyOp53
 70
     1
102
RTVSPropertyOp54
 70
     1
102
RTVSPropertyOp55
 70
     1
102
RTVSPropertyOp56
 70
     1
102
RTVSPropertyOp57
 70
     1
102
RTVSPost2010Prop28
280
     0
102
RTVSPost2010PropOp28
 70
     1
102
RTVSPost2010Prop29
280
     1
102
RTVSPost2010PropOp29
 70
     1
102
RTVSPost2010Prop30
280
     1
102
RTVSPost2010PropOp30
 70
     1
102
RTVSPost2010Prop31
280
     0
102
RTVSPost2010PropOp31
 70
     1
102
RTVSPost2010Prop32
280
     0
102
RTVSPost2010PropOp32
 70
     1
102
RTVSPost2010Prop33
280
     0
102
RTVSPost2010PropOp33
 70
     1
102
RTVSPost2010Prop34
280
     0
102
RTVSPost2010PropOp34
 70
     1
102
RTVSPost2010Prop35
280
     0
102
RTVSPost2010PropOp35
 70
     1
102
RTVSPost2010Prop36
280
     0
102
RTVSPost2010PropOp36
 70
     1
102
RTVSPost2010Prop37
 90
       50
102
RTVSPost2010PropOp37
 70
     1
102
RTVSPost2010Prop38
140
0.0
102
RTVSPost2010PropOp38
 70
     1
102
RTVSPost2010Prop39
140
1.0
102
RTVSPost2010PropOp39
 70
     1
102
RTVSPost2010Prop40
 90
        0
102
RTVSPost2010PropOp40
 70
     1
102
RTVSPost2010Prop41ColorIndex
 90
       18
102
RTVSPost2010Prop41ColorRGB
 90
        0
102
RTVSPost2010PropOp41
 70
     1
102
RTVSPost2010Prop42
 90
       50
102
RTVSPost2010PropOp42
 70
     1
102
RTVSPost2010Prop43
 90
        3
102
RTVSPost2010PropOp43
 70
     1
102
RTVSPost2010Prop44ColorIndex
 90
        5
102
RTVSPost2010Prop44ColorRGB
 90
      255
102
RTVSPost2010PropOp44
 70
     1
102
RTVSPost2010Prop45
280
     0
102
RTVSPost2010PropOp45
 70
     1
102
RTVSPost2010Prop46
 90
       50
102
RTVSPost2010PropOp46
 70
     1
102
RTVSPost2010Prop47
 90
       50
102
RTVSPost2010PropOp47
 70
     1
102
RTVSPost2010Prop48
 90
       50
102
RTVSPost2010PropOp48
 70
     1
102
RTVSPost2010Prop49
280
     0
102
RTVSPost2010PropOp49
 70
     1
102
RTVSPost2010Prop50
 90
       50
102
RTVSPost2010PropOp50
 70
     1
102
RTVSPost2010Prop51ColorIndex
 90
      256
102
RTVSPost2010Prop51ColorRGB
 90
-16777216
102
RTVSPost2010PropOp51
 70
     0
102
RTVSPost2010Prop52
140
1.0
102
RTVSPost2010PropOp52
 70
     0
102
RTVSPost2010Prop53
 90
        2
102
RTVSPost2010PropOp53
 70
     1
102
RTVSPost2010Prop54
  1
strokes_ogs.tif
102
RTVSPost2010PropOp54
 70
     1
102
RTVSPost2010Prop55
280
     0
102
RTVSPost2010PropOp55
 70
     1
102
RTVSPost2010Prop56
140
1.0
102
RTVSPost2010PropOp56
 70
     1
102
RTVSPost2010Prop57
140
1.0
102
RTVSPost2010PropOp57
 70
     1
  0
XRECORD
  5
97
102
{ACAD_REACTORS
330
96
102
}
330
96
100
AcDbXrecord
280
     1
102
RTVSPropertyOp0
 70
     1
102
RTVSPropertyOp1
 70
     1
102
RTVSPropertyOp2
 70
     1
102
RTVSPropertyOp3
 70
     1
102
RTVSPropertyOp4
 70
     1
102
RTVSPropertyOp5
 70
     1
102
RTVSPropertyOp6
 70
     1
102
RTVSPropertyOp7
 70
     1
102
RTVSPropertyOp8
 70
     1
102
RTVSPropertyOp9
 70
     1
102
RTVSPropertyOp10
 70
     1
102
RTVSPropertyOp11
 70
     1
102
RTVSPropertyOp12
 70
     1
102
RTVSPropertyOp13
 70
     1
102
RTVSPropertyOp14
 70
     1
102
RTVSPropertyOp15
 70
     1
102
RTVSPropertyOp16
 70
     1
102
RTVSPropertyOp17
 70
     1
102
RTVSPropertyOp18
 70
     1
102
RTVSPropertyOp19
 70
     1
102
RTVSPropertyOp20
 70
     1
102
RTVSPropertyOp21
 70
     1
102
RTVSPropertyOp22
 70
     1
102
RTVSPropertyOp23
 70
     1
102
RTVSPropertyOp24
 70
     1
102
RTVSPropertyOp25
 70
     1
102
RTVSPropertyOp26
 70
     1
102
RTVSPropertyOp27
 70
     1
102
RTVSPropertyOp28
 70
     1
102
RTVSPropertyOp29
 70
     1
102
RTVSPropertyOp30
 70
     1
102
RTVSPropertyOp31
 70
     1
102
RTVSPropertyOp32
 70
     1
102
RTVSPropertyOp33
 70
     1
102
RTVSPropertyOp34
 70
     1
102
RTVSPropertyOp35
 70
     1
102
RTVSPropertyOp36
 70
     1
102
RTVSPropertyOp37
 70
     1
102
RTVSPropertyOp38
 70
     1
102
RTVSPropertyOp39
 70
     1
102
RTVSPropertyOp40
 70
     1
102
RTVSPropertyOp41
 70
     1
102
RTVSPropertyOp42
 70
     1
102
RTVSPropertyOp43
 70
     1
102
RTVSPropertyOp44
 70
     1
102
RTVSPropertyOp45
 70
     1
102
RTVSPropertyOp46
 70
     1
102
RTVSPropertyOp47
 70
     1
102
RTVSPropertyOp48
 70
     1
102
RTVSPropertyOp49
 70
     1
102
RTVSPropertyOp50
 70
     1
102
RTVSPropertyOp51
 70
     0
102
RTVSPropertyOp52
 70
     0
102
RTVSPropertyOp53
 70
     1
102
RTVSPropertyOp54
 70
     1
102
RTVSPropertyOp55
 70
     1
102
RTVSPropertyOp56
 70
     1
102
RTVSPropertyOp57
 70
     1
102
RTVSPost2010Prop28
280
     0
102
RTVSPost2010PropOp28
 70
     1
102
RTVSPost2010Prop29
280
     1
102
RTVSPost2010PropOp29
 70
     1
102
RTVSPost2010Prop30
280
     1
102
RTVSPost2010PropOp30
 70
     1
102
RTVSPost2010Prop31
280
     0
102
RTVSPost2010PropOp31
 70
     1
102
RTVSPost2010Prop32
280
     0
102
RTVSPost2010PropOp32
 70
     1
102
RTVSPost2010Prop33
280
     0
102
RTVSPost2010PropOp33
 70
     1
102
RTVSPost2010Prop34
280
     0
102
RTVSPost2010PropOp34
 70
     1
102
RTVSPost2010Prop35
280
     0
102
RTVSPost2010PropOp35
 70
     1
102
RTVSPost2010Prop36
280
     0
102
RTVSPost2010PropOp36
 70
     1
102
RTVSPost2010Prop37
 90
       50
102
RTVSPost2010PropOp37
 70
     1
102
RTVSPost2010Prop38
140
0.0
102
RTVSPost2010PropOp38
 70
     1
102
RTVSPost2010Prop39
140
1.0
102
RTVSPost2010PropOp39
 70
     1
102
RTVSPost2010Prop40
 90
        0
102
RTVSPost2010PropOp40
 70
     1
102
RTVSPost2010Prop41ColorIndex
 90
       18
102
RTVSPost2010Prop41ColorRGB
 90
        0
102
RTVSPost2010PropOp41
 70
     1
102
RTVSPost2010Prop42
 90
       50
102
RTVSPost2010PropOp42
 70
     1
102
RTVSPost2010Prop43
 90
        3
102
RTVSPost2010PropOp43
 70
     1
102
RTVSPost2010Prop44ColorIndex
 90
        5
102
RTVSPost2010Prop44ColorRGB
 90
      255
102
RTVSPost2010PropOp44
 70
     1
102
RTVSPost2010Prop45
280
     0
102
RTVSPost2010PropOp45
 70
     1
102
RTVSPost2010Prop46
 90
       50
102
RTVSPost2010PropOp46
 70
     1
102
RTVSPost2010Prop47
 90
       50
102
RTVSPost2010PropOp47
 70
     1
102
RTVSPost2010Prop48
 90
       50
102
RTVSPost2010PropOp48
 70
     1
102
RTVSPost2010Prop49
280
     0
102
RTVSPost2010PropOp49
 70
     1
102
RTVSPost2010Prop50
 90
       50
102
RTVSPost2010PropOp50
 70
     1
102
RTVSPost2010Prop51ColorIndex
 90
      256
102
RTVSPost2010Prop51ColorRGB
 90
-16777216
102
RTVSPost2010PropOp51
 70
     0
102
RTVSPost2010Prop52
140
1.0
102
RTVSPost2010PropOp52
 70
     0
102
RTVSPost2010Prop53
 90
        2
102
RTVSPost2010PropOp53
 70
     1
102
RTVSPost2010Prop54
  1
strokes_ogs.tif
102
RTVSPost2010PropOp54
 70
     1
102
RTVSPost2010Prop55
280
     0
102
RTVSPost2010PropOp55
 70
     1
102
RTVSPost2010Prop56
140
1.0
102
RTVSPost2010PropOp56
 70
     1
102
RTVSPost2010Prop57
140
1.0
102
RTVSPost2010PropOp57
 70
     1
  0
XRECORD
  5
99
102
{ACAD_REACTORS
330
98
102
}
330
98
100
AcDbXrecord
280
     1
102
RTVSPropertyOp0
 70
     1
102
RTVSPropertyOp1
 70
     1
102
RTVSPropertyOp2
 70
     1
102
RTVSPropertyOp3
 70
     1
102
RTVSPropertyOp4
 70
     1
102
RTVSPropertyOp5
 70
     1
102
RTVSPropertyOp6
 70
     1
102
RTVSPropertyOp7
 70
     1
102
RTVSPropertyOp8
 70
     1
102
RTVSPropertyOp9
 70
     1
102
RTVSPropertyOp10
 70
     1
102
RTVSPropertyOp11
 70
     1
102
RTVSPropertyOp12
 70
     1
102
RTVSPropertyOp13
 70
     1
102
RTVSPropertyOp14
 70
     1
102
RTVSPropertyOp15
 70
     1
102
RTVSPropertyOp16
 70
     1
102
RTVSPropertyOp17
 70
     1
102
RTVSPropertyOp18
 70
     1
102
RTVSPropertyOp19
 70
     1
102
RTVSPropertyOp20
 70
     1
102
RTVSPropertyOp21
 70
     1
102
RTVSPropertyOp22
 70
     1
102
RTVSPropertyOp23
 70
     1
102
RTVSPropertyOp24
 70
     1
102
RTVSPropertyOp25
 70
     1
102
RTVSPropertyOp26
 70
     1
102
RTVSPropertyOp27
 70
     1
102
RTVSPropertyOp28
 70
     1
102
RTVSPropertyOp29
 70
     1
102
RTVSPropertyOp30
 70
     1
102
RTVSPropertyOp31
 70
     1
102
RTVSPropertyOp32
 70
     1
102
RTVSPropertyOp33
 70
     1
102
RTVSPropertyOp34
 70
     1
102
RTVSPropertyOp35
 70
     1
102
RTVSPropertyOp36
 70
     1
102
RTVSPropertyOp37
 70
     1
102
RTVSPropertyOp38
 70
     1
102
RTVSPropertyOp39
 70
     1
102
RTVSPropertyOp40
 70
     1
102
RTVSPropertyOp41
 70
     1
102
RTVSPropertyOp42
 70
     1
102
RTVSPropertyOp43
 70
     1
102
RTVSPropertyOp44
 70
     1
102
RTVSPropertyOp45
 70
     1
102
RTVSPropertyOp46
 70
     1
102
RTVSPropertyOp47
 70
     1
102
RTVSPropertyOp48
 70
     1
102
RTVSPropertyOp49
 70
     1
102
RTVSPropertyOp50
 70
     1
102
RTVSPropertyOp51
 70
     0
102
RTVSPropertyOp52
 70
     0
102
RTVSPropertyOp53
 70
     1
102
RTVSPropertyOp54
 70
     1
102
RTVSPropertyOp55
 70
     1
102
RTVSPropertyOp56
 70
     1
102
RTVSPropertyOp57
 70
     1
102
RTVSPost2010Prop28
280
     0
102
RTVSPost2010PropOp28
 70
     1
102
RTVSPost2010Prop29
280
     1
102
RTVSPost2010PropOp29
 70
     1
102
RTVSPost2010Prop30
280
     1
102
RTVSPost2010PropOp30
 70
     1
102
RTVSPost2010Prop31
280
     0
102
RTVSPost2010PropOp31
 70
     1
102
RTVSPost2010Prop32
280
     0
102
RTVSPost2010PropOp32
 70
     1
102
RTVSPost2010Prop33
280
     0
102
RTVSPost2010PropOp33
 70
     1
102
RTVSPost2010Prop34
280
     0
102
RTVSPost2010PropOp34
 70
     1
102
RTVSPost2010Prop35
280
     0
102
RTVSPost2010PropOp35
 70
     1
102
RTVSPost2010Prop36
280
     0
102
RTVSPost2010PropOp36
 70
     1
102
RTVSPost2010Prop37
 90
       50
102
RTVSPost2010PropOp37
 70
     1
102
RTVSPost2010Prop38
140
0.0
102
RTVSPost2010PropOp38
 70
     1
102
RTVSPost2010Prop39
140
1.0
102
RTVSPost2010PropOp39
 70
     1
102
RTVSPost2010Prop40
 90
        0
102
RTVSPost2010PropOp40
 70
     1
102
RTVSPost2010Prop41ColorIndex
 90
       18
102
RTVSPost2010Prop41ColorRGB
 90
        0
102
RTVSPost2010PropOp41
 70
     1
102
RTVSPost2010Prop42
 90
       50
102
RTVSPost2010PropOp42
 70
     1
102
RTVSPost2010Prop43
 90
        3
102
RTVSPost2010PropOp43
 70
     1
102
RTVSPost2010Prop44ColorIndex
 90
        5
102
RTVSPost2010Prop44ColorRGB
 90
      255
102
RTVSPost2010PropOp44
 70
     1
102
RTVSPost2010Prop45
280
     0
102
RTVSPost2010PropOp45
 70
     1
102
RTVSPost2010Prop46
 90
       50
102
RTVSPost2010PropOp46
 70
     1
102
RTVSPost2010Prop47
 90
       50
102
RTVSPost2010PropOp47
 70
     1
102
RTVSPost2010Prop48
 90
       50
102
RTVSPost2010PropOp48
 70
     1
102
RTVSPost2010Prop49
280
     0
102
RTVSPost2010PropOp49
 70
     1
102
RTVSPost2010Prop50
 90
       50
102
RTVSPost2010PropOp50
 70
     1
102
RTVSPost2010Prop51ColorIndex
 90
      256
102
RTVSPost2010Prop51ColorRGB
 90
-16777216
102
RTVSPost2010PropOp51
 70
     0
102
RTVSPost2010Prop52
140
1.0
102
RTVSPost2010PropOp52
 70
     0
102
RTVSPost2010Prop53
 90
        2
102
RTVSPost2010PropOp53
 70
     1
102
RTVSPost2010Prop54
  1
strokes_ogs.tif
102
RTVSPost2010PropOp54
 70
     1
102
RTVSPost2010Prop55
280
     0
102
RTVSPost2010PropOp55
 70
     1
102
RTVSPost2010Prop56
140
1.0
102
RTVSPost2010PropOp56
 70
     1
102
RTVSPost2010Prop57
140
1.0
102
RTVSPost2010PropOp57
 70
     1
  0
XRECORD
  5
A9
102
{ACAD_REACTORS
330
A8
102
}
330
A8
100
AcDbXrecord
280
     1
102
RTVSPropertyOp0
 70
     0
102
RTVSPropertyOp1
 70
     0
102
RTVSPropertyOp2
 70
     0
102
RTVSPropertyOp3
 70
     0
102
RTVSPropertyOp4
 70
     0
102
RTVSPropertyOp5
 70
     0
102
RTVSPropertyOp6
 70
     0
102
RTVSPropertyOp7
 70
     0
102
RTVSPropertyOp8
 70
     0
102
RTVSPropertyOp9
 70
     0
102
RTVSPropertyOp10
 70
     0
102
RTVSPropertyOp11
 70
     0
102
RTVSPropertyOp12
 70
     0
102
RTVSPropertyOp13
 70
     0
102
RTVSPropertyOp14
 70
     2
102
RTVSPropertyOp15
 70
     0
102
RTVSPropertyOp16
 70
     0
102
RTVSPropertyOp17
 70
     0
102
RTVSPropertyOp18
 70
     0
102
RTVSPropertyOp19
 70
     0
102
RTVSPropertyOp20
 70
     0
102
RTVSPropertyOp21
 70
     0
102
RTVSPropertyOp22
 70
     0
102
RTVSPropertyOp23
 70
     0
102
RTVSPropertyOp24
 70
     0
102
RTVSPropertyOp25
 70
     0
102
RTVSPropertyOp26
 70
     0
102
RTVSPropertyOp27
 70
     0
102
RTVSPropertyOp28
 70
     0
102
RTVSPropertyOp29
 70
     0
102
RTVSPropertyOp30
 70
     0
102
RTVSPropertyOp31
 70
     0
102
RTVSPropertyOp32
 70
     0
102
RTVSPropertyOp33
 70
     0
102
RTVSPropertyOp34
 70
     0
102
RTVSPropertyOp35
 70
     0
102
RTVSPropertyOp36
 70
     0
102
RTVSPropertyOp37
 70
     0
102
RTVSPropertyOp38
 70
     0
102
RTVSPropertyOp39
 70
     0
102
RTVSPropertyOp40
 70
     0
102
RTVSPropertyOp41
 70
     0
102
RTVSPropertyOp42
 70
     0
102
RTVSPropertyOp43
 70
     0
102
RTVSPropertyOp44
 70
     0
102
RTVSPropertyOp45
 70
     0
102
RTVSPropertyOp46
 70
     0
102
RTVSPropertyOp47
 70
     0
102
RTVSPropertyOp48
 70
     0
102
RTVSPropertyOp49
 70
     0
102
RTVSPropertyOp50
 70
     0
102
RTVSPropertyOp51
 70
     0
102
RTVSPropertyOp52
 70
     0
102
RTVSPropertyOp53
 70
     0
102
RTVSPropertyOp54
 70
     0
102
RTVSPropertyOp55
 70
     0
102
RTVSPropertyOp56
 70
     0
102
RTVSPropertyOp57
 70
     0
102
RTVSPost2010Prop28
280
     0
102
RTVSPost2010PropOp28
 70
     0
102
RTVSPost2010Prop29
280
     1
102
RTVSPost2010PropOp29
 70
     0
102
RTVSPost2010Prop30
280
     1
102
RTVSPost2010PropOp30
 70
     0
102
RTVSPost2010Prop31
280
     0
102
RTVSPost2010PropOp31
 70
     0
102
RTVSPost2010Prop32
280
     0
102
RTVSPost2010PropOp32
 70
     0
102
RTVSPost2010Prop33
280
     0
102
RTVSPost2010PropOp33
 70
     0
102
RTVSPost2010Prop34
280
     0
102
RTVSPost2010PropOp34
 70
     0
102
RTVSPost2010Prop35
280
     0
102
RTVSPost2010PropOp35
 70
     0
102
RTVSPost2010Prop36
280
     0
102
RTVSPost2010PropOp36
 70
     0
102
RTVSPost2010Prop37
 90
       50
102
RTVSPost2010PropOp37
 70
     0
102
RTVSPost2010Prop38
140
0.0
102
RTVSPost2010PropOp38
 70
     0
102
RTVSPost2010Prop39
140
1.0
102
RTVSPost2010PropOp39
 70
     0
102
RTVSPost2010Prop40
 90
        0
102
RTVSPost2010PropOp40
 70
     0
102
RTVSPost2010Prop41ColorIndex
 90
       18
102
RTVSPost2010Prop41ColorRGB
 90
        0
102
RTVSPost2010PropOp41
 70
     0
102
RTVSPost2010Prop42
 90
       50
102
RTVSPost2010PropOp42
 70
     0
102
RTVSPost2010Prop43
 90
        3
102
RTVSPost2010PropOp43
 70
     0
102
RTVSPost2010Prop44ColorIndex
 90
        5
102
RTVSPost2010Prop44ColorRGB
 90
      255
102
RTVSPost2010PropOp44
 70
     0
102
RTVSPost2010Prop45
280
     0
102
RTVSPost2010PropOp45
 70
     0
102
RTVSPost2010Prop46
 90
       50
102
RTVSPost2010PropOp46
 70
     0
102
RTVSPost2010Prop47
 90
       50
102
RTVSPost2010PropOp47
 70
     0
102
RTVSPost2010Prop48
 90
       50
102
RTVSPost2010PropOp48
 70
     0
102
RTVSPost2010Prop49
280
     0
102
RTVSPost2010PropOp49
 70
     0
102
RTVSPost2010Prop50
 90
       50
102
RTVSPost2010PropOp50
 70
     0
102
RTVSPost2010Prop51ColorIndex
 90
      256
102
RTVSPost2010Prop51ColorRGB
 90
-16777216
102
RTVSPost2010PropOp51
 70
     0
102
RTVSPost2010Prop52
140
1.0
102
RTVSPost2010PropOp52
 70
     0
102
RTVSPost2010Prop53
 90
        2
102
RTVSPost2010PropOp53
 70
     0
102
RTVSPost2010Prop54
  1
strokes_ogs.tif
102
RTVSPost2010PropOp54
 70
     0
102
RTVSPost2010Prop55
280
     0
102
RTVSPost2010PropOp55
 70
     0
102
RTVSPost2010Prop56
140
1.0
102
RTVSPost2010PropOp56
 70
     0
102
RTVSPost2010Prop57
140
1.0
102
RTVSPost2010PropOp57
 70
     0
  0
XRECORD
  5
A1
102
{ACAD_REACTORS
330
A0
102
}
330
A0
100
AcDbXrecord
280
     1
102
RTVSPropertyOp0
 70
     1
102
RTVSPropertyOp1
 70
     1
102
RTVSPropertyOp2
 70
     1
102
RTVSPropertyOp3
 70
     1
102
RTVSPropertyOp4
 70
     1
102
RTVSPropertyOp5
 70
     1
102
RTVSPropertyOp6
 70
     1
102
RTVSPropertyOp7
 70
     1
102
RTVSPropertyOp8
 70
     1
102
RTVSPropertyOp9
 70
     1
102
RTVSPropertyOp10
 70
     1
102
RTVSPropertyOp11
 70
     1
102
RTVSPropertyOp12
 70
     1
102
RTVSPropertyOp13
 70
     1
102
RTVSPropertyOp14
 70
     1
102
RTVSPropertyOp15
 70
     1
102
RTVSPropertyOp16
 70
     1
102
RTVSPropertyOp17
 70
     1
102
RTVSPropertyOp18
 70
     1
102
RTVSPropertyOp19
 70
     1
102
RTVSPropertyOp20
 70
     1
102
RTVSPropertyOp21
 70
     1
102
RTVSPropertyOp22
 70
     1
102
RTVSPropertyOp23
 70
     1
102
RTVSPropertyOp24
 70
     1
102
RTVSPropertyOp25
 70
     1
102
RTVSPropertyOp26
 70
     1
102
RTVSPropertyOp27
 70
     1
102
RTVSPropertyOp28
 70
     1
102
RTVSPropertyOp29
 70
     1
102
RTVSPropertyOp30
 70
     1
102
RTVSPropertyOp31
 70
     1
102
RTVSPropertyOp32
 70
     1
102
RTVSPropertyOp33
 70
     1
102
RTVSPropertyOp34
 70
     1
102
RTVSPropertyOp35
 70
     1
102
RTVSPropertyOp36
 70
     1
102
RTVSPropertyOp37
 70
     1
102
RTVSPropertyOp38
 70
     1
102
RTVSPropertyOp39
 70
     1
102
RTVSPropertyOp40
 70
     1
102
RTVSPropertyOp41
 70
     1
102
RTVSPropertyOp42
 70
     1
102
RTVSPropertyOp43
 70
     1
102
RTVSPropertyOp44
 70
     1
102
RTVSPropertyOp45
 70
     1
102
RTVSPropertyOp46
 70
     1
102
RTVSPropertyOp47
 70
     1
102
RTVSPropertyOp48
 70
     1
102
RTVSPropertyOp49
 70
     1
102
RTVSPropertyOp50
 70
     1
102
RTVSPropertyOp51
 70
     0
102
RTVSPropertyOp52
 70
     0
102
RTVSPropertyOp53
 70
     1
102
RTVSPropertyOp54
 70
     1
102
RTVSPropertyOp55
 70
     1
102
RTVSPropertyOp56
 70
     1
102
RTVSPropertyOp57
 70
     1
102
RTVSPost2010Prop28
280
     0
102
RTVSPost2010PropOp28
 70
     1
102
RTVSPost2010Prop29
280
     1
102
RTVSPost2010PropOp29
 70
     1
102
RTVSPost2010Prop30
280
     1
102
RTVSPost2010PropOp30
 70
     1
102
RTVSPost2010Prop31
280
     0
102
RTVSPost2010PropOp31
 70
     1
102
RTVSPost2010Prop32
280
     0
102
RTVSPost2010PropOp32
 70
     1
102
RTVSPost2010Prop33
280
     0
102
RTVSPost2010PropOp33
 70
     1
102
RTVSPost2010Prop34
280
     0
102
RTVSPost2010PropOp34
 70
     1
102
RTVSPost2010Prop35
280
     0
102
RTVSPost2010PropOp35
 70
     1
102
RTVSPost2010Prop36
280
     0
102
RTVSPost2010PropOp36
 70
     1
102
RTVSPost2010Prop37
 90
       50
102
RTVSPost2010PropOp37
 70
     1
102
RTVSPost2010Prop38
140
0.0
102
RTVSPost2010PropOp38
 70
     1
102
RTVSPost2010Prop39
140
1.0
102
RTVSPost2010PropOp39
 70
     1
102
RTVSPost2010Prop40
 90
        0
102
RTVSPost2010PropOp40
 70
     1
102
RTVSPost2010Prop41ColorIndex
 90
       18
102
RTVSPost2010Prop41ColorRGB
 90
        0
102
RTVSPost2010PropOp41
 70
     1
102
RTVSPost2010Prop42
 90
       50
102
RTVSPost2010PropOp42
 70
     1
102
RTVSPost2010Prop43
 90
        3
102
RTVSPost2010PropOp43
 70
     1
102
RTVSPost2010Prop44ColorIndex
 90
        5
102
RTVSPost2010Prop44ColorRGB
 90
      255
102
RTVSPost2010PropOp44
 70
     1
102
RTVSPost2010Prop45
280
     0
102
RTVSPost2010PropOp45
 70
     1
102
RTVSPost2010Prop46
 90
       50
102
RTVSPost2010PropOp46
 70
     1
102
RTVSPost2010Prop47
 90
       50
102
RTVSPost2010PropOp47
 70
     1
102
RTVSPost2010Prop48
 90
       50
102
RTVSPost2010PropOp48
 70
     1
102
RTVSPost2010Prop49
280
     0
102
RTVSPost2010PropOp49
 70
     1
102
RTVSPost2010Prop50
 90
       50
102
RTVSPost2010PropOp50
 70
     1
102
RTVSPost2010Prop51ColorIndex
 90
      256
102
RTVSPost2010Prop51ColorRGB
 90
-16777216
102
RTVSPost2010PropOp51
 70
     0
102
RTVSPost2010Prop52
140
1.0
102
RTVSPost2010PropOp52
 70
     0
102
RTVSPost2010Prop53
 90
        2
102
RTVSPost2010PropOp53
 70
     1
102
RTVSPost2010Prop54
  1
strokes_ogs.tif
102
RTVSPost2010PropOp54
 70
     1
102
RTVSPost2010Prop55
280
     0
102
RTVSPost2010PropOp55
 70
     1
102
RTVSPost2010Prop56
140
1.0
102
RTVSPost2010PropOp56
 70
     1
102
RTVSPost2010Prop57
140
1.0
102
RTVSPost2010PropOp57
 70
     1
  0
XRECORD
  5
85
102
{ACAD_REACTORS
330
84
102
}
330
84
100
AcDbXrecord
280
     1
102
RTVSPropertyOp0
 70
     1
102
RTVSPropertyOp1
 70
     1
102
RTVSPropertyOp2
 70
     1
102
RTVSPropertyOp3
 70
     1
102
RTVSPropertyOp4
 70
     1
102
RTVSPropertyOp5
 70
     1
102
RTVSPropertyOp6
 70
     1
102
RTVSPropertyOp7
 70
     1
102
RTVSPropertyOp8
 70
     1
102
RTVSPropertyOp9
 70
     1
102
RTVSPropertyOp10
 70
     1
102
RTVSPropertyOp11
 70
     1
102
RTVSPropertyOp12
 70
     1
102
RTVSPropertyOp13
 70
     1
102
RTVSPropertyOp14
 70
     1
102
RTVSPropertyOp15
 70
     1
102
RTVSPropertyOp16
 70
     1
102
RTVSPropertyOp17
 70
     1
102
RTVSPropertyOp18
 70
     1
102
RTVSPropertyOp19
 70
     1
102
RTVSPropertyOp20
 70
     1
102
RTVSPropertyOp21
 70
     1
102
RTVSPropertyOp22
 70
     1
102
RTVSPropertyOp23
 70
     1
102
RTVSPropertyOp24
 70
     1
102
RTVSPropertyOp25
 70
     1
102
RTVSPropertyOp26
 70
     1
102
RTVSPropertyOp27
 70
     1
102
RTVSPropertyOp28
 70
     1
102
RTVSPropertyOp29
 70
     1
102
RTVSPropertyOp30
 70
     1
102
RTVSPropertyOp31
 70
     1
102
RTVSPropertyOp32
 70
     1
102
RTVSPropertyOp33
 70
     1
102
RTVSPropertyOp34
 70
     1
102
RTVSPropertyOp35
 70
     1
102
RTVSPropertyOp36
 70
     1
102
RTVSPropertyOp37
 70
     1
102
RTVSPropertyOp38
 70
     1
102
RTVSPropertyOp39
 70
     1
102
RTVSPropertyOp40
 70
     1
102
RTVSPropertyOp41
 70
     1
102
RTVSPropertyOp42
 70
     1
102
RTVSPropertyOp43
 70
     1
102
RTVSPropertyOp44
 70
     1
102
RTVSPropertyOp45
 70
     1
102
RTVSPropertyOp46
 70
     1
102
RTVSPropertyOp47
 70
     1
102
RTVSPropertyOp48
 70
     1
102
RTVSPropertyOp49
 70
     1
102
RTVSPropertyOp50
 70
     1
102
RTVSPropertyOp51
 70
     0
102
RTVSPropertyOp52
 70
     0
102
RTVSPropertyOp53
 70
     1
102
RTVSPropertyOp54
 70
     1
102
RTVSPropertyOp55
 70
     1
102
RTVSPropertyOp56
 70
     1
102
RTVSPropertyOp57
 70
     1
102
RTVSPost2010Prop28
280
     0
102
RTVSPost2010PropOp28
 70
     1
102
RTVSPost2010Prop29
280
     1
102
RTVSPost2010PropOp29
 70
     1
102
RTVSPost2010Prop30
280
     1
102
RTVSPost2010PropOp30
 70
     1
102
RTVSPost2010Prop31
280
     0
102
RTVSPost2010PropOp31
 70
     1
102
RTVSPost2010Prop32
280
     0
102
RTVSPost2010PropOp32
 70
     1
102
RTVSPost2010Prop33
280
     0
102
RTVSPost2010PropOp33
 70
     1
102
RTVSPost2010Prop34
280
     0
102
RTVSPost2010PropOp34
 70
     1
102
RTVSPost2010Prop35
280
     0
102
RTVSPost2010PropOp35
 70
     1
102
RTVSPost2010Prop36
280
     0
102
RTVSPost2010PropOp36
 70
     1
102
RTVSPost2010Prop37
 90
       50
102
RTVSPost2010PropOp37
 70
     1
102
RTVSPost2010Prop38
140
0.0
102
RTVSPost2010PropOp38
 70
     1
102
RTVSPost2010Prop39
140
1.0
102
RTVSPost2010PropOp39
 70
     1
102
RTVSPost2010Prop40
 90
        0
102
RTVSPost2010PropOp40
 70
     1
102
RTVSPost2010Prop41ColorIndex
 90
       18
102
RTVSPost2010Prop41ColorRGB
 90
        0
102
RTVSPost2010PropOp41
 70
     1
102
RTVSPost2010Prop42
 90
       50
102
RTVSPost2010PropOp42
 70
     1
102
RTVSPost2010Prop43
 90
        3
102
RTVSPost2010PropOp43
 70
     1
102
RTVSPost2010Prop44ColorIndex
 90
        5
102
RTVSPost2010Prop44ColorRGB
 90
      255
102
RTVSPost2010PropOp44
 70
     1
102
RTVSPost2010Prop45
280
     0
102
RTVSPost2010PropOp45
 70
     1
102
RTVSPost2010Prop46
 90
       50
102
RTVSPost2010PropOp46
 70
     1
102
RTVSPost2010Prop47
 90
       50
102
RTVSPost2010PropOp47
 70
     1
102
RTVSPost2010Prop48
 90
       50
102
RTVSPost2010PropOp48
 70
     1
102
RTVSPost2010Prop49
280
     0
102
RTVSPost2010PropOp49
 70
     1
102
RTVSPost2010Prop50
 90
       50
102
RTVSPost2010PropOp50
 70
     1
102
RTVSPost2010Prop51ColorIndex
 90
      256
102
RTVSPost2010Prop51ColorRGB
 90
-16777216
102
RTVSPost2010PropOp51
 70
     0
102
RTVSPost2010Prop52
140
1.0
102
RTVSPost2010PropOp52
 70
     0
102
RTVSPost2010Prop53
 90
        2
102
RTVSPost2010PropOp53
 70
     1
102
RTVSPost2010Prop54
  1
strokes_ogs.tif
102
RTVSPost2010PropOp54
 70
     1
102
RTVSPost2010Prop55
280
     0
102
RTVSPost2010PropOp55
 70
     1
102
RTVSPost2010Prop56
140
1.0
102
RTVSPost2010PropOp56
 70
     1
102
RTVSPost2010Prop57
140
1.0
102
RTVSPost2010PropOp57
 70
     1
  0
XRECORD
  5
87
102
{ACAD_REACTORS
330
86
102
}
330
86
100
AcDbXrecord
280
     1
102
RTVSPropertyOp0
 70
     1
102
RTVSPropertyOp1
 70
     1
102
RTVSPropertyOp2
 70
     1
102
RTVSPropertyOp3
 70
     1
102
RTVSPropertyOp4
 70
     1
102
RTVSPropertyOp5
 70
     1
102
RTVSPropertyOp6
 70
     1
102
RTVSPropertyOp7
 70
     1
102
RTVSPropertyOp8
 70
     1
102
RTVSPropertyOp9
 70
     1
102
RTVSPropertyOp10
 70
     1
102
RTVSPropertyOp11
 70
     1
102
RTVSPropertyOp12
 70
     1
102
RTVSPropertyOp13
 70
     1
102
RTVSPropertyOp14
 70
     1
102
RTVSPropertyOp15
 70
     1
102
RTVSPropertyOp16
 70
     1
102
RTVSPropertyOp17
 70
     1
102
RTVSPropertyOp18
 70
     1
102
RTVSPropertyOp19
 70
     1
102
RTVSPropertyOp20
 70
     1
102
RTVSPropertyOp21
 70
     1
102
RTVSPropertyOp22
 70
     1
102
RTVSPropertyOp23
 70
     1
102
RTVSPropertyOp24
 70
     1
102
RTVSPropertyOp25
 70
     1
102
RTVSPropertyOp26
 70
     1
102
RTVSPropertyOp27
 70
     1
102
RTVSPropertyOp28
 70
     1
102
RTVSPropertyOp29
 70
     1
102
RTVSPropertyOp30
 70
     1
102
RTVSPropertyOp31
 70
     1
102
RTVSPropertyOp32
 70
     1
102
RTVSPropertyOp33
 70
     1
102
RTVSPropertyOp34
 70
     1
102
RTVSPropertyOp35
 70
     1
102
RTVSPropertyOp36
 70
     1
102
RTVSPropertyOp37
 70
     1
102
RTVSPropertyOp38
 70
     1
102
RTVSPropertyOp39
 70
     1
102
RTVSPropertyOp40
 70
     1
102
RTVSPropertyOp41
 70
     1
102
RTVSPropertyOp42
 70
     1
102
RTVSPropertyOp43
 70
     1
102
RTVSPropertyOp44
 70
     1
102
RTVSPropertyOp45
 70
     1
102
RTVSPropertyOp46
 70
     1
102
RTVSPropertyOp47
 70
     1
102
RTVSPropertyOp48
 70
     1
102
RTVSPropertyOp49
 70
     1
102
RTVSPropertyOp50
 70
     1
102
RTVSPropertyOp51
 70
     0
102
RTVSPropertyOp52
 70
     0
102
RTVSPropertyOp53
 70
     1
102
RTVSPropertyOp54
 70
     1
102
RTVSPropertyOp55
 70
     1
102
RTVSPropertyOp56
 70
     1
102
RTVSPropertyOp57
 70
     1
102
RTVSPost2010Prop28
280
     0
102
RTVSPost2010PropOp28
 70
     1
102
RTVSPost2010Prop29
280
     1
102
RTVSPost2010PropOp29
 70
     1
102
RTVSPost2010Prop30
280
     1
102
RTVSPost2010PropOp30
 70
     1
102
RTVSPost2010Prop31
280
     0
102
RTVSPost2010PropOp31
 70
     1
102
RTVSPost2010Prop32
280
     0
102
RTVSPost2010PropOp32
 70
     1
102
RTVSPost2010Prop33
280
     0
102
RTVSPost2010PropOp33
 70
     1
102
RTVSPost2010Prop34
280
     0
102
RTVSPost2010PropOp34
 70
     1
102
RTVSPost2010Prop35
280
     0
102
RTVSPost2010PropOp35
 70
     1
102
RTVSPost2010Prop36
280
     0
102
RTVSPost2010PropOp36
 70
     1
102
RTVSPost2010Prop37
 90
       50
102
RTVSPost2010PropOp37
 70
     1
102
RTVSPost2010Prop38
140
0.0
102
RTVSPost2010PropOp38
 70
     1
102
RTVSPost2010Prop39
140
1.0
102
RTVSPost2010PropOp39
 70
     1
102
RTVSPost2010Prop40
 90
        0
102
RTVSPost2010PropOp40
 70
     1
102
RTVSPost2010Prop41ColorIndex
 90
       18
102
RTVSPost2010Prop41ColorRGB
 90
        0
102
RTVSPost2010PropOp41
 70
     1
102
RTVSPost2010Prop42
 90
       50
102
RTVSPost2010PropOp42
 70
     1
102
RTVSPost2010Prop43
 90
        3
102
RTVSPost2010PropOp43
 70
     1
102
RTVSPost2010Prop44ColorIndex
 90
        5
102
RTVSPost2010Prop44ColorRGB
 90
      255
102
RTVSPost2010PropOp44
 70
     1
102
RTVSPost2010Prop45
280
     0
102
RTVSPost2010PropOp45
 70
     1
102
RTVSPost2010Prop46
 90
       50
102
RTVSPost2010PropOp46
 70
     1
102
RTVSPost2010Prop47
 90
       50
102
RTVSPost2010PropOp47
 70
     1
102
RTVSPost2010Prop48
 90
       50
102
RTVSPost2010PropOp48
 70
     1
102
RTVSPost2010Prop49
280
     0
102
RTVSPost2010PropOp49
 70
     1
102
RTVSPost2010Prop50
 90
       50
102
RTVSPost2010PropOp50
 70
     1
102
RTVSPost2010Prop51ColorIndex
 90
      256
102
RTVSPost2010Prop51ColorRGB
 90
-16777216
102
RTVSPost2010PropOp51
 70
     0
102
RTVSPost2010Prop52
140
1.0
102
RTVSPost2010PropOp52
 70
     0
102
RTVSPost2010Prop53
 90
        2
102
RTVSPost2010PropOp53
 70
     1
102
RTVSPost2010Prop54
  1
strokes_ogs.tif
102
RTVSPost2010PropOp54
 70
     1
102
RTVSPost2010Prop55
280
     0
102
RTVSPost2010PropOp55
 70
     1
102
RTVSPost2010Prop56
140
1.0
102
RTVSPost2010PropOp56
 70
     1
102
RTVSPost2010Prop57
140
1.0
102
RTVSPost2010PropOp57
 70
     1
  0
XRECORD
  5
89
102
{ACAD_REACTORS
330
88
102
}
330
88
100
AcDbXrecord
280
     1
102
RTVSPropertyOp0
 70
     1
102
RTVSPropertyOp1
 70
     1
102
RTVSPropertyOp2
 70
     1
102
RTVSPropertyOp3
 70
     1
102
RTVSPropertyOp4
 70
     1
102
RTVSPropertyOp5
 70
     1
102
RTVSPropertyOp6
 70
     1
102
RTVSPropertyOp7
 70
     1
102
RTVSPropertyOp8
 70
     1
102
RTVSPropertyOp9
 70
     1
102
RTVSPropertyOp10
 70
     1
102
RTVSPropertyOp11
 70
     1
102
RTVSPropertyOp12
 70
     1
102
RTVSPropertyOp13
 70
     1
102
RTVSPropertyOp14
 70
     1
102
RTVSPropertyOp15
 70
     1
102
RTVSPropertyOp16
 70
     1
102
RTVSPropertyOp17
 70
     1
102
RTVSPropertyOp18
 70
     1
102
RTVSPropertyOp19
 70
     1
102
RTVSPropertyOp20
 70
     1
102
RTVSPropertyOp21
 70
     1
102
RTVSPropertyOp22
 70
     1
102
RTVSPropertyOp23
 70
     1
102
RTVSPropertyOp24
 70
     1
102
RTVSPropertyOp25
 70
     1
102
RTVSPropertyOp26
 70
     1
102
RTVSPropertyOp27
 70
     1
102
RTVSPropertyOp28
 70
     1
102
RTVSPropertyOp29
 70
     1
102
RTVSPropertyOp30
 70
     1
102
RTVSPropertyOp31
 70
     1
102
RTVSPropertyOp32
 70
     1
102
RTVSPropertyOp33
 70
     1
102
RTVSPropertyOp34
 70
     1
102
RTVSPropertyOp35
 70
     1
102
RTVSPropertyOp36
 70
     1
102
RTVSPropertyOp37
 70
     1
102
RTVSPropertyOp38
 70
     1
102
RTVSPropertyOp39
 70
     1
102
RTVSPropertyOp40
 70
     1
102
RTVSPropertyOp41
 70
     1
102
RTVSPropertyOp42
 70
     1
102
RTVSPropertyOp43
 70
     1
102
RTVSPropertyOp44
 70
     1
102
RTVSPropertyOp45
 70
     1
102
RTVSPropertyOp46
 70
     1
102
RTVSPropertyOp47
 70
     1
102
RTVSPropertyOp48
 70
     1
102
RTVSPropertyOp49
 70
     1
102
RTVSPropertyOp50
 70
     1
102
RTVSPropertyOp51
 70
     0
102
RTVSPropertyOp52
 70
     0
102
RTVSPropertyOp53
 70
     1
102
RTVSPropertyOp54
 70
     1
102
RTVSPropertyOp55
 70
     1
102
RTVSPropertyOp56
 70
     1
102
RTVSPropertyOp57
 70
     1
102
RTVSPost2010Prop28
280
     0
102
RTVSPost2010PropOp28
 70
     1
102
RTVSPost2010Prop29
280
     1
102
RTVSPost2010PropOp29
 70
     1
102
RTVSPost2010Prop30
280
     1
102
RTVSPost2010PropOp30
 70
     1
102
RTVSPost2010Prop31
280
     0
102
RTVSPost2010PropOp31
 70
     1
102
RTVSPost2010Prop32
280
     0
102
RTVSPost2010PropOp32
 70
     1
102
RTVSPost2010Prop33
280
     0
102
RTVSPost2010PropOp33
 70
     1
102
RTVSPost2010Prop34
280
     0
102
RTVSPost2010PropOp34
 70
     1
102
RTVSPost2010Prop35
280
     0
102
RTVSPost2010PropOp35
 70
     1
102
RTVSPost2010Prop36
280
     0
102
RTVSPost2010PropOp36
 70
     1
102
RTVSPost2010Prop37
 90
       50
102
RTVSPost2010PropOp37
 70
     1
102
RTVSPost2010Prop38
140
0.0
102
RTVSPost2010PropOp38
 70
     1
102
RTVSPost2010Prop39
140
1.0
102
RTVSPost2010PropOp39
 70
     1
102
RTVSPost2010Prop40
 90
        0
102
RTVSPost2010PropOp40
 70
     1
102
RTVSPost2010Prop41ColorIndex
 90
       18
102
RTVSPost2010Prop41ColorRGB
 90
        0
102
RTVSPost2010PropOp41
 70
     1
102
RTVSPost2010Prop42
 90
       50
102
RTVSPost2010PropOp42
 70
     1
102
RTVSPost2010Prop43
 90
        3
102
RTVSPost2010PropOp43
 70
     1
102
RTVSPost2010Prop44ColorIndex
 90
        5
102
RTVSPost2010Prop44ColorRGB
 90
      255
102
RTVSPost2010PropOp44
 70
     1
102
RTVSPost2010Prop45
280
     0
102
RTVSPost2010PropOp45
 70
     1
102
RTVSPost2010Prop46
 90
       50
102
RTVSPost2010PropOp46
 70
     1
102
RTVSPost2010Prop47
 90
       50
102
RTVSPost2010PropOp47
 70
     1
102
RTVSPost2010Prop48
 90
       50
102
RTVSPost2010PropOp48
 70
     1
102
RTVSPost2010Prop49
280
     0
102
RTVSPost2010PropOp49
 70
     1
102
RTVSPost2010Prop50
 90
       50
102
RTVSPost2010PropOp50
 70
     1
102
RTVSPost2010Prop51ColorIndex
 90
      256
102
RTVSPost2010Prop51ColorRGB
 90
-16777216
102
RTVSPost2010PropOp51
 70
     0
102
RTVSPost2010Prop52
140
1.0
102
RTVSPost2010PropOp52
 70
     0
102
RTVSPost2010Prop53
 90
        2
102
RTVSPost2010PropOp53
 70
     1
102
RTVSPost2010Prop54
  1
strokes_ogs.tif
102
RTVSPost2010PropOp54
 70
     1
102
RTVSPost2010Prop55
280
     0
102
RTVSPost2010PropOp55
 70
     1
102
RTVSPost2010Prop56
140
1.0
102
RTVSPost2010PropOp56
 70
     1
102
RTVSPost2010Prop57
140
1.0
102
RTVSPost2010PropOp57
 70
     1
  0
XRECORD
  5
8B
102
{ACAD_REACTORS
330
8A
102
}
330
8A
100
AcDbXrecord
280
     1
102
RTVSPropertyOp0
 70
     1
102
RTVSPropertyOp1
 70
     1
102
RTVSPropertyOp2
 70
     1
102
RTVSPropertyOp3
 70
     1
102
RTVSPropertyOp4
 70
     1
102
RTVSPropertyOp5
 70
     1
102
RTVSPropertyOp6
 70
     1
102
RTVSPropertyOp7
 70
     1
102
RTVSPropertyOp8
 70
     1
102
RTVSPropertyOp9
 70
     1
102
RTVSPropertyOp10
 70
     1
102
RTVSPropertyOp11
 70
     1
102
RTVSPropertyOp12
 70
     1
102
RTVSPropertyOp13
 70
     1
102
RTVSPropertyOp14
 70
     1
102
RTVSPropertyOp15
 70
     1
102
RTVSPropertyOp16
 70
     1
102
RTVSPropertyOp17
 70
     1
102
RTVSPropertyOp18
 70
     1
102
RTVSPropertyOp19
 70
     1
102
RTVSPropertyOp20
 70
     1
102
RTVSPropertyOp21
 70
     1
102
RTVSPropertyOp22
 70
     1
102
RTVSPropertyOp23
 70
     1
102
RTVSPropertyOp24
 70
     1
102
RTVSPropertyOp25
 70
     1
102
RTVSPropertyOp26
 70
     1
102
RTVSPropertyOp27
 70
     1
102
RTVSPropertyOp28
 70
     1
102
RTVSPropertyOp29
 70
     1
102
RTVSPropertyOp30
 70
     1
102
RTVSPropertyOp31
 70
     1
102
RTVSPropertyOp32
 70
     1
102
RTVSPropertyOp33
 70
     1
102
RTVSPropertyOp34
 70
     1
102
RTVSPropertyOp35
 70
     1
102
RTVSPropertyOp36
 70
     1
102
RTVSPropertyOp37
 70
     1
102
RTVSPropertyOp38
 70
     1
102
RTVSPropertyOp39
 70
     1
102
RTVSPropertyOp40
 70
     1
102
RTVSPropertyOp41
 70
     1
102
RTVSPropertyOp42
 70
     1
102
RTVSPropertyOp43
 70
     1
102
RTVSPropertyOp44
 70
     1
102
RTVSPropertyOp45
 70
     1
102
RTVSPropertyOp46
 70
     1
102
RTVSPropertyOp47
 70
     1
102
RTVSPropertyOp48
 70
     1
102
RTVSPropertyOp49
 70
     1
102
RTVSPropertyOp50
 70
     1
102
RTVSPropertyOp51
 70
     0
102
RTVSPropertyOp52
 70
     0
102
RTVSPropertyOp53
 70
     1
102
RTVSPropertyOp54
 70
     1
102
RTVSPropertyOp55
 70
     1
102
RTVSPropertyOp56
 70
     1
102
RTVSPropertyOp57
 70
     1
102
RTVSPost2010Prop28
280
     0
102
RTVSPost2010PropOp28
 70
     1
102
RTVSPost2010Prop29
280
     1
102
RTVSPost2010PropOp29
 70
     1
102
RTVSPost2010Prop30
280
     1
102
RTVSPost2010PropOp30
 70
     1
102
RTVSPost2010Prop31
280
     0
102
RTVSPost2010PropOp31
 70
     1
102
RTVSPost2010Prop32
280
     0
102
RTVSPost2010PropOp32
 70
     1
102
RTVSPost2010Prop33
280
     0
102
RTVSPost2010PropOp33
 70
     1
102
RTVSPost2010Prop34
280
     0
102
RTVSPost2010PropOp34
 70
     1
102
RTVSPost2010Prop35
280
     0
102
RTVSPost2010PropOp35
 70
     1
102
RTVSPost2010Prop36
280
     0
102
RTVSPost2010PropOp36
 70
     1
102
RTVSPost2010Prop37
 90
       50
102
RTVSPost2010PropOp37
 70
     1
102
RTVSPost2010Prop38
140
0.0
102
RTVSPost2010PropOp38
 70
     1
102
RTVSPost2010Prop39
140
1.0
102
RTVSPost2010PropOp39
 70
     1
102
RTVSPost2010Prop40
 90
        0
102
RTVSPost2010PropOp40
 70
     1
102
RTVSPost2010Prop41ColorIndex
 90
       18
102
RTVSPost2010Prop41ColorRGB
 90
        0
102
RTVSPost2010PropOp41
 70
     1
102
RTVSPost2010Prop42
 90
       50
102
RTVSPost2010PropOp42
 70
     1
102
RTVSPost2010Prop43
 90
        3
102
RTVSPost2010PropOp43
 70
     1
102
RTVSPost2010Prop44ColorIndex
 90
        5
102
RTVSPost2010Prop44ColorRGB
 90
      255
102
RTVSPost2010PropOp44
 70
     1
102
RTVSPost2010Prop45
280
     0
102
RTVSPost2010PropOp45
 70
     1
102
RTVSPost2010Prop46
 90
       50
102
RTVSPost2010PropOp46
 70
     1
102
RTVSPost2010Prop47
 90
       50
102
RTVSPost2010PropOp47
 70
     1
102
RTVSPost2010Prop48
 90
       50
102
RTVSPost2010PropOp48
 70
     1
102
RTVSPost2010Prop49
280
     0
102
RTVSPost2010PropOp49
 70
     1
102
RTVSPost2010Prop50
 90
       50
102
RTVSPost2010PropOp50
 70
     1
102
RTVSPost2010Prop51ColorIndex
 90
      256
102
RTVSPost2010Prop51ColorRGB
 90
-16777216
102
RTVSPost2010PropOp51
 70
     0
102
RTVSPost2010Prop52
140
1.0
102
RTVSPost2010PropOp52
 70
     0
102
RTVSPost2010Prop53
 90
        2
102
RTVSPost2010PropOp53
 70
     1
102
RTVSPost2010Prop54
  1
strokes_ogs.tif
102
RTVSPost2010PropOp54
 70
     1
102
RTVSPost2010Prop55
280
     0
102
RTVSPost2010PropOp55
 70
     1
102
RTVSPost2010Prop56
140
1.0
102
RTVSPost2010PropOp56
 70
     1
102
RTVSPost2010Prop57
140
1.0
102
RTVSPost2010PropOp57
 70
     1
  0
XRECORD
  5
91
102
{ACAD_REACTORS
330
90
102
}
330
90
100
AcDbXrecord
280
     1
102
RTVSPropertyOp0
 70
     1
102
RTVSPropertyOp1
 70
     1
102
RTVSPropertyOp2
 70
     1
102
RTVSPropertyOp3
 70
     1
102
RTVSPropertyOp4
 70
     1
102
RTVSPropertyOp5
 70
     1
102
RTVSPropertyOp6
 70
     1
102
RTVSPropertyOp7
 70
     1
102
RTVSPropertyOp8
 70
     1
102
RTVSPropertyOp9
 70
     1
102
RTVSPropertyOp10
 70
     1
102
RTVSPropertyOp11
 70
     1
102
RTVSPropertyOp12
 70
     1
102
RTVSPropertyOp13
 70
     1
102
RTVSPropertyOp14
 70
     1
102
RTVSPropertyOp15
 70
     1
102
RTVSPropertyOp16
 70
     1
102
RTVSPropertyOp17
 70
     1
102
RTVSPropertyOp18
 70
     1
102
RTVSPropertyOp19
 70
     1
102
RTVSPropertyOp20
 70
     1
102
RTVSPropertyOp21
 70
     1
102
RTVSPropertyOp22
 70
     1
102
RTVSPropertyOp23
 70
     1
102
RTVSPropertyOp24
 70
     1
102
RTVSPropertyOp25
 70
     1
102
RTVSPropertyOp26
 70
     1
102
RTVSPropertyOp27
 70
     1
102
RTVSPropertyOp28
 70
     1
102
RTVSPropertyOp29
 70
     1
102
RTVSPropertyOp30
 70
     1
102
RTVSPropertyOp31
 70
     1
102
RTVSPropertyOp32
 70
     1
102
RTVSPropertyOp33
 70
     1
102
RTVSPropertyOp34
 70
     1
102
RTVSPropertyOp35
 70
     1
102
RTVSPropertyOp36
 70
     1
102
RTVSPropertyOp37
 70
     1
102
RTVSPropertyOp38
 70
     1
102
RTVSPropertyOp39
 70
     1
102
RTVSPropertyOp40
 70
     1
102
RTVSPropertyOp41
 70
     1
102
RTVSPropertyOp42
 70
     1
102
RTVSPropertyOp43
 70
     1
102
RTVSPropertyOp44
 70
     1
102
RTVSPropertyOp45
 70
     1
102
RTVSPropertyOp46
 70
     1
102
RTVSPropertyOp47
 70
     1
102
RTVSPropertyOp48
 70
     1
102
RTVSPropertyOp49
 70
     1
102
RTVSPropertyOp50
 70
     1
102
RTVSPropertyOp51
 70
     0
102
RTVSPropertyOp52
 70
     0
102
RTVSPropertyOp53
 70
     1
102
RTVSPropertyOp54
 70
     1
102
RTVSPropertyOp55
 70
     1
102
RTVSPropertyOp56
 70
     1
102
RTVSPropertyOp57
 70
     1
102
RTVSPost2010Prop28
280
     0
102
RTVSPost2010PropOp28
 70
     1
102
RTVSPost2010Prop29
280
     1
102
RTVSPost2010PropOp29
 70
     1
102
RTVSPost2010Prop30
280
     1
102
RTVSPost2010PropOp30
 70
     1
102
RTVSPost2010Prop31
280
     0
102
RTVSPost2010PropOp31
 70
     1
102
RTVSPost2010Prop32
280
     0
102
RTVSPost2010PropOp32
 70
     1
102
RTVSPost2010Prop33
280
     0
102
RTVSPost2010PropOp33
 70
     1
102
RTVSPost2010Prop34
280
     0
102
RTVSPost2010PropOp34
 70
     1
102
RTVSPost2010Prop35
280
     0
102
RTVSPost2010PropOp35
 70
     1
102
RTVSPost2010Prop36
280
     0
102
RTVSPost2010PropOp36
 70
     1
102
RTVSPost2010Prop37
 90
       50
102
RTVSPost2010PropOp37
 70
     1
102
RTVSPost2010Prop38
140
0.0
102
RTVSPost2010PropOp38
 70
     1
102
RTVSPost2010Prop39
140
1.0
102
RTVSPost2010PropOp39
 70
     1
102
RTVSPost2010Prop40
 90
        0
102
RTVSPost2010PropOp40
 70
     1
102
RTVSPost2010Prop41ColorIndex
 90
       18
102
RTVSPost2010Prop41ColorRGB
 90
        0
102
RTVSPost2010PropOp41
 70
     1
102
RTVSPost2010Prop42
 90
       50
102
RTVSPost2010PropOp42
 70
     1
102
RTVSPost2010Prop43
 90
        3
102
RTVSPost2010PropOp43
 70
     1
102
RTVSPost2010Prop44ColorIndex
 90
        5
102
RTVSPost2010Prop44ColorRGB
 90
      255
102
RTVSPost2010PropOp44
 70
     1
102
RTVSPost2010Prop45
280
     0
102
RTVSPost2010PropOp45
 70
     1
102
RTVSPost2010Prop46
 90
       50
102
RTVSPost2010PropOp46
 70
     1
102
RTVSPost2010Prop47
 90
       50
102
RTVSPost2010PropOp47
 70
     1
102
RTVSPost2010Prop48
 90
       50
102
RTVSPost2010PropOp48
 70
     1
102
RTVSPost2010Prop49
280
     0
102
RTVSPost2010PropOp49
 70
     1
102
RTVSPost2010Prop50
 90
       50
102
RTVSPost2010PropOp50
 70
     1
102
RTVSPost2010Prop51ColorIndex
 90
      256
102
RTVSPost2010Prop51ColorRGB
 90
-16777216
102
RTVSPost2010PropOp51
 70
     0
102
RTVSPost2010Prop52
140
1.0
102
RTVSPost2010PropOp52
 70
     0
102
RTVSPost2010Prop53
 90
        2
102
RTVSPost2010PropOp53
 70
     1
102
RTVSPost2010Prop54
  1
strokes_ogs.tif
102
RTVSPost2010PropOp54
 70
     1
102
RTVSPost2010Prop55
280
     0
102
RTVSPost2010PropOp55
 70
     1
102
RTVSPost2010Prop56
140
1.0
102
RTVSPost2010PropOp56
 70
     1
102
RTVSPost2010Prop57
140
1.0
102
RTVSPost2010PropOp57
 70
     1
  0
XRECORD
  5
A5
102
{ACAD_REACTORS
330
A4
102
}
330
A4
100
AcDbXrecord
280
     1
102
RTVSPropertyOp0
 70
     0
102
RTVSPropertyOp1
 70
     0
102
RTVSPropertyOp2
 70
     0
102
RTVSPropertyOp3
 70
     0
102
RTVSPropertyOp4
 70
     0
102
RTVSPropertyOp5
 70
     0
102
RTVSPropertyOp6
 70
     0
102
RTVSPropertyOp7
 70
     0
102
RTVSPropertyOp8
 70
     0
102
RTVSPropertyOp9
 70
     0
102
RTVSPropertyOp10
 70
     0
102
RTVSPropertyOp11
 70
     0
102
RTVSPropertyOp12
 70
     0
102
RTVSPropertyOp13
 70
     0
102
RTVSPropertyOp14
 70
     2
102
RTVSPropertyOp15
 70
     0
102
RTVSPropertyOp16
 70
     0
102
RTVSPropertyOp17
 70
     0
102
RTVSPropertyOp18
 70
     0
102
RTVSPropertyOp19
 70
     0
102
RTVSPropertyOp20
 70
     0
102
RTVSPropertyOp21
 70
     0
102
RTVSPropertyOp22
 70
     0
102
RTVSPropertyOp23
 70
     0
102
RTVSPropertyOp24
 70
     0
102
RTVSPropertyOp25
 70
     0
102
RTVSPropertyOp26
 70
     0
102
RTVSPropertyOp27
 70
     0
102
RTVSPropertyOp28
 70
     0
102
RTVSPropertyOp29
 70
     0
102
RTVSPropertyOp30
 70
     0
102
RTVSPropertyOp31
 70
     0
102
RTVSPropertyOp32
 70
     0
102
RTVSPropertyOp33
 70
     0
102
RTVSPropertyOp34
 70
     0
102
RTVSPropertyOp35
 70
     0
102
RTVSPropertyOp36
 70
     0
102
RTVSPropertyOp37
 70
     0
102
RTVSPropertyOp38
 70
     0
102
RTVSPropertyOp39
 70
     0
102
RTVSPropertyOp40
 70
     0
102
RTVSPropertyOp41
 70
     0
102
RTVSPropertyOp42
 70
     0
102
RTVSPropertyOp43
 70
     0
102
RTVSPropertyOp44
 70
     0
102
RTVSPropertyOp45
 70
     0
102
RTVSPropertyOp46
 70
     0
102
RTVSPropertyOp47
 70
     0
102
RTVSPropertyOp48
 70
     0
102
RTVSPropertyOp49
 70
     0
102
RTVSPropertyOp50
 70
     0
102
RTVSPropertyOp51
 70
     0
102
RTVSPropertyOp52
 70
     0
102
RTVSPropertyOp53
 70
     0
102
RTVSPropertyOp54
 70
     0
102
RTVSPropertyOp55
 70
     0
102
RTVSPropertyOp56
 70
     0
102
RTVSPropertyOp57
 70
     0
102
RTVSPost2010Prop28
280
     0
102
RTVSPost2010PropOp28
 70
     0
102
RTVSPost2010Prop29
280
     1
102
RTVSPost2010PropOp29
 70
     0
102
RTVSPost2010Prop30
280
     1
102
RTVSPost2010PropOp30
 70
     0
102
RTVSPost2010Prop31
280
     0
102
RTVSPost2010PropOp31
 70
     0
102
RTVSPost2010Prop32
280
     0
102
RTVSPost2010PropOp32
 70
     0
102
RTVSPost2010Prop33
280
     0
102
RTVSPost2010PropOp33
 70
     0
102
RTVSPost2010Prop34
280
     0
102
RTVSPost2010PropOp34
 70
     0
102
RTVSPost2010Prop35
280
     0
102
RTVSPost2010PropOp35
 70
     0
102
RTVSPost2010Prop36
280
     0
102
RTVSPost2010PropOp36
 70
     0
102
RTVSPost2010Prop37
 90
       50
102
RTVSPost2010PropOp37
 70
     0
102
RTVSPost2010Prop38
140
0.0
102
RTVSPost2010PropOp38
 70
     0
102
RTVSPost2010Prop39
140
1.0
102
RTVSPost2010PropOp39
 70
     0
102
RTVSPost2010Prop40
 90
        0
102
RTVSPost2010PropOp40
 70
     0
102
RTVSPost2010Prop41ColorIndex
 90
       18
102
RTVSPost2010Prop41ColorRGB
 90
        0
102
RTVSPost2010PropOp41
 70
     0
102
RTVSPost2010Prop42
 90
       50
102
RTVSPost2010PropOp42
 70
     0
102
RTVSPost2010Prop43
 90
        3
102
RTVSPost2010PropOp43
 70
     0
102
RTVSPost2010Prop44ColorIndex
 90
        5
102
RTVSPost2010Prop44ColorRGB
 90
      255
102
RTVSPost2010PropOp44
 70
     0
102
RTVSPost2010Prop45
280
     0
102
RTVSPost2010PropOp45
 70
     0
102
RTVSPost2010Prop46
 90
       50
102
RTVSPost2010PropOp46
 70
     0
102
RTVSPost2010Prop47
 90
       50
102
RTVSPost2010PropOp47
 70
     0
102
RTVSPost2010Prop48
 90
       50
102
RTVSPost2010PropOp48
 70
     0
102
RTVSPost2010Prop49
280
     0
102
RTVSPost2010PropOp49
 70
     0
102
RTVSPost2010Prop50
 90
       50
102
RTVSPost2010PropOp50
 70
     0
102
RTVSPost2010Prop51ColorIndex
 90
      256
102
RTVSPost2010Prop51ColorRGB
 90
-16777216
102
RTVSPost2010PropOp51
 70
     0
102
RTVSPost2010Prop52
140
1.0
102
RTVSPost2010PropOp52
 70
     0
102
RTVSPost2010Prop53
 90
        2
102
RTVSPost2010PropOp53
 70
     0
102
RTVSPost2010Prop54
  1
strokes_ogs.tif
102
RTVSPost2010PropOp54
 70
     0
102
RTVSPost2010Prop55
280
     0
102
RTVSPost2010PropOp55
 70
     0
102
RTVSPost2010Prop56
140
1.0
102
RTVSPost2010PropOp56
 70
     0
102
RTVSPost2010Prop57
140
1.0
102
RTVSPost2010PropOp57
 70
     0
  0
XRECORD
  5
9F
102
{ACAD_REACTORS
330
9E
102
}
330
9E
100
AcDbXrecord
280
     1
102
RTVSPropertyOp0
 70
     1
102
RTVSPropertyOp1
 70
     1
102
RTVSPropertyOp2
 70
     1
102
RTVSPropertyOp3
 70
     1
102
RTVSPropertyOp4
 70
     1
102
RTVSPropertyOp5
 70
     1
102
RTVSPropertyOp6
 70
     1
102
RTVSPropertyOp7
 70
     1
102
RTVSPropertyOp8
 70
     1
102
RTVSPropertyOp9
 70
     1
102
RTVSPropertyOp10
 70
     1
102
RTVSPropertyOp11
 70
     1
102
RTVSPropertyOp12
 70
     1
102
RTVSPropertyOp13
 70
     1
102
RTVSPropertyOp14
 70
     1
102
RTVSPropertyOp15
 70
     1
102
RTVSPropertyOp16
 70
     1
102
RTVSPropertyOp17
 70
     1
102
RTVSPropertyOp18
 70
     1
102
RTVSPropertyOp19
 70
     1
102
RTVSPropertyOp20
 70
     1
102
RTVSPropertyOp21
 70
     1
102
RTVSPropertyOp22
 70
     1
102
RTVSPropertyOp23
 70
     1
102
RTVSPropertyOp24
 70
     1
102
RTVSPropertyOp25
 70
     1
102
RTVSPropertyOp26
 70
     1
102
RTVSPropertyOp27
 70
     1
102
RTVSPropertyOp28
 70
     1
102
RTVSPropertyOp29
 70
     1
102
RTVSPropertyOp30
 70
     1
102
RTVSPropertyOp31
 70
     1
102
RTVSPropertyOp32
 70
     1
102
RTVSPropertyOp33
 70
     1
102
RTVSPropertyOp34
 70
     1
102
RTVSPropertyOp35
 70
     1
102
RTVSPropertyOp36
 70
     1
102
RTVSPropertyOp37
 70
     1
102
RTVSPropertyOp38
 70
     1
102
RTVSPropertyOp39
 70
     1
102
RTVSPropertyOp40
 70
     1
102
RTVSPropertyOp41
 70
     1
102
RTVSPropertyOp42
 70
     1
102
RTVSPropertyOp43
 70
     1
102
RTVSPropertyOp44
 70
     1
102
RTVSPropertyOp45
 70
     1
102
RTVSPropertyOp46
 70
     1
102
RTVSPropertyOp47
 70
     1
102
RTVSPropertyOp48
 70
     1
102
RTVSPropertyOp49
 70
     1
102
RTVSPropertyOp50
 70
     1
102
RTVSPropertyOp51
 70
     0
102
RTVSPropertyOp52
 70
     0
102
RTVSPropertyOp53
 70
     1
102
RTVSPropertyOp54
 70
     1
102
RTVSPropertyOp55
 70
     1
102
RTVSPropertyOp56
 70
     1
102
RTVSPropertyOp57
 70
     1
102
RTVSPost2010Prop28
280
     0
102
RTVSPost2010PropOp28
 70
     1
102
RTVSPost2010Prop29
280
     1
102
RTVSPost2010PropOp29
 70
     1
102
RTVSPost2010Prop30
280
     1
102
RTVSPost2010PropOp30
 70
     1
102
RTVSPost2010Prop31
280
     0
102
RTVSPost2010PropOp31
 70
     1
102
RTVSPost2010Prop32
280
     0
102
RTVSPost2010PropOp32
 70
     1
102
RTVSPost2010Prop33
280
     0
102
RTVSPost2010PropOp33
 70
     1
102
RTVSPost2010Prop34
280
     0
102
RTVSPost2010PropOp34
 70
     1
102
RTVSPost2010Prop35
280
     0
102
RTVSPost2010PropOp35
 70
     1
102
RTVSPost2010Prop36
280
     0
102
RTVSPost2010PropOp36
 70
     1
102
RTVSPost2010Prop37
 90
       50
102
RTVSPost2010PropOp37
 70
     1
102
RTVSPost2010Prop38
140
0.0
102
RTVSPost2010PropOp38
 70
     1
102
RTVSPost2010Prop39
140
1.0
102
RTVSPost2010PropOp39
 70
     1
102
RTVSPost2010Prop40
 90
        0
102
RTVSPost2010PropOp40
 70
     1
102
RTVSPost2010Prop41ColorIndex
 90
       18
102
RTVSPost2010Prop41ColorRGB
 90
        0
102
RTVSPost2010PropOp41
 70
     1
102
RTVSPost2010Prop42
 90
       50
102
RTVSPost2010PropOp42
 70
     1
102
RTVSPost2010Prop43
 90
        3
102
RTVSPost2010PropOp43
 70
     1
102
RTVSPost2010Prop44ColorIndex
 90
        5
102
RTVSPost2010Prop44ColorRGB
 90
      255
102
RTVSPost2010PropOp44
 70
     1
102
RTVSPost2010Prop45
280
     0
102
RTVSPost2010PropOp45
 70
     1
102
RTVSPost2010Prop46
 90
       50
102
RTVSPost2010PropOp46
 70
     1
102
RTVSPost2010Prop47
 90
       50
102
RTVSPost2010PropOp47
 70
     1
102
RTVSPost2010Prop48
 90
       50
102
RTVSPost2010PropOp48
 70
     1
102
RTVSPost2010Prop49
280
     0
102
RTVSPost2010PropOp49
 70
     1
102
RTVSPost2010Prop50
 90
       50
102
RTVSPost2010PropOp50
 70
     1
102
RTVSPost2010Prop51ColorIndex
 90
      256
102
RTVSPost2010Prop51ColorRGB
 90
-16777216
102
RTVSPost2010PropOp51
 70
     0
102
RTVSPost2010Prop52
140
1.0
102
RTVSPost2010PropOp52
 70
     0
102
RTVSPost2010Prop53
 90
        2
102
RTVSPost2010PropOp53
 70
     1
102
RTVSPost2010Prop54
  1
strokes_ogs.tif
102
RTVSPost2010PropOp54
 70
     1
102
RTVSPost2010Prop55
280
     0
102
RTVSPost2010PropOp55
 70
     1
102
RTVSPost2010Prop56
140
1.0
102
RTVSPost2010PropOp56
 70
     1
102
RTVSPost2010Prop57
140
1.0
102
RTVSPost2010PropOp57
 70
     1
  0
XRECORD
  5
A7
102
{ACAD_REACTORS
330
A6
102
}
330
A6
100
AcDbXrecord
280
     1
102
RTVSPropertyOp0
 70
     0
102
RTVSPropertyOp1
 70
     0
102
RTVSPropertyOp2
 70
     0
102
RTVSPropertyOp3
 70
     0
102
RTVSPropertyOp4
 70
     0
102
RTVSPropertyOp5
 70
     0
102
RTVSPropertyOp6
 70
     0
102
RTVSPropertyOp7
 70
     0
102
RTVSPropertyOp8
 70
     0
102
RTVSPropertyOp9
 70
     0
102
RTVSPropertyOp10
 70
     0
102
RTVSPropertyOp11
 70
     0
102
RTVSPropertyOp12
 70
     0
102
RTVSPropertyOp13
 70
     0
102
RTVSPropertyOp14
 70
     2
102
RTVSPropertyOp15
 70
     0
102
RTVSPropertyOp16
 70
     0
102
RTVSPropertyOp17
 70
     0
102
RTVSPropertyOp18
 70
     0
102
RTVSPropertyOp19
 70
     0
102
RTVSPropertyOp20
 70
     0
102
RTVSPropertyOp21
 70
     0
102
RTVSPropertyOp22
 70
     0
102
RTVSPropertyOp23
 70
     0
102
RTVSPropertyOp24
 70
     0
102
RTVSPropertyOp25
 70
     0
102
RTVSPropertyOp26
 70
     0
102
RTVSPropertyOp27
 70
     0
102
RTVSPropertyOp28
 70
     0
102
RTVSPropertyOp29
 70
     0
102
RTVSPropertyOp30
 70
     0
102
RTVSPropertyOp31
 70
     0
102
RTVSPropertyOp32
 70
     0
102
RTVSPropertyOp33
 70
     0
102
RTVSPropertyOp34
 70
     0
102
RTVSPropertyOp35
 70
     0
102
RTVSPropertyOp36
 70
     0
102
RTVSPropertyOp37
 70
     0
102
RTVSPropertyOp38
 70
     0
102
RTVSPropertyOp39
 70
     0
102
RTVSPropertyOp40
 70
     0
102
RTVSPropertyOp41
 70
     0
102
RTVSPropertyOp42
 70
     0
102
RTVSPropertyOp43
 70
     0
102
RTVSPropertyOp44
 70
     0
102
RTVSPropertyOp45
 70
     0
102
RTVSPropertyOp46
 70
     0
102
RTVSPropertyOp47
 70
     0
102
RTVSPropertyOp48
 70
     0
102
RTVSPropertyOp49
 70
     0
102
RTVSPropertyOp50
 70
     0
102
RTVSPropertyOp51
 70
     0
102
RTVSPropertyOp52
 70
     0
102
RTVSPropertyOp53
 70
     0
102
RTVSPropertyOp54
 70
     0
102
RTVSPropertyOp55
 70
     0
102
RTVSPropertyOp56
 70
     0
102
RTVSPropertyOp57
 70
     0
102
RTVSPost2010Prop28
280
     0
102
RTVSPost2010PropOp28
 70
     0
102
RTVSPost2010Prop29
280
     1
102
RTVSPost2010PropOp29
 70
     0
102
RTVSPost2010Prop30
280
     1
102
RTVSPost2010PropOp30
 70
     0
102
RTVSPost2010Prop31
280
     0
102
RTVSPost2010PropOp31
 70
     0
102
RTVSPost2010Prop32
280
     0
102
RTVSPost2010PropOp32
 70
     0
102
RTVSPost2010Prop33
280
     0
102
RTVSPost2010PropOp33
 70
     0
102
RTVSPost2010Prop34
280
     0
102
RTVSPost2010PropOp34
 70
     0
102
RTVSPost2010Prop35
280
     0
102
RTVSPost2010PropOp35
 70
     0
102
RTVSPost2010Prop36
280
     0
102
RTVSPost2010PropOp36
 70
     0
102
RTVSPost2010Prop37
 90
       50
102
RTVSPost2010PropOp37
 70
     0
102
RTVSPost2010Prop38
140
0.0
102
RTVSPost2010PropOp38
 70
     0
102
RTVSPost2010Prop39
140
1.0
102
RTVSPost2010PropOp39
 70
     0
102
RTVSPost2010Prop40
 90
        0
102
RTVSPost2010PropOp40
 70
     0
102
RTVSPost2010Prop41ColorIndex
 90
       18
102
RTVSPost2010Prop41ColorRGB
 90
        0
102
RTVSPost2010PropOp41
 70
     0
102
RTVSPost2010Prop42
 90
       50
102
RTVSPost2010PropOp42
 70
     0
102
RTVSPost2010Prop43
 90
        3
102
RTVSPost2010PropOp43
 70
     0
102
RTVSPost2010Prop44ColorIndex
 90
        5
102
RTVSPost2010Prop44ColorRGB
 90
      255
102
RTVSPost2010PropOp44
 70
     0
102
RTVSPost2010Prop45
280
     0
102
RTVSPost2010PropOp45
 70
     0
102
RTVSPost2010Prop46
 90
       50
102
RTVSPost2010PropOp46
 70
     0
102
RTVSPost2010Prop47
 90
       50
102
RTVSPost2010PropOp47
 70
     0
102
RTVSPost2010Prop48
 90
       50
102
RTVSPost2010PropOp48
 70
     0
102
RTVSPost2010Prop49
280
     0
102
RTVSPost2010PropOp49
 70
     0
102
RTVSPost2010Prop50
 90
       50
102
RTVSPost2010PropOp50
 70
     0
102
RTVSPost2010Prop51ColorIndex
 90
      256
102
RTVSPost2010Prop51ColorRGB
 90
-16777216
102
RTVSPost2010PropOp51
 70
     0
102
RTVSPost2010Prop52
140
1.0
102
RTVSPost2010PropOp52
 70
     0
102
RTVSPost2010Prop53
 90
        2
102
RTVSPost2010PropOp53
 70
     0
102
RTVSPost2010Prop54
  1
strokes_ogs.tif
102
RTVSPost2010PropOp54
 70
     0
102
RTVSPost2010Prop55
280
     0
102
RTVSPost2010PropOp55
 70
     0
102
RTVSPost2010Prop56
140
1.0
102
RTVSPost2010PropOp56
 70
     0
102
RTVSPost2010Prop57
140
1.0
102
RTVSPost2010PropOp57
 70
     0
  0
XRECORD
  5
95
102
{ACAD_REACTORS
330
94
102
}
330
94
100
AcDbXrecord
280
     1
102
RTVSPropertyOp0
 70
     1
102
RTVSPropertyOp1
 70
     1
102
RTVSPropertyOp2
 70
     1
102
RTVSPropertyOp3
 70
     1
102
RTVSPropertyOp4
 70
     1
102
RTVSPropertyOp5
 70
     1
102
RTVSPropertyOp6
 70
     1
102
RTVSPropertyOp7
 70
     1
102
RTVSPropertyOp8
 70
     1
102
RTVSPropertyOp9
 70
     1
102
RTVSPropertyOp10
 70
     1
102
RTVSPropertyOp11
 70
     1
102
RTVSPropertyOp12
 70
     1
102
RTVSPropertyOp13
 70
     1
102
RTVSPropertyOp14
 70
     1
102
RTVSPropertyOp15
 70
     1
102
RTVSPropertyOp16
 70
     1
102
RTVSPropertyOp17
 70
     1
102
RTVSPropertyOp18
 70
     1
102
RTVSPropertyOp19
 70
     1
102
RTVSPropertyOp20
 70
     1
102
RTVSPropertyOp21
 70
     1
102
RTVSPropertyOp22
 70
     1
102
RTVSPropertyOp23
 70
     1
102
RTVSPropertyOp24
 70
     1
102
RTVSPropertyOp25
 70
     1
102
RTVSPropertyOp26
 70
     1
102
RTVSPropertyOp27
 70
     1
102
RTVSPropertyOp28
 70
     1
102
RTVSPropertyOp29
 70
     1
102
RTVSPropertyOp30
 70
     1
102
RTVSPropertyOp31
 70
     1
102
RTVSPropertyOp32
 70
     1
102
RTVSPropertyOp33
 70
     1
102
RTVSPropertyOp34
 70
     1
102
RTVSPropertyOp35
 70
     1
102
RTVSPropertyOp36
 70
     1
102
RTVSPropertyOp37
 70
     1
102
RTVSPropertyOp38
 70
     1
102
RTVSPropertyOp39
 70
     1
102
RTVSPropertyOp40
 70
     1
102
RTVSPropertyOp41
 70
     1
102
RTVSPropertyOp42
 70
     1
102
RTVSPropertyOp43
 70
     1
102
RTVSPropertyOp44
 70
     1
102
RTVSPropertyOp45
 70
     1
102
RTVSPropertyOp46
 70
     1
102
RTVSPropertyOp47
 70
     1
102
RTVSPropertyOp48
 70
     1
102
RTVSPropertyOp49
 70
     1
102
RTVSPropertyOp50
 70
     1
102
RTVSPropertyOp51
 70
     0
102
RTVSPropertyOp52
 70
     0
102
RTVSPropertyOp53
 70
     1
102
RTVSPropertyOp54
 70
     1
102
RTVSPropertyOp55
 70
     1
102
RTVSPropertyOp56
 70
     1
102
RTVSPropertyOp57
 70
     1
102
RTVSPost2010Prop28
280
     0
102
RTVSPost2010PropOp28
 70
     1
102
RTVSPost2010Prop29
280
     1
102
RTVSPost2010PropOp29
 70
     1
102
RTVSPost2010Prop30
280
     1
102
RTVSPost2010PropOp30
 70
     1
102
RTVSPost2010Prop31
280
     0
102
RTVSPost2010PropOp31
 70
     1
102
RTVSPost2010Prop32
280
     0
102
RTVSPost2010PropOp32
 70
     1
102
RTVSPost2010Prop33
280
     0
102
RTVSPost2010PropOp33
 70
     1
102
RTVSPost2010Prop34
280
     0
102
RTVSPost2010PropOp34
 70
     1
102
RTVSPost2010Prop35
280
     0
102
RTVSPost2010PropOp35
 70
     1
102
RTVSPost2010Prop36
280
     0
102
RTVSPost2010PropOp36
 70
     1
102
RTVSPost2010Prop37
 90
       50
102
RTVSPost2010PropOp37
 70
     1
102
RTVSPost2010Prop38
140
0.0
102
RTVSPost2010PropOp38
 70
     1
102
RTVSPost2010Prop39
140
1.0
102
RTVSPost2010PropOp39
 70
     1
102
RTVSPost2010Prop40
 90
        0
102
RTVSPost2010PropOp40
 70
     1
102
RTVSPost2010Prop41ColorIndex
 90
       18
102
RTVSPost2010Prop41ColorRGB
 90
        0
102
RTVSPost2010PropOp41
 70
     1
102
RTVSPost2010Prop42
 90
       50
102
RTVSPost2010PropOp42
 70
     1
102
RTVSPost2010Prop43
 90
        3
102
RTVSPost2010PropOp43
 70
     1
102
RTVSPost2010Prop44ColorIndex
 90
        5
102
RTVSPost2010Prop44ColorRGB
 90
      255
102
RTVSPost2010PropOp44
 70
     1
102
RTVSPost2010Prop45
280
     0
102
RTVSPost2010PropOp45
 70
     1
102
RTVSPost2010Prop46
 90
       50
102
RTVSPost2010PropOp46
 70
     1
102
RTVSPost2010Prop47
 90
       50
102
RTVSPost2010PropOp47
 70
     1
102
RTVSPost2010Prop48
 90
       50
102
RTVSPost2010PropOp48
 70
     1
102
RTVSPost2010Prop49
280
     0
102
RTVSPost2010PropOp49
 70
     1
102
RTVSPost2010Prop50
 90
       50
102
RTVSPost2010PropOp50
 70
     1
102
RTVSPost2010Prop51ColorIndex
 90
      256
102
RTVSPost2010Prop51ColorRGB
 90
-16777216
102
RTVSPost2010PropOp51
 70
     0
102
RTVSPost2010Prop52
140
1.0
102
RTVSPost2010PropOp52
 70
     0
102
RTVSPost2010Prop53
 90
        2
102
RTVSPost2010PropOp53
 70
     1
102
RTVSPost2010Prop54
  1
strokes_ogs.tif
102
RTVSPost2010PropOp54
 70
     1
102
RTVSPost2010Prop55
280
     0
102
RTVSPost2010PropOp55
 70
     1
102
RTVSPost2010Prop56
140
1.0
102
RTVSPost2010PropOp56
 70
     1
102
RTVSPost2010Prop57
140
1.0
102
RTVSPost2010PropOp57
 70
     1
  0
XRECORD
  5
B3
102
{ACAD_REACTORS
330
B2
102
}
330
B2
100
AcDbXrecord
280
     1
102
RTVSPropertyOp0
 70
     1
102
RTVSPropertyOp1
 70
     1
102
RTVSPropertyOp2
 70
     1
102
RTVSPropertyOp3
 70
     1
102
RTVSPropertyOp4
 70
     1
102
RTVSPropertyOp5
 70
     1
102
RTVSPropertyOp6
 70
     1
102
RTVSPropertyOp7
 70
     1
102
RTVSPropertyOp8
 70
     1
102
RTVSPropertyOp9
 70
     1
102
RTVSPropertyOp10
 70
     1
102
RTVSPropertyOp11
 70
     1
102
RTVSPropertyOp12
 70
     1
102
RTVSPropertyOp13
 70
     1
102
RTVSPropertyOp14
 70
     1
102
RTVSPropertyOp15
 70
     1
102
RTVSPropertyOp16
 70
     1
102
RTVSPropertyOp17
 70
     1
102
RTVSPropertyOp18
 70
     1
102
RTVSPropertyOp19
 70
     1
102
RTVSPropertyOp20
 70
     1
102
RTVSPropertyOp21
 70
     1
102
RTVSPropertyOp22
 70
     1
102
RTVSPropertyOp23
 70
     1
102
RTVSPropertyOp24
 70
     1
102
RTVSPropertyOp25
 70
     1
102
RTVSPropertyOp26
 70
     1
102
RTVSPropertyOp27
 70
     1
102
RTVSPropertyOp28
 70
     1
102
RTVSPropertyOp29
 70
     1
102
RTVSPropertyOp30
 70
     1
102
RTVSPropertyOp31
 70
     1
102
RTVSPropertyOp32
 70
     1
102
RTVSPropertyOp33
 70
     1
102
RTVSPropertyOp34
 70
     1
102
RTVSPropertyOp35
 70
     1
102
RTVSPropertyOp36
 70
     1
102
RTVSPropertyOp37
 70
     1
102
RTVSPropertyOp38
 70
     1
102
RTVSPropertyOp39
 70
     1
102
RTVSPropertyOp40
 70
     1
102
RTVSPropertyOp41
 70
     1
102
RTVSPropertyOp42
 70
     1
102
RTVSPropertyOp43
 70
     1
102
RTVSPropertyOp44
 70
     1
102
RTVSPropertyOp45
 70
     1
102
RTVSPropertyOp46
 70
     1
102
RTVSPropertyOp47
 70
     1
102
RTVSPropertyOp48
 70
     1
102
RTVSPropertyOp49
 70
     1
102
RTVSPropertyOp50
 70
     1
102
RTVSPropertyOp51
 70
     0
102
RTVSPropertyOp52
 70
     0
102
RTVSPropertyOp53
 70
     1
102
RTVSPropertyOp54
 70
     1
102
RTVSPropertyOp55
 70
     1
102
RTVSPropertyOp56
 70
     1
102
RTVSPropertyOp57
 70
     1
102
RTVSPost2010Prop28
280
     0
102
RTVSPost2010PropOp28
 70
     1
102
RTVSPost2010Prop29
280
     1
102
RTVSPost2010PropOp29
 70
     1
102
RTVSPost2010Prop30
280
     1
102
RTVSPost2010PropOp30
 70
     1
102
RTVSPost2010Prop31
280
     0
102
RTVSPost2010PropOp31
 70
     1
102
RTVSPost2010Prop32
280
     0
102
RTVSPost2010PropOp32
 70
     1
102
RTVSPost2010Prop33
280
     0
102
RTVSPost2010PropOp33
 70
     1
102
RTVSPost2010Prop34
280
     0
102
RTVSPost2010PropOp34
 70
     1
102
RTVSPost2010Prop35
280
     0
102
RTVSPost2010PropOp35
 70
     1
102
RTVSPost2010Prop36
280
     0
102
RTVSPost2010PropOp36
 70
     1
102
RTVSPost2010Prop37
 90
       50
102
RTVSPost2010PropOp37
 70
     1
102
RTVSPost2010Prop38
140
0.0
102
RTVSPost2010PropOp38
 70
     1
102
RTVSPost2010Prop39
140
1.0
102
RTVSPost2010PropOp39
 70
     1
102
RTVSPost2010Prop40
 90
        0
102
RTVSPost2010PropOp40
 70
     1
102
RTVSPost2010Prop41ColorIndex
 90
       18
102
RTVSPost2010Prop41ColorRGB
 90
        0
102
RTVSPost2010PropOp41
 70
     1
102
RTVSPost2010Prop42
 90
       50
102
RTVSPost2010PropOp42
 70
     1
102
RTVSPost2010Prop43
 90
        3
102
RTVSPost2010PropOp43
 70
     1
102
RTVSPost2010Prop44ColorIndex
 90
        5
102
RTVSPost2010Prop44ColorRGB
 90
      255
102
RTVSPost2010PropOp44
 70
     1
102
RTVSPost2010Prop45
280
     0
102
RTVSPost2010PropOp45
 70
     1
102
RTVSPost2010Prop46
 90
       50
102
RTVSPost2010PropOp46
 70
     1
102
RTVSPost2010Prop47
 90
       50
102
RTVSPost2010PropOp47
 70
     1
102
RTVSPost2010Prop48
 90
       50
102
RTVSPost2010PropOp48
 70
     1
102
RTVSPost2010Prop49
280
     0
102
RTVSPost2010PropOp49
 70
     1
102
RTVSPost2010Prop50
 90
       50
102
RTVSPost2010PropOp50
 70
     1
102
RTVSPost2010Prop51ColorIndex
 90
      256
102
RTVSPost2010Prop51ColorRGB
 90
-16777216
102
RTVSPost2010PropOp51
 70
     0
102
RTVSPost2010Prop52
140
1.0
102
RTVSPost2010PropOp52
 70
     0
102
RTVSPost2010Prop53
 90
        2
102
RTVSPost2010PropOp53
 70
     1
102
RTVSPost2010Prop54
  1
strokes_ogs.tif
102
RTVSPost2010PropOp54
 70
     1
102
RTVSPost2010Prop55
280
     0
102
RTVSPost2010PropOp55
 70
     1
102
RTVSPost2010Prop56
140
1.0
102
RTVSPost2010PropOp56
 70
     1
102
RTVSPost2010Prop57
140
1.0
102
RTVSPost2010PropOp57
 70
     1
  0
XRECORD
  5
B1
102
{ACAD_REACTORS
330
B0
102
}
330
B0
100
AcDbXrecord
280
     1
102
RTVSPropertyOp0
 70
     1
102
RTVSPropertyOp1
 70
     1
102
RTVSPropertyOp2
 70
     1
102
RTVSPropertyOp3
 70
     1
102
RTVSPropertyOp4
 70
     1
102
RTVSPropertyOp5
 70
     1
102
RTVSPropertyOp6
 70
     1
102
RTVSPropertyOp7
 70
     1
102
RTVSPropertyOp8
 70
     1
102
RTVSPropertyOp9
 70
     1
102
RTVSPropertyOp10
 70
     1
102
RTVSPropertyOp11
 70
     1
102
RTVSPropertyOp12
 70
     1
102
RTVSPropertyOp13
 70
     1
102
RTVSPropertyOp14
 70
     1
102
RTVSPropertyOp15
 70
     1
102
RTVSPropertyOp16
 70
     1
102
RTVSPropertyOp17
 70
     1
102
RTVSPropertyOp18
 70
     1
102
RTVSPropertyOp19
 70
     1
102
RTVSPropertyOp20
 70
     1
102
RTVSPropertyOp21
 70
     1
102
RTVSPropertyOp22
 70
     1
102
RTVSPropertyOp23
 70
     1
102
RTVSPropertyOp24
 70
     1
102
RTVSPropertyOp25
 70
     1
102
RTVSPropertyOp26
 70
     1
102
RTVSPropertyOp27
 70
     1
102
RTVSPropertyOp28
 70
     1
102
RTVSPropertyOp29
 70
     1
102
RTVSPropertyOp30
 70
     1
102
RTVSPropertyOp31
 70
     1
102
RTVSPropertyOp32
 70
     1
102
RTVSPropertyOp33
 70
     1
102
RTVSPropertyOp34
 70
     1
102
RTVSPropertyOp35
 70
     1
102
RTVSPropertyOp36
 70
     1
102
RTVSPropertyOp37
 70
     1
102
RTVSPropertyOp38
 70
     1
102
RTVSPropertyOp39
 70
     1
102
RTVSPropertyOp40
 70
     1
102
RTVSPropertyOp41
 70
     1
102
RTVSPropertyOp42
 70
     1
102
RTVSPropertyOp43
 70
     1
102
RTVSPropertyOp44
 70
     1
102
RTVSPropertyOp45
 70
     1
102
RTVSPropertyOp46
 70
     1
102
RTVSPropertyOp47
 70
     1
102
RTVSPropertyOp48
 70
     1
102
RTVSPropertyOp49
 70
     1
102
RTVSPropertyOp50
 70
     1
102
RTVSPropertyOp51
 70
     0
102
RTVSPropertyOp52
 70
     0
102
RTVSPropertyOp53
 70
     1
102
RTVSPropertyOp54
 70
     1
102
RTVSPropertyOp55
 70
     1
102
RTVSPropertyOp56
 70
     1
102
RTVSPropertyOp57
 70
     1
102
RTVSPost2010Prop28
280
     0
102
RTVSPost2010PropOp28
 70
     1
102
RTVSPost2010Prop29
280
     1
102
RTVSPost2010PropOp29
 70
     1
102
RTVSPost2010Prop30
280
     1
102
RTVSPost2010PropOp30
 70
     1
102
RTVSPost2010Prop31
280
     0
102
RTVSPost2010PropOp31
 70
     1
102
RTVSPost2010Prop32
280
     0
102
RTVSPost2010PropOp32
 70
     1
102
RTVSPost2010Prop33
280
     0
102
RTVSPost2010PropOp33
 70
     1
102
RTVSPost2010Prop34
280
     0
102
RTVSPost2010PropOp34
 70
     1
102
RTVSPost2010Prop35
280
     0
102
RTVSPost2010PropOp35
 70
     1
102
RTVSPost2010Prop36
280
     0
102
RTVSPost2010PropOp36
 70
     1
102
RTVSPost2010Prop37
 90
       50
102
RTVSPost2010PropOp37
 70
     1
102
RTVSPost2010Prop38
140
0.0
102
RTVSPost2010PropOp38
 70
     1
102
RTVSPost2010Prop39
140
1.0
102
RTVSPost2010PropOp39
 70
     1
102
RTVSPost2010Prop40
 90
        0
102
RTVSPost2010PropOp40
 70
     1
102
RTVSPost2010Prop41ColorIndex
 90
       18
102
RTVSPost2010Prop41ColorRGB
 90
        0
102
RTVSPost2010PropOp41
 70
     1
102
RTVSPost2010Prop42
 90
       50
102
RTVSPost2010PropOp42
 70
     1
102
RTVSPost2010Prop43
 90
        3
102
RTVSPost2010PropOp43
 70
     1
102
RTVSPost2010Prop44ColorIndex
 90
        5
102
RTVSPost2010Prop44ColorRGB
 90
      255
102
RTVSPost2010PropOp44
 70
     1
102
RTVSPost2010Prop45
280
     0
102
RTVSPost2010PropOp45
 70
     1
102
RTVSPost2010Prop46
 90
       50
102
RTVSPost2010PropOp46
 70
     1
102
RTVSPost2010Prop47
 90
       50
102
RTVSPost2010PropOp47
 70
     1
102
RTVSPost2010Prop48
 90
       50
102
RTVSPost2010PropOp48
 70
     1
102
RTVSPost2010Prop49
280
     0
102
RTVSPost2010PropOp49
 70
     1
102
RTVSPost2010Prop50
 90
       50
102
RTVSPost2010PropOp50
 70
     1
102
RTVSPost2010Prop51ColorIndex
 90
      256
102
RTVSPost2010Prop51ColorRGB
 90
-16777216
102
RTVSPost2010PropOp51
 70
     0
102
RTVSPost2010Prop52
140
1.0
102
RTVSPost2010PropOp52
 70
     0
102
RTVSPost2010Prop53
 90
        2
102
RTVSPost2010PropOp53
 70
     1
102
RTVSPost2010Prop54
  1
strokes_ogs.tif
102
RTVSPost2010PropOp54
 70
     1
102
RTVSPost2010Prop55
280
     0
102
RTVSPost2010PropOp55
 70
     1
102
RTVSPost2010Prop56
140
1.0
102
RTVSPost2010PropOp56
 70
     1
102
RTVSPost2010Prop57
140
1.0
102
RTVSPost2010PropOp57
 70
     1
  0
XRECORD
  5
AB
102
{ACAD_REACTORS
330
AA
102
}
330
AA
100
AcDbXrecord
280
     1
102
RTVSPropertyOp0
 70
     1
102
RTVSPropertyOp1
 70
     1
102
RTVSPropertyOp2
 70
     1
102
RTVSPropertyOp3
 70
     1
102
RTVSPropertyOp4
 70
     1
102
RTVSPropertyOp5
 70
     1
102
RTVSPropertyOp6
 70
     1
102
RTVSPropertyOp7
 70
     1
102
RTVSPropertyOp8
 70
     1
102
RTVSPropertyOp9
 70
     1
102
RTVSPropertyOp10
 70
     1
102
RTVSPropertyOp11
 70
     1
102
RTVSPropertyOp12
 70
     1
102
RTVSPropertyOp13
 70
     1
102
RTVSPropertyOp14
 70
     1
102
RTVSPropertyOp15
 70
     1
102
RTVSPropertyOp16
 70
     1
102
RTVSPropertyOp17
 70
     1
102
RTVSPropertyOp18
 70
     1
102
RTVSPropertyOp19
 70
     1
102
RTVSPropertyOp20
 70
     1
102
RTVSPropertyOp21
 70
     1
102
RTVSPropertyOp22
 70
     1
102
RTVSPropertyOp23
 70
     1
102
RTVSPropertyOp24
 70
     1
102
RTVSPropertyOp25
 70
     1
102
RTVSPropertyOp26
 70
     1
102
RTVSPropertyOp27
 70
     1
102
RTVSPropertyOp28
 70
     1
102
RTVSPropertyOp29
 70
     1
102
RTVSPropertyOp30
 70
     1
102
RTVSPropertyOp31
 70
     1
102
RTVSPropertyOp32
 70
     1
102
RTVSPropertyOp33
 70
     1
102
RTVSPropertyOp34
 70
     1
102
RTVSPropertyOp35
 70
     1
102
RTVSPropertyOp36
 70
     1
102
RTVSPropertyOp37
 70
     1
102
RTVSPropertyOp38
 70
     1
102
RTVSPropertyOp39
 70
     1
102
RTVSPropertyOp40
 70
     1
102
RTVSPropertyOp41
 70
     1
102
RTVSPropertyOp42
 70
     1
102
RTVSPropertyOp43
 70
     1
102
RTVSPropertyOp44
 70
     1
102
RTVSPropertyOp45
 70
     1
102
RTVSPropertyOp46
 70
     1
102
RTVSPropertyOp47
 70
     1
102
RTVSPropertyOp48
 70
     1
102
RTVSPropertyOp49
 70
     1
102
RTVSPropertyOp50
 70
     1
102
RTVSPropertyOp51
 70
     0
102
RTVSPropertyOp52
 70
     0
102
RTVSPropertyOp53
 70
     1
102
RTVSPropertyOp54
 70
     1
102
RTVSPropertyOp55
 70
     1
102
RTVSPropertyOp56
 70
     1
102
RTVSPropertyOp57
 70
     1
102
RTVSPost2010Prop28
280
     0
102
RTVSPost2010PropOp28
 70
     1
102
RTVSPost2010Prop29
280
     1
102
RTVSPost2010PropOp29
 70
     1
102
RTVSPost2010Prop30
280
     1
102
RTVSPost2010PropOp30
 70
     1
102
RTVSPost2010Prop31
280
     0
102
RTVSPost2010PropOp31
 70
     1
102
RTVSPost2010Prop32
280
     0
102
RTVSPost2010PropOp32
 70
     1
102
RTVSPost2010Prop33
280
     0
102
RTVSPost2010PropOp33
 70
     1
102
RTVSPost2010Prop34
280
     0
102
RTVSPost2010PropOp34
 70
     1
102
RTVSPost2010Prop35
280
     0
102
RTVSPost2010PropOp35
 70
     1
102
RTVSPost2010Prop36
280
     0
102
RTVSPost2010PropOp36
 70
     1
102
RTVSPost2010Prop37
 90
       50
102
RTVSPost2010PropOp37
 70
     1
102
RTVSPost2010Prop38
140
0.0
102
RTVSPost2010PropOp38
 70
     1
102
RTVSPost2010Prop39
140
1.0
102
RTVSPost2010PropOp39
 70
     1
102
RTVSPost2010Prop40
 90
        0
102
RTVSPost2010PropOp40
 70
     1
102
RTVSPost2010Prop41ColorIndex
 90
       18
102
RTVSPost2010Prop41ColorRGB
 90
        0
102
RTVSPost2010PropOp41
 70
     1
102
RTVSPost2010Prop42
 90
       50
102
RTVSPost2010PropOp42
 70
     1
102
RTVSPost2010Prop43
 90
        3
102
RTVSPost2010PropOp43
 70
     1
102
RTVSPost2010Prop44ColorIndex
 90
        5
102
RTVSPost2010Prop44ColorRGB
 90
      255
102
RTVSPost2010PropOp44
 70
     1
102
RTVSPost2010Prop45
280
     0
102
RTVSPost2010PropOp45
 70
     1
102
RTVSPost2010Prop46
 90
       50
102
RTVSPost2010PropOp46
 70
     1
102
RTVSPost2010Prop47
 90
       50
102
RTVSPost2010PropOp47
 70
     1
102
RTVSPost2010Prop48
 90
       50
102
RTVSPost2010PropOp48
 70
     1
102
RTVSPost2010Prop49
280
     0
102
RTVSPost2010PropOp49
 70
     1
102
RTVSPost2010Prop50
 90
       50
102
RTVSPost2010PropOp50
 70
     1
102
RTVSPost2010Prop51ColorIndex
 90
      256
102
RTVSPost2010Prop51ColorRGB
 90
-16777216
102
RTVSPost2010PropOp51
 70
     0
102
RTVSPost2010Prop52
140
1.0
102
RTVSPost2010PropOp52
 70
     0
102
RTVSPost2010Prop53
 90
        2
102
RTVSPost2010PropOp53
 70
     1
102
RTVSPost2010Prop54
  1
strokes_ogs.tif
102
RTVSPost2010PropOp54
 70
     1
102
RTVSPost2010Prop55
280
     0
102
RTVSPost2010PropOp55
 70
     1
102
RTVSPost2010Prop56
140
1.0
102
RTVSPost2010PropOp56
 70
     1
102
RTVSPost2010Prop57
140
1.0
102
RTVSPost2010PropOp57
 70
     1
  0
XRECORD
  5
AD
102
{ACAD_REACTORS
330
AC
102
}
330
AC
100
AcDbXrecord
280
     1
102
RTVSPropertyOp0
 70
     1
102
RTVSPropertyOp1
 70
     1
102
RTVSPropertyOp2
 70
     1
102
RTVSPropertyOp3
 70
     1
102
RTVSPropertyOp4
 70
     1
102
RTVSPropertyOp5
 70
     1
102
RTVSPropertyOp6
 70
     1
102
RTVSPropertyOp7
 70
     1
102
RTVSPropertyOp8
 70
     1
102
RTVSPropertyOp9
 70
     1
102
RTVSPropertyOp10
 70
     1
102
RTVSPropertyOp11
 70
     1
102
RTVSPropertyOp12
 70
     1
102
RTVSPropertyOp13
 70
     1
102
RTVSPropertyOp14
 70
     1
102
RTVSPropertyOp15
 70
     1
102
RTVSPropertyOp16
 70
     1
102
RTVSPropertyOp17
 70
     1
102
RTVSPropertyOp18
 70
     1
102
RTVSPropertyOp19
 70
     1
102
RTVSPropertyOp20
 70
     1
102
RTVSPropertyOp21
 70
     1
102
RTVSPropertyOp22
 70
     1
102
RTVSPropertyOp23
 70
     1
102
RTVSPropertyOp24
 70
     1
102
RTVSPropertyOp25
 70
     1
102
RTVSPropertyOp26
 70
     1
102
RTVSPropertyOp27
 70
     1
102
RTVSPropertyOp28
 70
     1
102
RTVSPropertyOp29
 70
     1
102
RTVSPropertyOp30
 70
     1
102
RTVSPropertyOp31
 70
     1
102
RTVSPropertyOp32
 70
     1
102
RTVSPropertyOp33
 70
     1
102
RTVSPropertyOp34
 70
     1
102
RTVSPropertyOp35
 70
     1
102
RTVSPropertyOp36
 70
     1
102
RTVSPropertyOp37
 70
     1
102
RTVSPropertyOp38
 70
     1
102
RTVSPropertyOp39
 70
     1
102
RTVSPropertyOp40
 70
     1
102
RTVSPropertyOp41
 70
     1
102
RTVSPropertyOp42
 70
     1
102
RTVSPropertyOp43
 70
     1
102
RTVSPropertyOp44
 70
     1
102
RTVSPropertyOp45
 70
     1
102
RTVSPropertyOp46
 70
     1
102
RTVSPropertyOp47
 70
     1
102
RTVSPropertyOp48
 70
     1
102
RTVSPropertyOp49
 70
     1
102
RTVSPropertyOp50
 70
     1
102
RTVSPropertyOp51
 70
     0
102
RTVSPropertyOp52
 70
     0
102
RTVSPropertyOp53
 70
     1
102
RTVSPropertyOp54
 70
     1
102
RTVSPropertyOp55
 70
     1
102
RTVSPropertyOp56
 70
     1
102
RTVSPropertyOp57
 70
     1
102
RTVSPost2010Prop28
280
     0
102
RTVSPost2010PropOp28
 70
     1
102
RTVSPost2010Prop29
280
     1
102
RTVSPost2010PropOp29
 70
     1
102
RTVSPost2010Prop30
280
     1
102
RTVSPost2010PropOp30
 70
     1
102
RTVSPost2010Prop31
280
     0
102
RTVSPost2010PropOp31
 70
     1
102
RTVSPost2010Prop32
280
     0
102
RTVSPost2010PropOp32
 70
     1
102
RTVSPost2010Prop33
280
     0
102
RTVSPost2010PropOp33
 70
     1
102
RTVSPost2010Prop34
280
     0
102
RTVSPost2010PropOp34
 70
     1
102
RTVSPost2010Prop35
280
     0
102
RTVSPost2010PropOp35
 70
     1
102
RTVSPost2010Prop36
280
     0
102
RTVSPost2010PropOp36
 70
     1
102
RTVSPost2010Prop37
 90
       50
102
RTVSPost2010PropOp37
 70
     1
102
RTVSPost2010Prop38
140
0.0
102
RTVSPost2010PropOp38
 70
     1
102
RTVSPost2010Prop39
140
1.0
102
RTVSPost2010PropOp39
 70
     1
102
RTVSPost2010Prop40
 90
        0
102
RTVSPost2010PropOp40
 70
     1
102
RTVSPost2010Prop41ColorIndex
 90
       18
102
RTVSPost2010Prop41ColorRGB
 90
        0
102
RTVSPost2010PropOp41
 70
     1
102
RTVSPost2010Prop42
 90
       50
102
RTVSPost2010PropOp42
 70
     1
102
RTVSPost2010Prop43
 90
        3
102
RTVSPost2010PropOp43
 70
     1
102
RTVSPost2010Prop44ColorIndex
 90
        5
102
RTVSPost2010Prop44ColorRGB
 90
      255
102
RTVSPost2010PropOp44
 70
     1
102
RTVSPost2010Prop45
280
     0
102
RTVSPost2010PropOp45
 70
     1
102
RTVSPost2010Prop46
 90
       50
102
RTVSPost2010PropOp46
 70
     1
102
RTVSPost2010Prop47
 90
       50
102
RTVSPost2010PropOp47
 70
     1
102
RTVSPost2010Prop48
 90
       50
102
RTVSPost2010PropOp48
 70
     1
102
RTVSPost2010Prop49
280
     0
102
RTVSPost2010PropOp49
 70
     1
102
RTVSPost2010Prop50
 90
       50
102
RTVSPost2010PropOp50
 70
     1
102
RTVSPost2010Prop51ColorIndex
 90
      256
102
RTVSPost2010Prop51ColorRGB
 90
-16777216
102
RTVSPost2010PropOp51
 70
     0
102
RTVSPost2010Prop52
140
1.0
102
RTVSPost2010PropOp52
 70
     0
102
RTVSPost2010Prop53
 90
        2
102
RTVSPost2010PropOp53
 70
     1
102
RTVSPost2010Prop54
  1
strokes_ogs.tif
102
RTVSPost2010PropOp54
 70
     1
102
RTVSPost2010Prop55
280
     0
102
RTVSPost2010PropOp55
 70
     1
102
RTVSPost2010Prop56
140
1.0
102
RTVSPost2010PropOp56
 70
     1
102
RTVSPost2010Prop57
140
1.0
102
RTVSPost2010PropOp57
 70
     1
  0
XRECORD
  5
9D
102
{ACAD_REACTORS
330
9C
102
}
330
9C
100
AcDbXrecord
280
     1
102
RTVSPropertyOp0
 70
     1
102
RTVSPropertyOp1
 70
     1
102
RTVSPropertyOp2
 70
     1
102
RTVSPropertyOp3
 70
     1
102
RTVSPropertyOp4
 70
     1
102
RTVSPropertyOp5
 70
     1
102
RTVSPropertyOp6
 70
     1
102
RTVSPropertyOp7
 70
     1
102
RTVSPropertyOp8
 70
     1
102
RTVSPropertyOp9
 70
     1
102
RTVSPropertyOp10
 70
     1
102
RTVSPropertyOp11
 70
     1
102
RTVSPropertyOp12
 70
     1
102
RTVSPropertyOp13
 70
     1
102
RTVSPropertyOp14
 70
     1
102
RTVSPropertyOp15
 70
     1
102
RTVSPropertyOp16
 70
     1
102
RTVSPropertyOp17
 70
     1
102
RTVSPropertyOp18
 70
     1
102
RTVSPropertyOp19
 70
     1
102
RTVSPropertyOp20
 70
     1
102
RTVSPropertyOp21
 70
     1
102
RTVSPropertyOp22
 70
     1
102
RTVSPropertyOp23
 70
     1
102
RTVSPropertyOp24
 70
     1
102
RTVSPropertyOp25
 70
     1
102
RTVSPropertyOp26
 70
     1
102
RTVSPropertyOp27
 70
     1
102
RTVSPropertyOp28
 70
     1
102
RTVSPropertyOp29
 70
     1
102
RTVSPropertyOp30
 70
     1
102
RTVSPropertyOp31
 70
     1
102
RTVSPropertyOp32
 70
     1
102
RTVSPropertyOp33
 70
     1
102
RTVSPropertyOp34
 70
     1
102
RTVSPropertyOp35
 70
     1
102
RTVSPropertyOp36
 70
     1
102
RTVSPropertyOp37
 70
     1
102
RTVSPropertyOp38
 70
     1
102
RTVSPropertyOp39
 70
     1
102
RTVSPropertyOp40
 70
     1
102
RTVSPropertyOp41
 70
     1
102
RTVSPropertyOp42
 70
     1
102
RTVSPropertyOp43
 70
     1
102
RTVSPropertyOp44
 70
     1
102
RTVSPropertyOp45
 70
     1
102
RTVSPropertyOp46
 70
     1
102
RTVSPropertyOp47
 70
     1
102
RTVSPropertyOp48
 70
     1
102
RTVSPropertyOp49
 70
     1
102
RTVSPropertyOp50
 70
     1
102
RTVSPropertyOp51
 70
     0
102
RTVSPropertyOp52
 70
     0
102
RTVSPropertyOp53
 70
     1
102
RTVSPropertyOp54
 70
     1
102
RTVSPropertyOp55
 70
     1
102
RTVSPropertyOp56
 70
     1
102
RTVSPropertyOp57
 70
     1
102
RTVSPost2010Prop28
280
     0
102
RTVSPost2010PropOp28
 70
     1
102
RTVSPost2010Prop29
280
     1
102
RTVSPost2010PropOp29
 70
     1
102
RTVSPost2010Prop30
280
     1
102
RTVSPost2010PropOp30
 70
     1
102
RTVSPost2010Prop31
280
     0
102
RTVSPost2010PropOp31
 70
     1
102
RTVSPost2010Prop32
280
     0
102
RTVSPost2010PropOp32
 70
     1
102
RTVSPost2010Prop33
280
     0
102
RTVSPost2010PropOp33
 70
     1
102
RTVSPost2010Prop34
280
     0
102
RTVSPost2010PropOp34
 70
     1
102
RTVSPost2010Prop35
280
     0
102
RTVSPost2010PropOp35
 70
     1
102
RTVSPost2010Prop36
280
     0
102
RTVSPost2010PropOp36
 70
     1
102
RTVSPost2010Prop37
 90
       50
102
RTVSPost2010PropOp37
 70
     1
102
RTVSPost2010Prop38
140
0.0
102
RTVSPost2010PropOp38
 70
     1
102
RTVSPost2010Prop39
140
1.0
102
RTVSPost2010PropOp39
 70
     1
102
RTVSPost2010Prop40
 90
        0
102
RTVSPost2010PropOp40
 70
     1
102
RTVSPost2010Prop41ColorIndex
 90
       18
102
RTVSPost2010Prop41ColorRGB
 90
        0
102
RTVSPost2010PropOp41
 70
     1
102
RTVSPost2010Prop42
 90
       50
102
RTVSPost2010PropOp42
 70
     1
102
RTVSPost2010Prop43
 90
        3
102
RTVSPost2010PropOp43
 70
     1
102
RTVSPost2010Prop44ColorIndex
 90
        5
102
RTVSPost2010Prop44ColorRGB
 90
      255
102
RTVSPost2010PropOp44
 70
     1
102
RTVSPost2010Prop45
280
     0
102
RTVSPost2010PropOp45
 70
     1
102
RTVSPost2010Prop46
 90
       50
102
RTVSPost2010PropOp46
 70
     1
102
RTVSPost2010Prop47
 90
       50
102
RTVSPost2010PropOp47
 70
     1
102
RTVSPost2010Prop48
 90
       50
102
RTVSPost2010PropOp48
 70
     1
102
RTVSPost2010Prop49
280
     0
102
RTVSPost2010PropOp49
 70
     1
102
RTVSPost2010Prop50
 90
       50
102
RTVSPost2010PropOp50
 70
     1
102
RTVSPost2010Prop51ColorIndex
 90
      256
102
RTVSPost2010Prop51ColorRGB
 90
-16777216
102
RTVSPost2010PropOp51
 70
     0
102
RTVSPost2010Prop52
140
1.0
102
RTVSPost2010PropOp52
 70
     0
102
RTVSPost2010Prop53
 90
        2
102
RTVSPost2010PropOp53
 70
     1
102
RTVSPost2010Prop54
  1
strokes_ogs.tif
102
RTVSPost2010PropOp54
 70
     1
102
RTVSPost2010Prop55
280
     0
102
RTVSPost2010PropOp55
 70
     1
102
RTVSPost2010Prop56
140
1.0
102
RTVSPost2010PropOp56
 70
     1
102
RTVSPost2010Prop57
140
1.0
102
RTVSPost2010PropOp57
 70
     1
  0
XRECORD
  5
8F
102
{ACAD_REACTORS
330
8E
102
}
330
8E
100
AcDbXrecord
280
     1
102
RTVSPropertyOp0
 70
     1
102
RTVSPropertyOp1
 70
     1
102
RTVSPropertyOp2
 70
     1
102
RTVSPropertyOp3
 70
     1
102
RTVSPropertyOp4
 70
     1
102
RTVSPropertyOp5
 70
     1
102
RTVSPropertyOp6
 70
     1
102
RTVSPropertyOp7
 70
     1
102
RTVSPropertyOp8
 70
     1
102
RTVSPropertyOp9
 70
     1
102
RTVSPropertyOp10
 70
     1
102
RTVSPropertyOp11
 70
     1
102
RTVSPropertyOp12
 70
     1
102
RTVSPropertyOp13
 70
     1
102
RTVSPropertyOp14
 70
     1
102
RTVSPropertyOp15
 70
     1
102
RTVSPropertyOp16
 70
     1
102
RTVSPropertyOp17
 70
     1
102
RTVSPropertyOp18
 70
     1
102
RTVSPropertyOp19
 70
     1
102
RTVSPropertyOp20
 70
     1
102
RTVSPropertyOp21
 70
     1
102
RTVSPropertyOp22
 70
     1
102
RTVSPropertyOp23
 70
     1
102
RTVSPropertyOp24
 70
     1
102
RTVSPropertyOp25
 70
     1
102
RTVSPropertyOp26
 70
     1
102
RTVSPropertyOp27
 70
     1
102
RTVSPropertyOp28
 70
     1
102
RTVSPropertyOp29
 70
     1
102
RTVSPropertyOp30
 70
     1
102
RTVSPropertyOp31
 70
     1
102
RTVSPropertyOp32
 70
     1
102
RTVSPropertyOp33
 70
     1
102
RTVSPropertyOp34
 70
     1
102
RTVSPropertyOp35
 70
     1
102
RTVSPropertyOp36
 70
     1
102
RTVSPropertyOp37
 70
     1
102
RTVSPropertyOp38
 70
     1
102
RTVSPropertyOp39
 70
     1
102
RTVSPropertyOp40
 70
     1
102
RTVSPropertyOp41
 70
     1
102
RTVSPropertyOp42
 70
     1
102
RTVSPropertyOp43
 70
     1
102
RTVSPropertyOp44
 70
     1
102
RTVSPropertyOp45
 70
     1
102
RTVSPropertyOp46
 70
     1
102
RTVSPropertyOp47
 70
     1
102
RTVSPropertyOp48
 70
     1
102
RTVSPropertyOp49
 70
     1
102
RTVSPropertyOp50
 70
     1
102
RTVSPropertyOp51
 70
     0
102
RTVSPropertyOp52
 70
     0
102
RTVSPropertyOp53
 70
     1
102
RTVSPropertyOp54
 70
     1
102
RTVSPropertyOp55
 70
     1
102
RTVSPropertyOp56
 70
     1
102
RTVSPropertyOp57
 70
     1
102
RTVSPost2010Prop28
280
     0
102
RTVSPost2010PropOp28
 70
     1
102
RTVSPost2010Prop29
280
     1
102
RTVSPost2010PropOp29
 70
     1
102
RTVSPost2010Prop30
280
     1
102
RTVSPost2010PropOp30
 70
     1
102
RTVSPost2010Prop31
280
     0
102
RTVSPost2010PropOp31
 70
     1
102
RTVSPost2010Prop32
280
     0
102
RTVSPost2010PropOp32
 70
     1
102
RTVSPost2010Prop33
280
     0
102
RTVSPost2010PropOp33
 70
     1
102
RTVSPost2010Prop34
280
     0
102
RTVSPost2010PropOp34
 70
     1
102
RTVSPost2010Prop35
280
     0
102
RTVSPost2010PropOp35
 70
     1
102
RTVSPost2010Prop36
280
     0
102
RTVSPost2010PropOp36
 70
     1
102
RTVSPost2010Prop37
 90
       50
102
RTVSPost2010PropOp37
 70
     1
102
RTVSPost2010Prop38
140
0.0
102
RTVSPost2010PropOp38
 70
     1
102
RTVSPost2010Prop39
140
1.0
102
RTVSPost2010PropOp39
 70
     1
102
RTVSPost2010Prop40
 90
        0
102
RTVSPost2010PropOp40
 70
     1
102
RTVSPost2010Prop41ColorIndex
 90
       18
102
RTVSPost2010Prop41ColorRGB
 90
        0
102
RTVSPost2010PropOp41
 70
     1
102
RTVSPost2010Prop42
 90
       50
102
RTVSPost2010PropOp42
 70
     1
102
RTVSPost2010Prop43
 90
        3
102
RTVSPost2010PropOp43
 70
     1
102
RTVSPost2010Prop44ColorIndex
 90
        5
102
RTVSPost2010Prop44ColorRGB
 90
      255
102
RTVSPost2010PropOp44
 70
     1
102
RTVSPost2010Prop45
280
     0
102
RTVSPost2010PropOp45
 70
     1
102
RTVSPost2010Prop46
 90
       50
102
RTVSPost2010PropOp46
 70
     1
102
RTVSPost2010Prop47
 90
       50
102
RTVSPost2010PropOp47
 70
     1
102
RTVSPost2010Prop48
 90
       50
102
RTVSPost2010PropOp48
 70
     1
102
RTVSPost2010Prop49
280
     0
102
RTVSPost2010PropOp49
 70
     1
102
RTVSPost2010Prop50
 90
       50
102
RTVSPost2010PropOp50
 70
     1
102
RTVSPost2010Prop51ColorIndex
 90
      256
102
RTVSPost2010Prop51ColorRGB
 90
-16777216
102
RTVSPost2010PropOp51
 70
     0
102
RTVSPost2010Prop52
140
1.0
102
RTVSPost2010PropOp52
 70
     0
102
RTVSPost2010Prop53
 90
        2
102
RTVSPost2010PropOp53
 70
     1
102
RTVSPost2010Prop54
  1
strokes_ogs.tif
102
RTVSPost2010PropOp54
 70
     1
102
RTVSPost2010Prop55
280
     0
102
RTVSPost2010PropOp55
 70
     1
102
RTVSPost2010Prop56
140
1.0
102
RTVSPost2010PropOp56
 70
     1
102
RTVSPost2010Prop57
140
1.0
102
RTVSPost2010PropOp57
 70
     1
  0
XRECORD
  5
AF
102
{ACAD_REACTORS
330
AE
102
}
330
AE
100
AcDbXrecord
280
     1
102
RTVSPropertyOp0
 70
     1
102
RTVSPropertyOp1
 70
     1
102
RTVSPropertyOp2
 70
     1
102
RTVSPropertyOp3
 70
     1
102
RTVSPropertyOp4
 70
     1
102
RTVSPropertyOp5
 70
     1
102
RTVSPropertyOp6
 70
     1
102
RTVSPropertyOp7
 70
     1
102
RTVSPropertyOp8
 70
     1
102
RTVSPropertyOp9
 70
     1
102
RTVSPropertyOp10
 70
     1
102
RTVSPropertyOp11
 70
     1
102
RTVSPropertyOp12
 70
     1
102
RTVSPropertyOp13
 70
     1
102
RTVSPropertyOp14
 70
     1
102
RTVSPropertyOp15
 70
     1
102
RTVSPropertyOp16
 70
     1
102
RTVSPropertyOp17
 70
     1
102
RTVSPropertyOp18
 70
     1
102
RTVSPropertyOp19
 70
     1
102
RTVSPropertyOp20
 70
     1
102
RTVSPropertyOp21
 70
     1
102
RTVSPropertyOp22
 70
     1
102
RTVSPropertyOp23
 70
     1
102
RTVSPropertyOp24
 70
     1
102
RTVSPropertyOp25
 70
     1
102
RTVSPropertyOp26
 70
     1
102
RTVSPropertyOp27
 70
     1
102
RTVSPropertyOp28
 70
     1
102
RTVSPropertyOp29
 70
     1
102
RTVSPropertyOp30
 70
     1
102
RTVSPropertyOp31
 70
     1
102
RTVSPropertyOp32
 70
     1
102
RTVSPropertyOp33
 70
     1
102
RTVSPropertyOp34
 70
     1
102
RTVSPropertyOp35
 70
     1
102
RTVSPropertyOp36
 70
     1
102
RTVSPropertyOp37
 70
     1
102
RTVSPropertyOp38
 70
     1
102
RTVSPropertyOp39
 70
     1
102
RTVSPropertyOp40
 70
     1
102
RTVSPropertyOp41
 70
     1
102
RTVSPropertyOp42
 70
     1
102
RTVSPropertyOp43
 70
     1
102
RTVSPropertyOp44
 70
     1
102
RTVSPropertyOp45
 70
     1
102
RTVSPropertyOp46
 70
     1
102
RTVSPropertyOp47
 70
     1
102
RTVSPropertyOp48
 70
     1
102
RTVSPropertyOp49
 70
     1
102
RTVSPropertyOp50
 70
     1
102
RTVSPropertyOp51
 70
     0
102
RTVSPropertyOp52
 70
     0
102
RTVSPropertyOp53
 70
     1
102
RTVSPropertyOp54
 70
     1
102
RTVSPropertyOp55
 70
     1
102
RTVSPropertyOp56
 70
     1
102
RTVSPropertyOp57
 70
     1
102
RTVSPost2010Prop28
280
     0
102
RTVSPost2010PropOp28
 70
     1
102
RTVSPost2010Prop29
280
     1
102
RTVSPost2010PropOp29
 70
     1
102
RTVSPost2010Prop30
280
     1
102
RTVSPost2010PropOp30
 70
     1
102
RTVSPost2010Prop31
280
     0
102
RTVSPost2010PropOp31
 70
     1
102
RTVSPost2010Prop32
280
     0
102
RTVSPost2010PropOp32
 70
     1
102
RTVSPost2010Prop33
280
     0
102
RTVSPost2010PropOp33
 70
     1
102
RTVSPost2010Prop34
280
     0
102
RTVSPost2010PropOp34
 70
     1
102
RTVSPost2010Prop35
280
     0
102
RTVSPost2010PropOp35
 70
     1
102
RTVSPost2010Prop36
280
     0
102
RTVSPost2010PropOp36
 70
     1
102
RTVSPost2010Prop37
 90
       50
102
RTVSPost2010PropOp37
 70
     1
102
RTVSPost2010Prop38
140
0.0
102
RTVSPost2010PropOp38
 70
     1
102
RTVSPost2010Prop39
140
1.0
102
RTVSPost2010PropOp39
 70
     1
102
RTVSPost2010Prop40
 90
        0
102
RTVSPost2010PropOp40
 70
     1
102
RTVSPost2010Prop41ColorIndex
 90
       18
102
RTVSPost2010Prop41ColorRGB
 90
        0
102
RTVSPost2010PropOp41
 70
     1
102
RTVSPost2010Prop42
 90
       50
102
RTVSPost2010PropOp42
 70
     1
102
RTVSPost2010Prop43
 90
        3
102
RTVSPost2010PropOp43
 70
     1
102
RTVSPost2010Prop44ColorIndex
 90
        5
102
RTVSPost2010Prop44ColorRGB
 90
      255
102
RTVSPost2010PropOp44
 70
     1
102
RTVSPost2010Prop45
280
     0
102
RTVSPost2010PropOp45
 70
     1
102
RTVSPost2010Prop46
 90
       50
102
RTVSPost2010PropOp46
 70
     1
102
RTVSPost2010Prop47
 90
       50
102
RTVSPost2010PropOp47
 70
     1
102
RTVSPost2010Prop48
 90
       50
102
RTVSPost2010PropOp48
 70
     1
102
RTVSPost2010Prop49
280
     0
102
RTVSPost2010PropOp49
 70
     1
102
RTVSPost2010Prop50
 90
       50
102
RTVSPost2010PropOp50
 70
     1
102
RTVSPost2010Prop51ColorIndex
 90
      256
102
RTVSPost2010Prop51ColorRGB
 90
-16777216
102
RTVSPost2010PropOp51
 70
     0
102
RTVSPost2010Prop52
140
1.0
102
RTVSPost2010PropOp52
 70
     0
102
RTVSPost2010Prop53
 90
        2
102
RTVSPost2010PropOp53
 70
     1
102
RTVSPost2010Prop54
  1
strokes_ogs.tif
102
RTVSPost2010PropOp54
 70
     1
102
RTVSPost2010Prop55
280
     0
102
RTVSPost2010PropOp55
 70
     1
102
RTVSPost2010Prop56
140
1.0
102
RTVSPost2010PropOp56
 70
     1
102
RTVSPost2010Prop57
140
1.0
102
RTVSPost2010PropOp57
 70
     1
  0
ENDSEC
  0
EOF
