  0
SECTION
  2
HEADER
  9
$ACADVER
  1
AC1018
  9
$ACADMAINTVER
 70
     0
  9
$DWGCODEPAGE
  3
ANSI_1251
  9
$INSBASE
 10
0.0
 20
0.0
 30
0.0
  9
$EXTMIN
 10
-1385.3038
 20
102.4584
 30
0.0
  9
$EXTMAX
 10
-1092.2891
 20
603.5981
 30
0.0
  9
$LIMMIN
 10
0.0
 20
0.0
  9
$LIMMAX
 10
12.0
 20
9.0
  9
$ORTHOMODE
 70
     0
  9
$REGENMODE
 70
     1
  9
$FILLMODE
 70
     1
  9
$QTEXTMODE
 70
     0
  9
$MIRRTEXT
 70
     1
  9
$LTSCALE
 40
1.0
  9
$ATTMODE
 70
     1
  9
$TEXTSIZE
 40
0.2
  9
$TRACEWID
 40
0.05
  9
$TEXTSTYLE
  7
Standard
  9
$CLAYER
  8
0
  9
$CELTYPE
  6
ByLayer
  9
$CECOLOR
 62
   256
  9
$CELTSCALE
 40
1.0
  9
$DISPSILH
 70
     0
  9
$DIMSCALE
 40
1.0
  9
$DIMASZ
 40
0.18
  9
$DIMEXO
 40
0.0625
  9
$DIMDLI
 40
0.38
  9
$DIMRND
 40
0.0
  9
$DIMDLE
 40
0.0
  9
$DIMEXE
 40
0.18
  9
$DIMTP
 40
0.0
  9
$DIMTM
 40
0.0
  9
$DIMTXT
 40
0.18
  9
$DIMCEN
 40
0.09
  9
$DIMTSZ
 40
0.0
  9
$DIMTOL
 70
     0
  9
$DIMLIM
 70
     0
  9
$DIMTIH
 70
     1
  9
$DIMTOH
 70
     1
  9
$DIMSE1
 70
     0
  9
$DIMSE2
 70
     0
  9
$DIMTAD
 70
     0
  9
$DIMZIN
 70
     0
  9
$DIMBLK
  1

  9
$DIMASO
 70
     1
  9
$DIMSHO
 70
     1
  9
$DIMPOST
  1

  9
$DIMAPOST
  1

  9
$DIMALT
 70
     0
  9
$DIMALTD
 70
     2
  9
$DIMALTF
 40
25.4
  9
$DIMLFAC
 40
1.0
  9
$DIMTOFL
 70
     0
  9
$DIMTVP
 40
0.0
  9
$DIMTIX
 70
     0
  9
$DIMSOXD
 70
     0
  9
$DIMSAH
 70
     0
  9
$DIMBLK1
  1

  9
$DIMBLK2
  1

  9
$DIMSTYLE
  2
Standard
  9
$DIMCLRD
 70
     0
  9
$DIMCLRE
 70
     0
  9
$DIMCLRT
 70
     0
  9
$DIMTFAC
 40
1.0
  9
$DIMGAP
 40
0.09
  9
$DIMJUST
 70
     0
  9
$DIMSD1
 70
     0
  9
$DIMSD2
 70
     0
  9
$DIMTOLJ
 70
     1
  9
$DIMTZIN
 70
     0
  9
$DIMALTZ
 70
     0
  9
$DIMALTTZ
 70
     0
  9
$DIMUPT
 70
     0
  9
$DIMDEC
 70
     4
  9
$DIMTDEC
 70
     4
  9
$DIMALTU
 70
     2
  9
$DIMALTTD
 70
     2
  9
$DIMTXSTY
  7
Standard
  9
$DIMAUNIT
 70
     0
  9
$DIMADEC
 70
     0
  9
$DIMALTRND
 40
0.0
  9
$DIMAZIN
 70
     0
  9
$DIMDSEP
 70
    46
  9
$DIMATFIT
 70
     3
  9
$DIMFRAC
 70
     0
  9
$DIMLDRBLK
  1

  9
$DIMLUNIT
 70
     2
  9
$DIMLWD
 70
    -2
  9
$DIMLWE
 70
    -2
  9
$DIMTMOVE
 70
     0
  9
$LUNITS
 70
     2
  9
$LUPREC
 70
     4
  9
$SKETCHINC
 40
0.1
  9
$FILLETRAD
 40
0.5
  9
$AUNITS
 70
     0
  9
$AUPREC
 70
     0
  9
$MENU
  1
.
  9
$ELEVATION
 40
0.0
  9
$PELEVATION
 40
0.0
  9
$THICKNESS
 40
0.0
  9
$LIMCHECK
 70
     0
  9
$CHAMFERA
 40
0.5
  9
$CHAMFERB
 40
0.5
  9
$CHAMFERC
 40
1.0
  9
$CHAMFERD
 40
0.0
  9
$SKPOLY
 70
     0
  9
$TDCREATE
 40
2456888.863559745
  9
$TDUCREATE
 40
2456888.405226412
  9
$TDUPDATE
 40
2456888.863559745
  9
$TDUUPDATE
 40
2456888.405226412
  9
$TDINDWG
 40
0.0000000116
  9
$TDUSRTIMER
 40
0.0000000116
  9
$USRTIMER
 70
     1
  9
$ANGBASE
 50
0.0
  9
$ANGDIR
 70
     0
  9
$PDMODE
 70
     0
  9
$PDSIZE
 40
0.0
  9
$PLINEWID
 40
0.0
  9
$SPLFRAME
 70
     0
  9
$SPLINETYPE
 70
     6
  9
$SPLINESEGS
 70
     8
  9
$HANDSEED
  5
81
  9
$SURFTAB1
 70
     6
  9
$SURFTAB2
 70
     6
  9
$SURFTYPE
 70
     6
  9
$SURFU
 70
     6
  9
$SURFV
 70
     6
  9
$UCSBASE
  2

  9
$UCSNAME
  2

  9
$UCSORG
 10
0.0
 20
0.0
 30
0.0
  9
$UCSXDIR
 10
1.0
 20
0.0
 30
0.0
  9
$UCSYDIR
 10
0.0
 20
1.0
 30
0.0
  9
$UCSORTHOREF
  2

  9
$UCSORTHOVIEW
 70
     0
  9
$UCSORGTOP
 10
0.0
 20
0.0
 30
0.0
  9
$UCSORGBOTTOM
 10
0.0
 20
0.0
 30
0.0
  9
$UCSORGLEFT
 10
0.0
 20
0.0
 30
0.0
  9
$UCSORGRIGHT
 10
0.0
 20
0.0
 30
0.0
  9
$UCSORGFRONT
 10
0.0
 20
0.0
 30
0.0
  9
$UCSORGBACK
 10
0.0
 20
0.0
 30
0.0
  9
$PUCSBASE
  2

  9
$PUCSNAME
  2

  9
$PUCSORG
 10
0.0
 20
0.0
 30
0.0
  9
$PUCSXDIR
 10
1.0
 20
0.0
 30
0.0
  9
$PUCSYDIR
 10
0.0
 20
1.0
 30
0.0
  9
$PUCSORTHOREF
  2

  9
$PUCSORTHOVIEW
 70
     0
  9
$PUCSORGTOP
 10
0.0
 20
0.0
 30
0.0
  9
$PUCSORGBOTTOM
 10
0.0
 20
0.0
 30
0.0
  9
$PUCSORGLEFT
 10
0.0
 20
0.0
 30
0.0
  9
$PUCSORGRIGHT
 10
0.0
 20
0.0
 30
0.0
  9
$PUCSORGFRONT
 10
0.0
 20
0.0
 30
0.0
  9
$PUCSORGBACK
 10
0.0
 20
0.0
 30
0.0
  9
$USERI1
 70
     0
  9
$USERI2
 70
     0
  9
$USERI3
 70
     0
  9
$USERI4
 70
     0
  9
$USERI5
 70
     0
  9
$USERR1
 40
0.0
  9
$USERR2
 40
0.0
  9
$USERR3
 40
0.0
  9
$USERR4
 40
0.0
  9
$USERR5
 40
0.0
  9
$WORLDVIEW
 70
     1
  9
$SHADEDGE
 70
     3
  9
$SHADEDIF
 70
    70
  9
$TILEMODE
 70
     1
  9
$MAXACTVP
 70
    64
  9
$PINSBASE
 10
0.0
 20
0.0
 30
0.0
  9
$PLIMCHECK
 70
     0
  9
$PEXTMIN
 10
1.000000000000000E+20
 20
1.000000000000000E+20
 30
1.000000000000000E+20
  9
$PEXTMAX
 10
-1.000000000000000E+20
 20
-1.000000000000000E+20
 30
-1.000000000000000E+20
  9
$PLIMMIN
 10
0.0
 20
0.0
  9
$PLIMMAX
 10
12.0
 20
9.0
  9
$UNITMODE
 70
     0
  9
$VISRETAIN
 70
     1
  9
$PLINEGEN
 70
     0
  9
$PSLTSCALE
 70
     1
  9
$TREEDEPTH
 70
  3020
  9
$CMLSTYLE
  2
Standard
  9
$CMLJUST
 70
     0
  9
$CMLSCALE
 40
1.0
  9
$PROXYGRAPHICS
 70
     1
  9
$MEASUREMENT
 70
     0
  9
$CELWEIGHT
370
    -1
  9
$ENDCAPS
280
     0
  9
$JOINSTYLE
280
     0
  9
$LWDISPLAY
290
     0
  9
$INSUNITS
 70
     4
  9
$HYPERLINKBASE
  1

  9
$STYLESHEET
  1

  9
$XEDIT
290
     1
  9
$CEPSNTYPE
380
     0
  9
$PSTYLEMODE
290
     1
  9
$FINGERPRINTGUID
  2
{98331E97-C812-4CF3-A89E-6C3929D1F607}
  9
$VERSIONGUID
  2
{FAEB1C32-E019-11D5-929B-00C0DF256EC4}
  9
$EXTNAMES
290
     1
  9
$PSVPSCALE
 40
0.0
  9
$OLESTARTUP
290
     0
  9
$SORTENTS
280
   127
  9
$INDEXCTL
280
     0
  9
$HIDETEXT
280
     1
  9
$XCLIPFRAME
290
     0
  9
$HALOGAP
280
     0
  9
$OBSCOLOR
 70
   257
  9
$OBSLTYPE
280
     0
  9
$INTERSECTIONDISPLAY
280
     0
  9
$INTERSECTIONCOLOR
 70
   257
  9
$DIMASSOC
280
     2
  9
$PROJECTNAME
  1

  0
ENDSEC
  0
SECTION
  2
CLASSES
  0
CLASS
  1
ACDBDICTIONARYWDFLT
  2
AcDbDictionaryWithDefault
  3
ObjectDBX Classes
 90
        0
 91
        4
280
     0
281
     0
  0
CLASS
  1
VISUALSTYLE
  2
AcDbVisualStyle
  3
ObjectDBX Classes
 90
     4095
 91
        4
280
     0
281
     0
  0
CLASS
  1
MATERIAL
  2
AcDbMaterial
  3
ObjectDBX Classes
 90
     1153
 91
        4
280
     0
281
     0
  0
ENDSEC
  0
SECTION
  2
TABLES
  0
TABLE
  2
VPORT
  5
8
330
0
100
AcDbSymbolTable
 70
     1
  0
VPORT
  5
29
330
8
100
AcDbSymbolTableRecord
100
AcDbViewportTableRecord
  2
*Active
 70
     0
 10
0.0
 20
0.0
 11
1.0
 21
1.0
 12
10.42990654205607
 22
4.5
 13
0.0
 23
0.0
 14
0.5
 24
0.5
 15
0.5
 25
0.5
 16
0.0
 26
0.0
 36
1.0
 17
0.0
 27
0.0
 37
0.0
 40
9.0
 41
1.972972972850329
 42
50.0
 43
0.0
 44
0.0
 50
0.0
 51
0.0
 71
     0
 72
   100
 73
     1
 74
     3
 75
     0
 76
     0
 77
     0
 78
     0
281
     0
 65
     1
110
0.0
120
0.0
130
0.0
111
1.0
121
0.0
131
0.0
112
0.0
122
1.0
132
0.0
 79
     0
146
0.0
  0
ENDTAB
  0
TABLE
  2
LTYPE
  5
5
330
0
100
AcDbSymbolTable
 70
     1
  0
LTYPE
  5
14
330
5
100
AcDbSymbolTableRecord
100
AcDbLinetypeTableRecord
  2
ByBlock
 70
     0
  3

 72
    65
 73
     0
 40
0.0
  0
LTYPE
  5
15
330
5
100
AcDbSymbolTableRecord
100
AcDbLinetypeTableRecord
  2
ByLayer
 70
     0
  3

 72
    65
 73
     0
 40
0.0
  0
LTYPE
  5
16
330
5
100
AcDbSymbolTableRecord
100
AcDbLinetypeTableRecord
  2
Continuous
 70
     0
  3
Solid line
 72
    65
 73
     0
 40
0.0
  0
ENDTAB
  0
TABLE
  2
LAYER
  5
2
330
0
100
AcDbSymbolTable
 70
     2
  0
LAYER
  5
10
330
2
100
AcDbSymbolTableRecord
100
AcDbLayerTableRecord
  2
0
 70
     0
 62
     7
  6
Continuous
370
    -3
390
F
  0
LAYER
  5
40
330
2
100
AcDbSymbolTableRecord
100
AcDbLayerTableRecord
  2
layer 1
 70
     0
 62
     7
  6
Continuous
370
    -3
390
F
  0
ENDTAB
  0
TABLE
  2
STYLE
  5
3
330
0
100
AcDbSymbolTable
 70
     1
  0
STYLE
  5
11
330
3
100
AcDbSymbolTableRecord
100
AcDbTextStyleTableRecord
  2
Standard
 70
     0
 40
0.0
 41
1.0
 50
0.0
 71
     0
 42
0.2
  3
txt
  4

  0
ENDTAB
  0
TABLE
  2
VIEW
  5
6
330
0
100
AcDbSymbolTable
 70
     0
  0
ENDTAB
  0
TABLE
  2
UCS
  5
7
330
0
100
AcDbSymbolTable
 70
     0
  0
ENDTAB
  0
TABLE
  2
APPID
  5
9
330
0
100
AcDbSymbolTable
 70
     2
  0
APPID
  5
12
330
9
100
AcDbSymbolTableRecord
100
AcDbRegAppTableRecord
  2
ACAD
 70
     0
  0
APPID
  5
3F
330
9
100
AcDbSymbolTableRecord
100
AcDbRegAppTableRecord
  2
ODA
 70
     0
  0
ENDTAB
  0
TABLE
  2
DIMSTYLE
  5
A
330
0
100
AcDbSymbolTable
 70
     1
100
AcDbDimStyleTable
  0
DIMSTYLE
105
27
330
A
100
AcDbSymbolTableRecord
100
AcDbDimStyleTableRecord
  2
Standard
 70
     0
178
     0
340
11
  0
ENDTAB
  0
TABLE
  2
BLOCK_RECORD
  5
1
330
0
100
AcDbSymbolTable
 70
     1
  0
BLOCK_RECORD
  5
1F
330
1
100
AcDbSymbolTableRecord
100
AcDbBlockTableRecord
  2
*Model_Space
340
22
  0
BLOCK_RECORD
  5
1B
330
1
100
AcDbSymbolTableRecord
100
AcDbBlockTableRecord
  2
*Paper_Space
340
1E
  0
BLOCK_RECORD
  5
23
330
1
100
AcDbSymbolTableRecord
100
AcDbBlockTableRecord
  2
*Paper_Space0
340
26
  0
ENDTAB
  0
ENDSEC
  0
SECTION
  2
BLOCKS
  0
BLOCK
  5
20
330
1F
100
AcDbEntity
  8
0
100
AcDbBlockBegin
  2
*Model_Space
 70
     0
 10
0.0
 20
0.0
 30
0.0
  3
*Model_Space
  1

  0
ENDBLK
  5
21
330
1F
100
AcDbEntity
  8
0
100
AcDbBlockEnd
  0
BLOCK
  5
1C
330
1B
100
AcDbEntity
 67
     1
  8
0
100
AcDbBlockBegin
  2
*Paper_Space
 70
     0
 10
0.0
 20
0.0
 30
0.0
  3
*Paper_Space
  1

  0
ENDBLK
  5
1D
330
1B
100
AcDbEntity
 67
     1
  8
0
100
AcDbBlockEnd
  0
BLOCK
  5
24
330
23
100
AcDbEntity
  8
0
100
AcDbBlockBegin
  2
*Paper_Space0
 70
     0
 10
0.0
 20
0.0
 30
0.0
  3
*Paper_Space0
  1

  0
ENDBLK
  5
25
330
23
100
AcDbEntity
  8
0
100
AcDbBlockEnd
  0
ENDSEC
  0
SECTION
  2
ENTITIES
  0
SPLINE
  5
41
330
1F
100
AcDbEntity
  8
layer 1
370
     9
100
AcDbSpline
210
0.0
220
0.0
230
1.0
 70
    11
 71
     3
 72
    32
 73
    28
 74
     0
 42
0.0000000001
 43
0.0000000001
 12
1.0
 22
0.0
 32
0.0
 13
1.0
 23
0.0
 33
0.0
 40
0.0
 40
0.0
 40
0.0
 40
0.0
 40
0.125
 40
0.125
 40
0.125
 40
0.125
 40
0.25
 40
0.25
 40
0.25
 40
0.25
 40
0.375
 40
0.375
 40
0.375
 40
0.375
 40
0.5
 40
0.5
 40
0.5
 40
0.5
 40
0.625
 40
0.625
 40
0.625
 40
0.625
 40
0.75
 40
0.75
 40
0.75
 40
0.75
 40
1.0
 40
1.0
 40
1.0
 40
1.0
 10
-1165.9972
 20
351.7945
 30
0.0
 10
-1189.4743
 20
351.1862
 30
0.0
 10
-1182.1864
 20
355.8784
 30
0.0
 10
-1179.8888
 20
368.4171
 30
0.0
 10
-1179.8888
 20
368.4171
 30
0.0
 10
-1176.8552
 20
384.9739
 30
0.0
 10
-1175.2993
 20
393.3648
 30
0.0
 10
-1173.5754
 20
411.4313
 30
0.0
 10
-1173.5754
 20
411.4313
 30
0.0
 10
-1172.187
 20
425.9814
 30
0.0
 10
-1174.2257
 20
424.5463
 30
0.0
 10
-1160.4603
 20
431.6556
 30
0.0
 10
-1160.4603
 20
431.6556
 30
0.0
 10
-1151.3212
 20
436.3754
 30
0.0
 10
-1141.2284
 20
438.91
 30
0.0
 10
-1129.4676
 20
439.218
 30
0.0
 10
-1129.4676
 20
439.218
 30
0.0
 10
-1115.3972
 20
439.5864
 30
0.0
 10
-1111.4651
 20
430.8283
 30
0.0
 10
-1110.3926
 20
417.6321
 30
0.0
 10
-1110.3926
 20
417.6321
 30
0.0
 10
-1108.8124
 20
398.1943
 30
0.0
 10
-1111.9441
 20
379.766
 30
0.0
 10
-1127.7952
 20
366.2687
 30
0.0
 10
-1127.7952
 20
366.2687
 30
0.0
 10
-1137.0538
 20
358.3852
 30
0.0
 10
-1151.4603
 20
352.1709
 30
0.0
 10
-1165.9972
 20
351.7945
 30
0.0
  0
SPLINE
  5
42
330
1F
100
AcDbEntity
  8
layer 1
370
     9
100
AcDbSpline
210
0.0
220
0.0
230
1.0
 70
    11
 71
     3
 72
    20
 73
    16
 74
     0
 42
0.0000000001
 43
0.0000000001
 12
1.0
 22
0.0
 32
0.0
 13
1.0
 23
0.0
 33
0.0
 40
0.0
 40
0.0
 40
0.0
 40
0.0
 40
0.2
 40
0.2
 40
0.2
 40
0.2
 40
0.4
 40
0.4
 40
0.4
 40
0.4
 40
0.6
 40
0.6
 40
0.6
 40
0.6
 40
1.0
 40
1.0
 40
1.0
 40
1.0
 10
-1253.6345
 20
464.195
 30
0.0
 10
-1253.6345
 20
464.195
 30
0.0
 10
-1253.5663
 20
461.7709
 30
0.0
 10
-1253.5663
 20
461.7709
 30
0.0
 10
-1253.5663
 20
461.7709
 30
0.0
 10
-1253.5663
 20
461.7709
 30
0.0
 10
-1261.4005
 20
461.7708
 30
0.0
 10
-1261.4005
 20
461.7708
 30
0.0
 10
-1261.4005
 20
461.7708
 30
0.0
 10
-1260.6404
 20
464.9501
 30
0.0
 10
-1260.7679
 20
464.0584
 30
0.0
 10
-1257.4833
 20
465.761
 30
0.0
 10
-1257.4833
 20
465.761
 30
0.0
 10
-1255.4339
 20
466.8233
 30
0.0
 10
-1253.7323
 20
467.6718
 30
0.0
 10
-1253.6345
 20
464.195
 30
0.0
  0
SPLINE
  5
43
330
1F
100
AcDbEntity
  8
layer 1
370
     9
100
AcDbSpline
210
0.0
220
0.0
230
1.0
 70
    11
 71
     3
 72
    20
 73
    16
 74
     0
 42
0.0000000001
 43
0.0000000001
 12
1.0
 22
0.0
 32
0.0
 13
1.0
 23
0.0
 33
0.0
 40
0.0
 40
0.0
 40
0.0
 40
0.0
 40
0.2
 40
0.2
 40
0.2
 40
0.2
 40
0.4
 40
0.4
 40
0.4
 40
0.4
 40
0.6
 40
0.6
 40
0.6
 40
0.6
 40
1.0
 40
1.0
 40
1.0
 40
1.0
 10
-1193.8231
 20
471.0547
 30
0.0
 10
-1193.7818
 20
466.4587
 30
0.0
 10
-1192.9272
 20
466.0285
 30
0.0
 10
-1191.1229
 20
461.7707
 30
0.0
 10
-1191.1229
 20
461.7707
 30
0.0
 10
-1204.5302
 20
464.9486
 30
0.0
 10
-1189.5185
 20
484.2677
 30
0.0
 10
-1188.3891
 20
496.8461
 30
0.0
 10
-1188.3891
 20
496.8461
 30
0.0
 10
-1187.991
 20
501.2795
 30
0.0
 10
-1187.9903
 20
502.8093
 30
0.0
 10
-1184.0943
 20
503.9559
 30
0.0
 10
-1184.0943
 20
503.9559
 30
0.0
 10
-1183.6267
 20
486.1008
 30
0.0
 10
-1194.0106
 20
477.9589
 30
0.0
 10
-1193.8231
 20
471.0547
 30
0.0
  0
SPLINE
  5
44
330
1F
100
AcDbEntity
  8
layer 1
370
     9
100
AcDbSpline
210
0.0
220
0.0
230
1.0
 70
    11
 71
     3
 72
    32
 73
    28
 74
     0
 42
0.0000000001
 43
0.0000000001
 12
1.0
 22
0.0
 32
0.0
 13
1.0
 23
0.0
 33
0.0
 40
0.0
 40
0.0
 40
0.0
 40
0.0
 40
0.125
 40
0.125
 40
0.125
 40
0.125
 40
0.25
 40
0.25
 40
0.25
 40
0.25
 40
0.375
 40
0.375
 40
0.375
 40
0.375
 40
0.5
 40
0.5
 40
0.5
 40
0.5
 40
0.625
 40
0.625
 40
0.625
 40
0.625
 40
0.75
 40
0.75
 40
0.75
 40
0.75
 40
1.0
 40
1.0
 40
1.0
 40
1.0
 10
-1374.8358
 20
510.4271
 30
0.0
 10
-1374.881
 20
512.1363
 30
0.0
 10
-1374.6027
 20
512.004
 30
0.0
 10
-1374.0233
 20
513.0951
 30
0.0
 10
-1374.0233
 20
513.0951
 30
0.0
 10
-1365.5655
 20
511.0905
 30
0.0
 10
-1376.8208
 20
502.0633
 30
0.0
 10
-1366.6648
 20
486.4203
 30
0.0
 10
-1366.6648
 20
486.4203
 30
0.0
 10
-1363.6515
 20
481.7788
 30
0.0
 10
-1356.0152
 20
472.48
 30
0.0
 10
-1361.3142
 20
464.0702
 30
0.0
 10
-1361.3142
 20
464.0702
 30
0.0
 10
-1361.8921
 20
463.153
 30
0.0
 10
-1362.1123
 20
462.0701
 30
0.0
 10
-1362.5921
 20
461.7707
 30
0.0
 10
-1362.5921
 20
461.7707
 30
0.0
 10
-1363.1764
 20
461.7709
 30
0.0
 10
-1363.9179
 20
461.8108
 30
0.0
 10
-1365.4926
 20
461.7708
 30
0.0
 10
-1365.4926
 20
461.7708
 30
0.0
 10
-1364.1182
 20
468.39
 30
0.0
 10
-1359.0873
 20
469.9312
 30
0.0
 10
-1366.6102
 20
480.1338
 30
0.0
 10
-1366.6102
 20
480.1338
 30
0.0
 10
-1375.8354
 20
492.6451
 30
0.0
 10
-1374.3901
 20
493.5307
 30
0.0
 10
-1374.8358
 20
510.4271
 30
0.0
  0
SPLINE
  5
45
330
1F
100
AcDbEntity
  8
layer 1
370
     9
100
AcDbSpline
210
0.0
220
0.0
230
1.0
 70
    11
 71
     3
 72
    36
 73
    32
 74
     0
 42
0.0000000001
 43
0.0000000001
 12
1.0
 22
0.0
 32
0.0
 13
1.0
 23
0.0
 33
0.0
 40
0.0
 40
0.0
 40
0.0
 40
0.0
 40
0.1111111111111111
 40
0.1111111111111111
 40
0.1111111111111111
 40
0.1111111111111111
 40
0.2222222222222222
 40
0.2222222222222222
 40
0.2222222222222222
 40
0.2222222222222222
 40
0.3333333333333333
 40
0.3333333333333333
 40
0.3333333333333333
 40
0.3333333333333333
 40
0.4444444444444444
 40
0.4444444444444444
 40
0.4444444444444444
 40
0.4444444444444444
 40
0.5555555555555556
 40
0.5555555555555556
 40
0.5555555555555556
 40
0.5555555555555556
 40
0.6666666666666666
 40
0.6666666666666666
 40
0.6666666666666666
 40
0.6666666666666666
 40
0.7777777777777778
 40
0.7777777777777778
 40
0.7777777777777778
 40
0.7777777777777778
 40
1.0
 40
1.0
 40
1.0
 40
1.0
 10
-1226.4155
 20
536.3697
 30
0.0
 10
-1226.6177
 20
544.0928
 30
0.0
 10
-1224.9916
 20
549.3317
 30
0.0
 10
-1225.1601
 20
555.8155
 30
0.0
 10
-1225.1601
 20
555.8155
 30
0.0
 10
-1219.4797
 20
555.4911
 30
0.0
 10
-1220.0452
 20
553.0967
 30
0.0
 10
-1220.8737
 20
548.3984
 30
0.0
 10
-1220.8737
 20
548.3984
 30
0.0
 10
-1225.5323
 20
521.9796
 30
0.0
 10
-1214.91
 20
513.7411
 30
0.0
 10
-1211.688
 20
496.5541
 30
0.0
 10
-1211.688
 20
496.5541
 30
0.0
 10
-1208.495
 20
479.5228
 30
0.0
 10
-1225.6443
 20
474.1793
 30
0.0
 10
-1225.4415
 20
465.8155
 30
0.0
 10
-1225.4415
 20
465.8155
 30
0.0
 10
-1225.4127
 20
464.6274
 30
0.0
 10
-1224.6794
 20
462.7072
 30
0.0
 10
-1224.9895
 20
461.7707
 30
0.0
 10
-1224.9895
 20
461.7707
 30
0.0
 10
-1225.778
 20
461.7708
 30
0.0
 10
-1225.4517
 20
461.7709
 30
0.0
 10
-1227.2465
 20
461.7709
 30
0.0
 10
-1227.2465
 20
461.7709
 30
0.0
 10
-1233.8361
 20
466.6448
 30
0.0
 10
-1222.83
 20
476.1627
 30
0.0
 10
-1220.2554
 20
478.9423
 30
0.0
 10
-1220.2554
 20
478.9423
 30
0.0
 10
-1204.9204
 20
495.5136
 30
0.0
 10
-1225.6903
 20
508.6744
 30
0.0
 10
-1226.4155
 20
536.3697
 30
0.0
  0
SPLINE
  5
46
330
1F
100
AcDbEntity
  8
layer 1
370
     9
100
AcDbSpline
210
0.0
220
0.0
230
1.0
 70
    11
 71
     3
 72
    48
 73
    44
 74
     0
 42
0.0000000001
 43
0.0000000001
 12
1.0
 22
0.0
 32
0.0
 13
1.0
 23
0.0
 33
0.0
 40
0.0
 40
0.0
 40
0.0
 40
0.0
 40
0.0833333333333333
 40
0.0833333333333333
 40
0.0833333333333333
 40
0.0833333333333333
 40
0.1666666666666667
 40
0.1666666666666667
 40
0.1666666666666667
 40
0.1666666666666667
 40
0.25
 40
0.25
 40
0.25
 40
0.25
 40
0.3333333333333333
 40
0.3333333333333333
 40
0.3333333333333333
 40
0.3333333333333333
 40
0.4166666666666667
 40
0.4166666666666667
 40
0.4166666666666667
 40
0.4166666666666667
 40
0.5
 40
0.5
 40
0.5
 40
0.5
 40
0.5833333333333334
 40
0.5833333333333334
 40
0.5833333333333334
 40
0.5833333333333334
 40
0.6666666666666666
 40
0.6666666666666666
 40
0.6666666666666666
 40
0.6666666666666666
 40
0.75
 40
0.75
 40
0.75
 40
0.75
 40
0.8333333333333334
 40
0.8333333333333334
 40
0.8333333333333334
 40
0.8333333333333334
 40
1.0
 40
1.0
 40
1.0
 40
1.0
 10
-1323.3098
 20
496.7782
 30
0.0
 10
-1323.4278
 20
501.2847
 30
0.0
 10
-1328.3322
 20
507.0215
 30
0.0
 10
-1330.9223
 20
509.5881
 30
0.0
 10
-1330.9223
 20
509.5881
 30
0.0
 10
-1347.9449
 20
526.4575
 30
0.0
 10
-1346.3153
 20
533.1
 30
0.0
 10
-1346.8267
 20
552.633
 30
0.0
 10
-1346.8267
 20
552.633
 30
0.0
 10
-1339.402
 20
552.2145
 30
0.0
 10
-1342.2727
 20
547.4585
 30
0.0
 10
-1342.2726
 20
547.452
 30
0.0
 10
-1342.2726
 20
547.452
 30
0.0
 10
-1341.6747
 20
524.3454
 30
0.0
 10
-1336.8933
 20
522.5863
 30
0.0
 10
-1325.7373
 20
508.7108
 30
0.0
 10
-1325.7373
 20
508.7108
 30
0.0
 10
-1313.7393
 20
493.7877
 30
0.0
 10
-1325.0473
 20
487.385
 30
0.0
 10
-1330.9387
 20
479.0897
 30
0.0
 10
-1330.9387
 20
479.0897
 30
0.0
 10
-1338.482
 20
468.4686
 30
0.0
 10
-1330.0568
 20
467.4563
 30
0.0
 10
-1329.4308
 20
461.7708
 30
0.0
 10
-1329.4308
 20
461.7708
 30
0.0
 10
-1331.1664
 20
461.7708
 30
0.0
 10
-1331.6304
 20
461.7664
 30
0.0
 10
-1331.8404
 20
461.7707
 30
0.0
 10
-1331.8404
 20
461.7707
 30
0.0
 10
-1332.0302
 20
461.7797
 30
0.0
 10
-1332.0133
 20
461.9775
 30
0.0
 10
-1332.5134
 20
462.6116
 30
0.0
 10
-1332.5134
 20
462.6116
 30
0.0
 10
-1332.5366
 20
462.63
 30
0.0
 10
-1334.4133
 20
464.9164
 30
0.0
 10
-1334.4989
 20
465.0507
 30
0.0
 10
-1334.4989
 20
465.0507
 30
0.0
 10
-1335.5304
 20
466.6718
 30
0.0
 10
-1336.7093
 20
469.4876
 30
0.0
 10
-1336.7661
 20
471.7229
 30
0.0
 10
-1336.7661
 20
471.7229
 30
0.0
 10
-1337.0298
 20
482.0991
 30
0.0
 10
-1323.0474
 20
486.7962
 30
0.0
 10
-1323.3098
 20
496.7782
 30
0.0
  0
SPLINE
  5
47
330
1F
100
AcDbEntity
  8
layer 1
370
     9
100
AcDbSpline
210
0.0
220
0.0
230
1.0
 70
    11
 71
     3
 72
    76
 73
    72
 74
     0
 42
0.0000000001
 43
0.0000000001
 12
1.0
 22
0.0
 32
0.0
 13
1.0
 23
0.0
 33
0.0
 40
0.0
 40
0.0
 40
0.0
 40
0.0
 40
0.0526315789473684
 40
0.0526315789473684
 40
0.0526315789473684
 40
0.0526315789473684
 40
0.1052631578947368
 40
0.1052631578947368
 40
0.1052631578947368
 40
0.1052631578947368
 40
0.1578947368421053
 40
0.1578947368421053
 40
0.1578947368421053
 40
0.1578947368421053
 40
0.2105263157894737
 40
0.2105263157894737
 40
0.2105263157894737
 40
0.2105263157894737
 40
0.2631578947368421
 40
0.2631578947368421
 40
0.2631578947368421
 40
0.2631578947368421
 40
0.3157894736842105
 40
0.3157894736842105
 40
0.3157894736842105
 40
0.3157894736842105
 40
0.3684210526315789
 40
0.3684210526315789
 40
0.3684210526315789
 40
0.3684210526315789
 40
0.4210526315789473
 40
0.4210526315789473
 40
0.4210526315789473
 40
0.4210526315789473
 40
0.4736842105263158
 40
0.4736842105263158
 40
0.4736842105263158
 40
0.4736842105263158
 40
0.5263157894736842
 40
0.5263157894736842
 40
0.5263157894736842
 40
0.5263157894736842
 40
0.5789473684210527
 40
0.5789473684210527
 40
0.5789473684210527
 40
0.5789473684210527
 40
0.631578947368421
 40
0.631578947368421
 40
0.631578947368421
 40
0.631578947368421
 40
0.6842105263157895
 40
0.6842105263157895
 40
0.6842105263157895
 40
0.6842105263157895
 40
0.7368421052631579
 40
0.7368421052631579
 40
0.7368421052631579
 40
0.7368421052631579
 40
0.7894736842105263
 40
0.7894736842105263
 40
0.7894736842105263
 40
0.7894736842105263
 40
0.8421052631578947
 40
0.8421052631578947
 40
0.8421052631578947
 40
0.8421052631578947
 40
0.8947368421052632
 40
0.8947368421052632
 40
0.8947368421052632
 40
0.8947368421052632
 40
1.0
 40
1.0
 40
1.0
 40
1.0
 10
-1283.953
 20
543.6856
 30
0.0
 10
-1284.1429
 20
550.9381
 30
0.0
 10
-1282.2812
 20
558.6062
 30
0.0
 10
-1280.4325
 20
564.4198
 30
0.0
 10
-1280.4325
 20
564.4198
 30
0.0
 10
-1278.4168
 20
570.7602
 30
0.0
 10
-1272.7096
 20
582.134
 30
0.0
 10
-1265.6453
 20
573.8496
 30
0.0
 10
-1265.6453
 20
573.8496
 30
0.0
 10
-1264.9577
 20
573.0428
 30
0.0
 10
-1263.556
 20
571.1912
 30
0.0
 10
-1262.9608
 20
570.3319
 30
0.0
 10
-1262.9608
 20
570.3319
 30
0.0
 10
-1261.1149
 20
567.6676
 30
0.0
 10
-1259.9484
 20
564.8347
 30
0.0
 10
-1258.9289
 20
561.8961
 30
0.0
 10
-1258.9289
 20
561.8961
 30
0.0
 10
-1256.9882
 20
556.302
 30
0.0
 10
-1254.9713
 20
549.0035
 30
0.0
 10
-1254.7827
 20
541.8027
 30
0.0
 10
-1254.7827
 20
541.8027
 30
0.0
 10
-1254.3894
 20
526.7834
 30
0.0
 10
-1261.1842
 20
504.2133
 30
0.0
 10
-1269.3404
 20
498.0132
 30
0.0
 10
-1269.3404
 20
498.0132
 30
0.0
 10
-1272.3621
 20
495.7163
 30
0.0
 10
-1276.259
 20
495.5577
 30
0.0
 10
-1279.6453
 20
493.1745
 30
0.0
 10
-1279.6453
 20
493.1745
 30
0.0
 10
-1284.7114
 20
489.6089
 30
0.0
 10
-1287.1436
 20
477.9045
 30
0.0
 10
-1286.1694
 20
471.6436
 30
0.0
 10
-1286.1694
 20
471.6436
 30
0.0
 10
-1285.1889
 20
465.3421
 30
0.0
 10
-1284.493
 20
465.5089
 30
0.0
 10
-1281.8555
 20
461.7709
 30
0.0
 10
-1281.8555
 20
461.7709
 30
0.0
 10
-1281.8555
 20
461.7709
 30
0.0
 10
-1287.7983
 20
461.7708
 30
0.0
 10
-1287.7983
 20
461.7708
 30
0.0
 10
-1287.7983
 20
461.7708
 30
0.0
 10
-1289.0263
 20
472.9493
 30
0.0
 10
-1298.2756
 20
484.1932
 30
0.0
 10
-1298.5528
 20
494.7796
 30
0.0
 10
-1298.5528
 20
494.7796
 30
0.0
 10
-1298.831
 20
505.404
 30
0.0
 10
-1293.0976
 20
512.1871
 30
0.0
 10
-1293.1699
 20
524.9203
 30
0.0
 10
-1293.1699
 20
524.9203
 30
0.0
 10
-1290.3935
 20
523.0099
 30
0.0
 10
-1291.8056
 20
523.378
 30
0.0
 10
-1290.201
 20
519.8823
 30
0.0
 10
-1290.201
 20
519.8823
 30
0.0
 10
-1278.1056
 20
493.5319
 30
0.0
 10
-1254.0922
 20
516.4826
 30
0.0
 10
-1262.4768
 20
545.4781
 30
0.0
 10
-1262.4768
 20
545.4781
 30
0.0
 10
-1262.8857
 20
546.8924
 30
0.0
 10
-1263.6728
 20
548.8357
 30
0.0
 10
-1264.3943
 20
549.7994
 30
0.0
 10
-1264.3943
 20
549.7994
 30
0.0
 10
-1268.2274
 20
554.9208
 30
0.0
 10
-1272.0955
 20
549.6492
 30
0.0
 10
-1273.0498
 20
546.2171
 30
0.0
 10
-1273.0498
 20
546.2171
 30
0.0
 10
-1276.0158
 20
535.5503
 30
0.0
 10
-1267.224
 20
528.2342
 30
0.0
 10
-1280.0073
 20
527.9049
 30
0.0
 10
-1280.0073
 20
527.9049
 30
0.0
 10
-1281.1734
 20
532.3237
 30
0.0
 10
-1283.7332
 20
535.2939
 30
0.0
 10
-1283.953
 20
543.6856
 30
0.0
  0
SPLINE
  5
48
330
1F
100
AcDbEntity
  8
layer 1
370
     9
100
AcDbSpline
210
0.0
220
0.0
230
1.0
 70
    11
 71
     3
 72
   304
 73
   300
 74
     0
 42
0.0000000001
 43
0.0000000001
 12
1.0
 22
0.0
 32
0.0
 13
1.0
 23
0.0
 33
0.0
 40
0.0
 40
0.0
 40
0.0
 40
0.0
 40
0.0131578947368421
 40
0.0131578947368421
 40
0.0131578947368421
 40
0.0131578947368421
 40
0.0263157894736842
 40
0.0263157894736842
 40
0.0263157894736842
 40
0.0263157894736842
 40
0.0394736842105263
 40
0.0394736842105263
 40
0.0394736842105263
 40
0.0394736842105263
 40
0.0526315789473684
 40
0.0526315789473684
 40
0.0526315789473684
 40
0.0526315789473684
 40
0.0657894736842105
 40
0.0657894736842105
 40
0.0657894736842105
 40
0.0657894736842105
 40
0.0789473684210526
 40
0.0789473684210526
 40
0.0789473684210526
 40
0.0789473684210526
 40
0.0921052631578947
 40
0.0921052631578947
 40
0.0921052631578947
 40
0.0921052631578947
 40
0.1052631578947368
 40
0.1052631578947368
 40
0.1052631578947368
 40
0.1052631578947368
 40
0.1184210526315789
 40
0.1184210526315789
 40
0.1184210526315789
 40
0.1184210526315789
 40
0.131578947368421
 40
0.131578947368421
 40
0.131578947368421
 40
0.131578947368421
 40
0.1447368421052632
 40
0.1447368421052632
 40
0.1447368421052632
 40
0.1447368421052632
 40
0.1578947368421053
 40
0.1578947368421053
 40
0.1578947368421053
 40
0.1578947368421053
 40
0.1710526315789474
 40
0.1710526315789474
 40
0.1710526315789474
 40
0.1710526315789474
 40
0.1842105263157895
 40
0.1842105263157895
 40
0.1842105263157895
 40
0.1842105263157895
 40
0.1973684210526316
 40
0.1973684210526316
 40
0.1973684210526316
 40
0.1973684210526316
 40
0.2105263157894737
 40
0.2105263157894737
 40
0.2105263157894737
 40
0.2105263157894737
 40
0.2236842105263158
 40
0.2236842105263158
 40
0.2236842105263158
 40
0.2236842105263158
 40
0.2368421052631579
 40
0.2368421052631579
 40
0.2368421052631579
 40
0.2368421052631579
 40
0.25
 40
0.25
 40
0.25
 40
0.25
 40
0.2631578947368421
 40
0.2631578947368421
 40
0.2631578947368421
 40
0.2631578947368421
 40
0.2763157894736842
 40
0.2763157894736842
 40
0.2763157894736842
 40
0.2763157894736842
 40
0.2894736842105263
 40
0.2894736842105263
 40
0.2894736842105263
 40
0.2894736842105263
 40
0.3026315789473684
 40
0.3026315789473684
 40
0.3026315789473684
 40
0.3026315789473684
 40
0.3157894736842105
 40
0.3157894736842105
 40
0.3157894736842105
 40
0.3157894736842105
 40
0.3289473684210527
 40
0.3289473684210527
 40
0.3289473684210527
 40
0.3289473684210527
 40
0.3421052631578947
 40
0.3421052631578947
 40
0.3421052631578947
 40
0.3421052631578947
 40
0.3552631578947368
 40
0.3552631578947368
 40
0.3552631578947368
 40
0.3552631578947368
 40
0.3684210526315789
 40
0.3684210526315789
 40
0.3684210526315789
 40
0.3684210526315789
 40
0.3815789473684211
 40
0.3815789473684211
 40
0.3815789473684211
 40
0.3815789473684211
 40
0.3947368421052632
 40
0.3947368421052632
 40
0.3947368421052632
 40
0.3947368421052632
 40
0.4078947368421053
 40
0.4078947368421053
 40
0.4078947368421053
 40
0.4078947368421053
 40
0.4210526315789473
 40
0.4210526315789473
 40
0.4210526315789473
 40
0.4210526315789473
 40
0.4342105263157895
 40
0.4342105263157895
 40
0.4342105263157895
 40
0.4342105263157895
 40
0.4473684210526316
 40
0.4473684210526316
 40
0.4473684210526316
 40
0.4473684210526316
 40
0.4605263157894737
 40
0.4605263157894737
 40
0.4605263157894737
 40
0.4605263157894737
 40
0.4736842105263158
 40
0.4736842105263158
 40
0.4736842105263158
 40
0.4736842105263158
 40
0.4868421052631579
 40
0.4868421052631579
 40
0.4868421052631579
 40
0.4868421052631579
 40
0.5
 40
0.5
 40
0.5
 40
0.5
 40
0.5131578947368421
 40
0.5131578947368421
 40
0.5131578947368421
 40
0.5131578947368421
 40
0.5263157894736842
 40
0.5263157894736842
 40
0.5263157894736842
 40
0.5263157894736842
 40
0.5394736842105263
 40
0.5394736842105263
 40
0.5394736842105263
 40
0.5394736842105263
 40
0.5526315789473685
 40
0.5526315789473685
 40
0.5526315789473685
 40
0.5526315789473685
 40
0.5657894736842105
 40
0.5657894736842105
 40
0.5657894736842105
 40
0.5657894736842105
 40
0.5789473684210527
 40
0.5789473684210527
 40
0.5789473684210527
 40
0.5789473684210527
 40
0.5921052631578947
 40
0.5921052631578947
 40
0.5921052631578947
 40
0.5921052631578947
 40
0.6052631578947368
 40
0.6052631578947368
 40
0.6052631578947368
 40
0.6052631578947368
 40
0.618421052631579
 40
0.618421052631579
 40
0.618421052631579
 40
0.618421052631579
 40
0.631578947368421
 40
0.631578947368421
 40
0.631578947368421
 40
0.631578947368421
 40
0.6447368421052632
 40
0.6447368421052632
 40
0.6447368421052632
 40
0.6447368421052632
 40
0.6578947368421053
 40
0.6578947368421053
 40
0.6578947368421053
 40
0.6578947368421053
 40
0.6710526315789473
 40
0.6710526315789473
 40
0.6710526315789473
 40
0.6710526315789473
 40
0.6842105263157895
 40
0.6842105263157895
 40
0.6842105263157895
 40
0.6842105263157895
 40
0.6973684210526315
 40
0.6973684210526315
 40
0.6973684210526315
 40
0.6973684210526315
 40
0.7105263157894737
 40
0.7105263157894737
 40
0.7105263157894737
 40
0.7105263157894737
 40
0.7236842105263158
 40
0.7236842105263158
 40
0.7236842105263158
 40
0.7236842105263158
 40
0.7368421052631579
 40
0.7368421052631579
 40
0.7368421052631579
 40
0.7368421052631579
 40
0.75
 40
0.75
 40
0.75
 40
0.75
 40
0.7631578947368421
 40
0.7631578947368421
 40
0.7631578947368421
 40
0.7631578947368421
 40
0.7763157894736842
 40
0.7763157894736842
 40
0.7763157894736842
 40
0.7763157894736842
 40
0.7894736842105263
 40
0.7894736842105263
 40
0.7894736842105263
 40
0.7894736842105263
 40
0.8026315789473685
 40
0.8026315789473685
 40
0.8026315789473685
 40
0.8026315789473685
 40
0.8157894736842105
 40
0.8157894736842105
 40
0.8157894736842105
 40
0.8157894736842105
 40
0.8289473684210527
 40
0.8289473684210527
 40
0.8289473684210527
 40
0.8289473684210527
 40
0.8421052631578947
 40
0.8421052631578947
 40
0.8421052631578947
 40
0.8421052631578947
 40
0.8552631578947368
 40
0.8552631578947368
 40
0.8552631578947368
 40
0.8552631578947368
 40
0.868421052631579
 40
0.868421052631579
 40
0.868421052631579
 40
0.868421052631579
 40
0.881578947368421
 40
0.881578947368421
 40
0.881578947368421
 40
0.881578947368421
 40
0.8947368421052632
 40
0.8947368421052632
 40
0.8947368421052632
 40
0.8947368421052632
 40
0.9078947368421053
 40
0.9078947368421053
 40
0.9078947368421053
 40
0.9078947368421053
 40
0.9210526315789473
 40
0.9210526315789473
 40
0.9210526315789473
 40
0.9210526315789473
 40
0.9342105263157895
 40
0.9342105263157895
 40
0.9342105263157895
 40
0.9342105263157895
 40
0.9473684210526315
 40
0.9473684210526315
 40
0.9473684210526315
 40
0.9473684210526315
 40
0.9605263157894737
 40
0.9605263157894737
 40
0.9605263157894737
 40
0.9605263157894737
 40
0.9736842105263158
 40
0.9736842105263158
 40
0.9736842105263158
 40
0.9736842105263158
 40
1.0
 40
1.0
 40
1.0
 40
1.0
 10
-1299.141
 20
584.7533
 30
0.0
 10
-1299.3758
 20
593.7212
 30
0.0
 10
-1297.069
 20
594.9523
 30
0.0
 10
-1302.2443
 20
602.3273
 30
0.0
 10
-1302.2443
 20
602.3273
 30
0.0
 10
-1307.8805
 20
598.3087
 30
0.0
 10
-1309.9527
 20
589.7775
 30
0.0
 10
-1312.3126
 20
582.6383
 30
0.0
 10
-1312.3126
 20
582.6383
 30
0.0
 10
-1314.7583
 20
575.2395
 30
0.0
 10
-1320.3526
 20
570.9493
 30
0.0
 10
-1323.2009
 20
563.7395
 30
0.0
 10
-1323.2009
 20
563.7395
 30
0.0
 10
-1326.8088
 20
554.6077
 30
0.0
 10
-1327.1258
 20
536.1218
 30
0.0
 10
-1322.2076
 20
526.0196
 30
0.0
 10
-1322.2076
 20
526.0196
 30
0.0
 10
-1319.2427
 20
519.9301
 30
0.0
 10
-1308.8317
 20
517.1315
 30
0.0
 10
-1309.1476
 20
528.9097
 30
0.0
 10
-1309.1476
 20
528.9097
 30
0.0
 10
-1309.3252
 20
535.5401
 30
0.0
 10
-1313.8481
 20
540.155
 30
0.0
 10
-1313.9006
 20
542.019
 30
0.0
 10
-1313.9006
 20
542.019
 30
0.0
 10
-1314.0167
 20
546.1469
 30
0.0
 10
-1308.8286
 20
561.413
 30
0.0
 10
-1306.9494
 20
550.3446
 30
0.0
 10
-1306.9494
 20
550.3446
 30
0.0
 10
-1304.3843
 20
535.2358
 30
0.0
 10
-1304.0391
 20
525.9107
 30
0.0
 10
-1308.1062
 20
510.726
 30
0.0
 10
-1308.1062
 20
510.726
 30
0.0
 10
-1309.9522
 20
503.8338
 30
0.0
 10
-1310.3343
 20
500.8425
 30
0.0
 10
-1308.7365
 20
493.1077
 30
0.0
 10
-1308.7365
 20
493.1077
 30
0.0
 10
-1307.7006
 20
488.0924
 30
0.0
 10
-1296.0931
 20
461.7707
 30
0.0
 10
-1302.962
 20
461.7709
 30
0.0
 10
-1302.962
 20
461.7709
 30
0.0
 10
-1308.2538
 20
461.7709
 30
0.0
 10
-1317.3842
 20
461.7709
 30
0.0
 10
-1321.8307
 20
461.7707
 30
0.0
 10
-1321.8307
 20
461.7707
 30
0.0
 10
-1322.7722
 20
462.4946
 30
0.0
 10
-1326.9915
 20
469.0036
 30
0.0
 10
-1327.0217
 20
470.2135
 30
0.0
 10
-1327.0217
 20
470.2135
 30
0.0
 10
-1327.2566
 20
479.545
 30
0.0
 10
-1312.381
 20
483.9202
 30
0.0
 10
-1312.6326
 20
493.5286
 30
0.0
 10
-1312.6326
 20
493.5286
 30
0.0
 10
-1313.3192
 20
519.7496
 30
0.0
 10
-1331.8468
 20
519.7669
 30
0.0
 10
-1332.3706
 20
539.771
 30
0.0
 10
-1332.3706
 20
539.771
 30
0.0
 10
-1332.5517
 20
546.6879
 30
0.0
 10
-1330.528
 20
551.5853
 30
0.0
 10
-1330.1875
 20
557.473
 30
0.0
 10
-1330.1875
 20
557.473
 30
0.0
 10
-1335.9484
 20
561.1184
 30
0.0
 10
-1349.6829
 20
572.22
 30
0.0
 10
-1355.3122
 20
573.5778
 30
0.0
 10
-1355.3122
 20
573.5778
 30
0.0
 10
-1355.2454
 20
555.711
 30
0.0
 10
-1365.2862
 20
530.6228
 30
0.0
 10
-1339.6707
 20
506.7109
 30
0.0
 10
-1339.6707
 20
506.7109
 30
0.0
 10
-1329.4081
 20
497.1307
 30
0.0
 10
-1329.343
 20
497.0494
 30
0.0
 10
-1336.5459
 20
488.7105
 30
0.0
 10
-1336.5459
 20
488.7105
 30
0.0
 10
-1347.9565
 20
475.5003
 30
0.0
 10
-1341.8157
 20
466.5044
 30
0.0
 10
-1340.4236
 20
461.7708
 30
0.0
 10
-1340.4236
 20
461.7708
 30
0.0
 10
-1343.6322
 20
461.7708
 30
0.0
 10
-1350.584
 20
461.7708
 30
0.0
 10
-1357.5974
 20
461.7707
 30
0.0
 10
-1357.5974
 20
461.7707
 30
0.0
 10
-1356.0313
 20
468.2427
 30
0.0
 10
-1350.6106
 20
471.9821
 30
0.0
 10
-1358.3139
 20
486.16
 30
0.0
 10
-1358.3139
 20
486.16
 30
0.0
 10
-1360.6311
 20
490.4251
 30
0.0
 10
-1361.2873
 20
490.4932
 30
0.0
 10
-1362.3086
 20
496.469
 30
0.0
 10
-1362.3086
 20
496.469
 30
0.0
 10
-1363.6539
 20
504.3427
 30
0.0
 10
-1360.5659
 20
512.3296
 30
0.0
 10
-1360.0984
 20
520.5176
 30
0.0
 10
-1360.0984
 20
520.5176
 30
0.0
 10
-1366.8567
 20
521.9049
 30
0.0
 10
-1373.7007
 20
526.8567
 30
0.0
 10
-1379.7907
 20
529.8216
 30
0.0
 10
-1379.7907
 20
529.8216
 30
0.0
 10
-1385.8558
 20
532.7746
 30
0.0
 10
-1383.8074
 20
530.0082
 30
0.0
 10
-1384.0716
 20
523.4991
 30
0.0
 10
-1384.0716
 20
523.4991
 30
0.0
 10
-1384.246
 20
519.2043
 30
0.0
 10
-1384.6779
 20
515.8053
 30
0.0
 10
-1384.5304
 20
510.1733
 30
0.0
 10
-1384.5304
 20
510.1733
 30
0.0
 10
-1383.7831
 20
481.634
 30
0.0
 10
-1368.6308
 20
475.3543
 30
0.0
 10
-1368.5052
 20
470.8918
 30
0.0
 10
-1368.5052
 20
470.8918
 30
0.0
 10
-1368.3623
 20
465.807
 30
0.0
 10
-1370.4769
 20
463.4899
 30
0.0
 10
-1372.8359
 20
461.7708
 30
0.0
 10
-1372.8359
 20
461.7708
 30
0.0
 10
-1376.7775
 20
461.7709
 30
0.0
 10
-1380.9167
 20
461.8843
 30
0.0
 10
-1385.2647
 20
461.7707
 30
0.0
 10
-1385.2647
 20
461.7707
 30
0.0
 10
-1384.0535
 20
415.479
 30
0.0
 10
-1381.8281
 20
365.4101
 30
0.0
 10
-1361.7704
 20
323.97
 30
0.0
 10
-1361.7704
 20
323.97
 30
0.0
 10
-1357.4426
 20
315.0287
 30
0.0
 10
-1353.0608
 20
306.2879
 30
0.0
 10
-1347.0957
 20
298.665
 30
0.0
 10
-1347.0957
 20
298.665
 30
0.0
 10
-1343.3597
 20
293.8906
 30
0.0
 10
-1339.5912
 20
288.3046
 30
0.0
 10
-1335.1646
 20
284.061
 30
0.0
 10
-1335.1646
 20
284.061
 30
0.0
 10
-1335.1646
 20
284.061
 30
0.0
 10
-1328.6209
 20
277.3663
 30
0.0
 10
-1328.6209
 20
277.3663
 30
0.0
 10
-1328.6209
 20
277.3663
 30
0.0
 10
-1322.1717
 20
270.8756
 30
0.0
 10
-1319.7064
 20
272.0415
 30
0.0
 10
-1308.5982
 20
271.9305
 30
0.0
 10
-1308.5982
 20
271.9305
 30
0.0
 10
-1308.5982
 20
271.9305
 30
0.0
 10
-1242.4545
 20
271.9305
 30
0.0
 10
-1242.4545
 20
271.9305
 30
0.0
 10
-1242.4545
 20
271.9305
 30
0.0
 10
-1230.9588
 20
272.2135
 30
0.0
 10
-1231.3323
 20
272.4113
 30
0.0
 10
-1223.4591
 20
280.8063
 30
0.0
 10
-1223.4591
 20
280.8063
 30
0.0
 10
-1212.6102
 20
292.3735
 30
0.0
 10
-1202.9626
 20
304.8628
 30
0.0
 10
-1196.0107
 20
319.2364
 30
0.0
 10
-1196.0107
 20
319.2364
 30
0.0
 10
-1196.0107
 20
319.2364
 30
0.0
 10
-1187.6492
 20
336.2326
 30
0.0
 10
-1187.6492
 20
336.2326
 30
0.0
 10
-1187.6492
 20
336.2326
 30
0.0
 10
-1167.8762
 20
335.1151
 30
0.0
 10
-1160.5951
 20
330.1045
 30
0.0
 10
-1134.5832
 20
341.7591
 30
0.0
 10
-1134.5832
 20
341.7591
 30
0.0
 10
-1130.8895
 20
343.4142
 30
0.0
 10
-1126.5702
 20
346.3715
 30
0.0
 10
-1123.5526
 20
348.4887
 30
0.0
 10
-1123.5526
 20
348.4887
 30
0.0
 10
-1112.7952
 20
356.0359
 30
0.0
 10
-1104.6691
 20
365.6096
 30
0.0
 10
-1099.0321
 20
377.6626
 30
0.0
 10
-1099.0321
 20
377.6626
 30
0.0
 10
-1090.861
 20
395.1347
 30
0.0
 10
-1088.1995
 20
429.105
 30
0.0
 10
-1102.4039
 20
445.0839
 30
0.0
 10
-1102.4039
 20
445.0839
 30
0.0
 10
-1124.0774
 20
469.4659
 30
0.0
 10
-1163.8536
 20
446.9305
 30
0.0
 10
-1171.9941
 20
446.0411
 30
0.0
 10
-1171.9941
 20
446.0411
 30
0.0
 10
-1171.9941
 20
446.0411
 30
0.0
 10
-1172.3865
 20
461.7707
 30
0.0
 10
-1172.3865
 20
461.7707
 30
0.0
 10
-1172.3865
 20
461.7707
 30
0.0
 10
-1176.7987
 20
461.7309
 30
0.0
 10
-1179.223
 20
461.7985
 30
0.0
 10
-1184.7562
 20
461.7709
 30
0.0
 10
-1184.7562
 20
461.7709
 30
0.0
 10
-1190.7798
 20
472.4696
 30
0.0
 10
-1185.2894
 20
475.0287
 30
0.0
 10
-1180.0905
 20
486.3957
 30
0.0
 10
-1180.0905
 20
486.3957
 30
0.0
 10
-1174.3673
 20
498.9093
 30
0.0
 10
-1173.2574
 20
511.9456
 30
0.0
 10
-1180.2204
 20
524.3456
 30
0.0
 10
-1180.2204
 20
524.3456
 30
0.0
 10
-1183.5251
 20
523.373
 30
0.0
 10
-1193.3955
 20
510.6988
 30
0.0
 10
-1196.431
 20
507.0591
 30
0.0
 10
-1196.431
 20
507.0591
 30
0.0
 10
-1196.431
 20
507.0591
 30
0.0
 10
-1199.1119
 20
504.4415
 30
0.0
 10
-1199.1119
 20
504.4415
 30
0.0
 10
-1199.1119
 20
504.4415
 30
0.0
 10
-1193.2184
 20
492.9836
 30
0.0
 10
-1203.8336
 20
482.7359
 30
0.0
 10
-1203.5441
 20
471.6825
 30
0.0
 10
-1203.5441
 20
471.6825
 30
0.0
 10
-1203.393
 20
465.9135
 30
0.0
 10
-1201.9125
 20
466.0265
 30
0.0
 10
-1200.6387
 20
461.7709
 30
0.0
 10
-1200.6387
 20
461.7709
 30
0.0
 10
-1204.1906
 20
461.7597
 30
0.0
 10
-1207.6925
 20
461.8345
 30
0.0
 10
-1211.276
 20
461.7707
 30
0.0
 10
-1211.276
 20
461.7707
 30
0.0
 10
-1215.0143
 20
461.7901
 30
0.0
 10
-1218.254
 20
461.2288
 30
0.0
 10
-1218.3475
 20
464.2372
 30
0.0
 10
-1218.3475
 20
464.2372
 30
0.0
 10
-1218.6633
 20
476.2948
 30
0.0
 10
-1194.7868
 20
475.1677
 30
0.0
 10
-1208.5013
 20
513.5701
 30
0.0
 10
-1208.5013
 20
513.5701
 30
0.0
 10
-1210.2736
 20
518.5329
 30
0.0
 10
-1211.9777
 20
524.3595
 30
0.0
 10
-1212.1425
 20
530.5678
 30
0.0
 10
-1212.1425
 20
530.5678
 30
0.0
 10
-1212.4416
 20
541.8379
 30
0.0
 10
-1207.2445
 20
550.9178
 30
0.0
 10
-1206.7345
 20
559.8244
 30
0.0
 10
-1206.7345
 20
559.8244
 30
0.0
 10
-1211.8101
 20
562.3402
 30
0.0
 10
-1215.5502
 20
565.4111
 30
0.0
 10
-1220.1898
 20
568.2939
 30
0.0
 10
-1220.1898
 20
568.2939
 30
0.0
 10
-1224.8327
 20
571.1786
 30
0.0
 10
-1228.5772
 20
574.2433
 30
0.0
 10
-1233.6455
 20
576.7673
 30
0.0
 10
-1233.6455
 20
576.7673
 30
0.0
 10
-1235.8657
 20
571.8012
 30
0.0
 10
-1238.2063
 20
548.698
 30
0.0
 10
-1237.9888
 20
540.4779
 30
0.0
 10
-1237.9888
 20
540.4779
 30
0.0
 10
-1237.5553
 20
524.0851
 30
0.0
 10
-1230.9925
 20
513.0919
 30
0.0
 10
-1225.5019
 20
501.9971
 30
0.0
 10
-1225.5019
 20
501.9971
 30
0.0
 10
-1215.9985
 20
482.7938
 30
0.0
 10
-1236.3632
 20
478.3332
 30
0.0
 10
-1236.0743
 20
467.3017
 30
0.0
 10
-1236.0743
 20
467.3017
 30
0.0
 10
-1235.9835
 20
463.8331
 30
0.0
 10
-1233.6024
 20
463.5066
 30
0.0
 10
-1236.0023
 20
461.7707
 30
0.0
 10
-1236.0023
 20
461.7707
 30
0.0
 10
-1237.9792
 20
461.7707
 30
0.0
 10
-1242.4057
 20
461.7708
 30
0.0
 10
-1243.8758
 20
461.8038
 30
0.0
 10
-1243.8758
 20
461.8038
 30
0.0
 10
-1244.0839
 20
470.5049
 30
0.0
 10
-1244.2092
 20
478.5366
 30
0.0
 10
-1251.2523
 20
480.3784
 30
0.0
 10
-1251.2523
 20
480.3784
 30
0.0
 10
-1254.4314
 20
481.2099
 30
0.0
 10
-1257.9791
 20
479.679
 30
0.0
 10
-1260.9894
 20
478.0099
 30
0.0
 10
-1260.9894
 20
478.0099
 30
0.0
 10
-1265.7384
 20
475.3772
 30
0.0
 10
-1269.3668
 20
477.4742
 30
0.0
 10
-1275.1122
 20
475.991
 30
0.0
 10
-1275.1122
 20
475.991
 30
0.0
 10
-1273.9551
 20
480.9328
 30
0.0
 10
-1265.2976
 20
482.5067
 30
0.0
 10
-1261.4204
 20
487.0582
 30
0.0
 10
-1261.4204
 20
487.0582
 30
0.0
 10
-1259.197
 20
489.6681
 30
0.0
 10
-1257.8292
 20
490.8098
 30
0.0
 10
-1255.9939
 20
493.9456
 30
0.0
 10
-1255.9939
 20
493.9456
 30
0.0
 10
-1246.5225
 20
510.1281
 30
0.0
 10
-1242.0857
 20
528.4065
 30
0.0
 10
-1242.5799
 20
547.4156
 30
0.0
 10
-1242.5799
 20
547.4156
 30
0.0
 10
-1243.2508
 20
573.2364
 30
0.0
 10
-1262.108
 20
619.0365
 30
0.0
 10
-1279.9799
 20
598.3803
 30
0.0
 10
-1279.9799
 20
598.3803
 30
0.0
 10
-1280.745
 20
597.496
 30
0.0
 10
-1281.2148
 20
596.958
 30
0.0
 10
-1282.0043
 20
596.0027
 30
0.0
 10
-1282.0043
 20
596.0027
 30
0.0
 10
-1287.329
 20
589.5599
 30
0.0
 10
-1290.5741
 20
579.9799
 30
0.0
 10
-1292.7505
 20
571.8099
 30
0.0
 10
-1292.7505
 20
571.8099
 30
0.0
 10
-1292.7505
 20
571.8099
 30
0.0
 10
-1295.5286
 20
558.1122
 30
0.0
 10
-1295.5286
 20
558.1122
 30
0.0
 10
-1295.5286
 20
558.1122
 30
0.0
 10
-1295.5673
 20
558.2325
 30
0.0
 10
-1295.6657
 20
557.6832
 30
0.0
 10
-1295.7804
 20
557.4917
 30
0.0
 10
-1295.7804
 20
557.4917
 30
0.0
 10
-1297.6268
 20
564.5683
 30
0.0
 10
-1298.9204
 20
576.3297
 30
0.0
 10
-1299.141
 20
584.7533
 30
0.0
  0
SPLINE
  5
49
330
1F
100
AcDbEntity
  8
layer 1
 62
    41
370
     9
100
AcDbSpline
210
0.0
220
0.0
230
1.0
 70
    11
 71
     3
 72
    48
 73
    44
 74
     0
 42
0.0000000001
 43
0.0000000001
 12
1.0
 22
0.0
 32
0.0
 13
1.0
 23
0.0
 33
0.0
 40
0.0
 40
0.0
 40
0.0
 40
0.0
 40
0.0833333333333333
 40
0.0833333333333333
 40
0.0833333333333333
 40
0.0833333333333333
 40
0.1666666666666667
 40
0.1666666666666667
 40
0.1666666666666667
 40
0.1666666666666667
 40
0.25
 40
0.25
 40
0.25
 40
0.25
 40
0.3333333333333333
 40
0.3333333333333333
 40
0.3333333333333333
 40
0.3333333333333333
 40
0.4166666666666667
 40
0.4166666666666667
 40
0.4166666666666667
 40
0.4166666666666667
 40
0.5
 40
0.5
 40
0.5
 40
0.5
 40
0.5833333333333334
 40
0.5833333333333334
 40
0.5833333333333334
 40
0.5833333333333334
 40
0.6666666666666666
 40
0.6666666666666666
 40
0.6666666666666666
 40
0.6666666666666666
 40
0.75
 40
0.75
 40
0.75
 40
0.75
 40
0.8333333333333334
 40
0.8333333333333334
 40
0.8333333333333334
 40
0.8333333333333334
 40
1.0
 40
1.0
 40
1.0
 40
1.0
 10
-1235.4034
 20
102.5847
 30
0.0
 10
-1230.0409
 20
102.6969
 30
0.0
 10
-1218.1794
 20
117.5852
 30
0.0
 10
-1214.8741
 20
122.1279
 30
0.0
 10
-1214.8741
 20
122.1279
 30
0.0
 10
-1207.2506
 20
132.6049
 30
0.0
 10
-1200.2811
 20
143.3347
 30
0.0
 10
-1195.6566
 20
155.5424
 30
0.0
 10
-1195.6566
 20
155.5424
 30
0.0
 10
-1183.4751
 20
187.6987
 30
0.0
 10
-1176.1794
 20
222.1637
 30
0.0
 10
-1176.8759
 20
256.7694
 30
0.0
 10
-1176.8759
 20
256.7694
 30
0.0
 10
-1177.1594
 20
258.7054
 30
0.0
 10
-1178.0851
 20
260.7944
 30
0.0
 10
-1184.1339
 20
260.7944
 30
0.0
 10
-1184.1339
 20
260.7944
 30
0.0
 10
-1246.2504
 20
261.1154
 30
0.0
 10
-1308.7654
 20
260.7944
 30
0.0
 10
-1370.9281
 20
260.7944
 30
0.0
 10
-1370.9281
 20
260.7944
 30
0.0
 10
-1374.2991
 20
260.7237
 30
0.0
 10
-1376.2634
 20
257.9207
 30
0.0
 10
-1376.1886
 20
254.3587
 30
0.0
 10
-1376.1886
 20
254.3587
 30
0.0
 10
-1375.7779
 20
234.7499
 30
0.0
 10
-1373.1141
 20
213.2974
 30
0.0
 10
-1369.4556
 20
194.7059
 30
0.0
 10
-1369.4556
 20
194.7059
 30
0.0
 10
-1364.7369
 20
170.7247
 30
0.0
 10
-1350.0526
 20
132.1962
 30
0.0
 10
-1332.4706
 20
115.2402
 30
0.0
 10
-1332.4706
 20
115.2402
 30
0.0
 10
-1332.4706
 20
115.2402
 30
0.0
 10
-1328.6719
 20
111.0932
 30
0.0
 10
-1328.6719
 20
111.0932
 30
0.0
 10
-1328.6719
 20
111.0932
 30
0.0
 10
-1326.4544
 20
108.5659
 30
0.0
 10
-1321.5744
 20
103.2524
 30
0.0
 10
-1319.2064
 20
102.5847
 30
0.0
 10
-1319.2064
 20
102.5847
 30
0.0
 10
-1291.2154
 20
102.6204
 30
0.0
 10
-1263.2106
 20
102.3694
 30
0.0
 10
-1235.4034
 20
102.5847
 30
0.0
  0
SPLINE
  5
4A
330
1F
100
AcDbEntity
  8
layer 1
 62
    41
370
     9
100
AcDbSpline
210
0.0
220
0.0
230
1.0
 70
    11
 71
     3
 72
    36
 73
    32
 74
     0
 42
0.0000000001
 43
0.0000000001
 12
1.0
 22
0.0
 32
0.0
 13
1.0
 23
0.0
 33
0.0
 40
0.0
 40
0.0
 40
0.0
 40
0.0
 40
0.1111111111111111
 40
0.1111111111111111
 40
0.1111111111111111
 40
0.1111111111111111
 40
0.2222222222222222
 40
0.2222222222222222
 40
0.2222222222222222
 40
0.2222222222222222
 40
0.3333333333333333
 40
0.3333333333333333
 40
0.3333333333333333
 40
0.3333333333333333
 40
0.4444444444444444
 40
0.4444444444444444
 40
0.4444444444444444
 40
0.4444444444444444
 40
0.5555555555555556
 40
0.5555555555555556
 40
0.5555555555555556
 40
0.5555555555555556
 40
0.6666666666666666
 40
0.6666666666666666
 40
0.6666666666666666
 40
0.6666666666666666
 40
0.7777777777777778
 40
0.7777777777777778
 40
0.7777777777777778
 40
0.7777777777777778
 40
1.0
 40
1.0
 40
1.0
 40
1.0
 10
-1343.8774
 20
180.4452
 30
0.0
 10
-1342.0499
 20
180.4452
 30
0.0
 10
-1340.4766
 20
181.4229
 30
0.0
 10
-1339.1641
 20
183.3787
 30
0.0
 10
-1339.1641
 20
183.3787
 30
0.0
 10
-1337.8449
 20
185.3347
 30
0.0
 10
-1337.1886
 20
187.7562
 30
0.0
 10
-1337.1886
 20
190.6509
 30
0.0
 10
-1337.1886
 20
190.6509
 30
0.0
 10
-1337.1886
 20
192.5602
 30
0.0
 10
-1337.5839
 20
194.0659
 30
0.0
 10
-1338.3669
 20
195.1524
 30
0.0
 10
-1338.3669
 20
195.1524
 30
0.0
 10
-1339.1501
 20
196.2469
 30
0.0
 10
-1340.2226
 20
196.7899
 30
0.0
 10
-1341.5844
 20
196.7899
 30
0.0
 10
-1341.5844
 20
196.7899
 30
0.0
 10
-1343.4894
 20
196.7899
 30
0.0
 10
-1345.0696
 20
195.7579
 30
0.0
 10
-1346.3396
 20
193.6854
 30
0.0
 10
-1346.3396
 20
193.6854
 30
0.0
 10
-1347.6026
 20
191.6212
 30
0.0
 10
-1348.2376
 20
189.0212
 30
0.0
 10
-1348.2376
 20
185.9012
 30
0.0
 10
-1348.2376
 20
185.9012
 30
0.0
 10
-1348.2376
 20
184.1549
 30
0.0
 10
-1347.8566
 20
182.8122
 30
0.0
 10
-1347.1016
 20
181.8654
 30
0.0
 10
-1347.1016
 20
181.8654
 30
0.0
 10
-1346.3469
 20
180.9187
 30
0.0
 10
-1345.2674
 20
180.4452
 30
0.0
 10
-1343.8774
 20
180.4452
 30
0.0
  0
SPLINE
  5
4B
330
1F
100
AcDbEntity
  8
layer 1
 62
    41
370
     9
100
AcDbSpline
210
0.0
220
0.0
230
1.0
 70
    11
 71
     3
 72
   108
 73
   104
 74
     0
 42
0.0000000001
 43
0.0000000001
 12
1.0
 22
0.0
 32
0.0
 13
1.0
 23
0.0
 33
0.0
 40
0.0
 40
0.0
 40
0.0
 40
0.0
 40
0.037037037037037
 40
0.037037037037037
 40
0.037037037037037
 40
0.037037037037037
 40
0.0740740740740741
 40
0.0740740740740741
 40
0.0740740740740741
 40
0.0740740740740741
 40
0.1111111111111111
 40
0.1111111111111111
 40
0.1111111111111111
 40
0.1111111111111111
 40
0.1481481481481481
 40
0.1481481481481481
 40
0.1481481481481481
 40
0.1481481481481481
 40
0.1851851851851852
 40
0.1851851851851852
 40
0.1851851851851852
 40
0.1851851851851852
 40
0.2222222222222222
 40
0.2222222222222222
 40
0.2222222222222222
 40
0.2222222222222222
 40
0.2592592592592592
 40
0.2592592592592592
 40
0.2592592592592592
 40
0.2592592592592592
 40
0.2962962962962963
 40
0.2962962962962963
 40
0.2962962962962963
 40
0.2962962962962963
 40
0.3333333333333333
 40
0.3333333333333333
 40
0.3333333333333333
 40
0.3333333333333333
 40
0.3703703703703703
 40
0.3703703703703703
 40
0.3703703703703703
 40
0.3703703703703703
 40
0.4074074074074074
 40
0.4074074074074074
 40
0.4074074074074074
 40
0.4074074074074074
 40
0.4444444444444444
 40
0.4444444444444444
 40
0.4444444444444444
 40
0.4444444444444444
 40
0.4814814814814815
 40
0.4814814814814815
 40
0.4814814814814815
 40
0.4814814814814815
 40
0.5185185185185185
 40
0.5185185185185185
 40
0.5185185185185185
 40
0.5185185185185185
 40
0.5555555555555556
 40
0.5555555555555556
 40
0.5555555555555556
 40
0.5555555555555556
 40
0.5925925925925926
 40
0.5925925925925926
 40
0.5925925925925926
 40
0.5925925925925926
 40
0.6296296296296297
 40
0.6296296296296297
 40
0.6296296296296297
 40
0.6296296296296297
 40
0.6666666666666666
 40
0.6666666666666666
 40
0.6666666666666666
 40
0.6666666666666666
 40
0.7037037037037037
 40
0.7037037037037037
 40
0.7037037037037037
 40
0.7037037037037037
 40
0.7407407407407407
 40
0.7407407407407407
 40
0.7407407407407407
 40
0.7407407407407407
 40
0.7777777777777778
 40
0.7777777777777778
 40
0.7777777777777778
 40
0.7777777777777778
 40
0.8148148148148148
 40
0.8148148148148148
 40
0.8148148148148148
 40
0.8148148148148148
 40
0.8518518518518519
 40
0.8518518518518519
 40
0.8518518518518519
 40
0.8518518518518519
 40
0.8888888888888888
 40
0.8888888888888888
 40
0.8888888888888888
 40
0.8888888888888888
 40
0.9259259259259259
 40
0.9259259259259259
 40
0.9259259259259259
 40
0.9259259259259259
 40
1.0
 40
1.0
 40
1.0
 40
1.0
 10
-1338.5504
 20
181.4697
 30
0.0
 10
-1339.6229
 20
180.2432
 30
0.0
 10
-1340.7446
 20
179.3122
 30
0.0
 10
-1341.9089
 20
178.6834
 30
0.0
 10
-1341.9089
 20
178.6834
 30
0.0
 10
-1343.0729
 20
178.0547
 30
0.0
 10
-1344.2514
 20
177.7442
 30
0.0
 10
-1345.4506
 20
177.7442
 30
0.0
 10
-1345.4506
 20
177.7442
 30
0.0
 10
-1347.5039
 20
177.7442
 30
0.0
 10
-1349.1901
 20
178.5049
 30
0.0
 10
-1350.5236
 20
180.0182
 30
0.0
 10
-1350.5236
 20
180.0182
 30
0.0
 10
-1351.8501
 20
181.5317
 30
0.0
 10
-1352.5134
 20
183.4797
 30
0.0
 10
-1352.5134
 20
185.8624
 30
0.0
 10
-1352.5134
 20
185.8624
 30
0.0
 10
-1352.5134
 20
187.3602
 30
0.0
 10
-1352.2734
 20
188.8427
 30
0.0
 10
-1351.7866
 20
190.3174
 30
0.0
 10
-1351.7866
 20
190.3174
 30
0.0
 10
-1351.3069
 20
191.7842
 30
0.0
 10
-1350.6294
 20
193.1037
 30
0.0
 10
-1349.7616
 20
194.2677
 30
0.0
 10
-1349.7616
 20
194.2677
 30
0.0
 10
-1348.7034
 20
195.7112
 30
0.0
 10
-1347.4616
 20
196.8212
 30
0.0
 10
-1346.0434
 20
197.6129
 30
0.0
 10
-1346.0434
 20
197.6129
 30
0.0
 10
-1344.6251
 20
198.3967
 30
0.0
 10
-1343.1646
 20
198.7922
 30
0.0
 10
-1341.6619
 20
198.7922
 30
0.0
 10
-1341.6619
 20
198.7922
 30
0.0
 10
-1339.1006
 20
198.7922
 30
0.0
 10
-1337.0546
 20
197.7757
 30
0.0
 10
-1335.5376
 20
195.7422
 30
0.0
 10
-1335.5376
 20
195.7422
 30
0.0
 10
-1334.0136
 20
193.7167
 30
0.0
 10
-1333.2516
 20
190.9692
 30
0.0
 10
-1333.2516
 20
187.5157
 30
0.0
 10
-1333.2516
 20
187.5157
 30
0.0
 10
-1333.2516
 20
184.9077
 30
0.0
 10
-1333.6186
 20
182.2999
 30
0.0
 10
-1334.3454
 20
179.6844
 30
0.0
 10
-1334.3454
 20
179.6844
 30
0.0
 10
-1335.0791
 20
177.0692
 30
0.0
 10
-1336.0951
 20
174.7174
 30
0.0
 10
-1337.4074
 20
172.6219
 30
0.0
 10
-1337.4074
 20
172.6219
 30
0.0
 10
-1338.9526
 20
170.1539
 30
0.0
 10
-1340.6599
 20
168.2679
 30
0.0
 10
-1342.5226
 20
166.9719
 30
0.0
 10
-1342.5226
 20
166.9719
 30
0.0
 10
-1344.3924
 20
165.6757
 30
0.0
 10
-1346.3256
 20
165.0317
 30
0.0
 10
-1348.3224
 20
165.0317
 30
0.0
 10
-1348.3224
 20
165.0317
 30
0.0
 10
-1350.1709
 20
165.0317
 30
0.0
 10
-1351.7019
 20
165.5592
 30
0.0
 10
-1352.9084
 20
166.6147
 30
0.0
 10
-1352.9084
 20
166.6147
 30
0.0
 10
-1354.1149
 20
167.6624
 30
0.0
 10
-1354.7146
 20
168.9742
 30
0.0
 10
-1354.7146
 20
170.5344
 30
0.0
 10
-1354.7146
 20
170.5344
 30
0.0
 10
-1354.7146
 20
171.5509
 30
0.0
 10
-1354.4536
 20
172.3582
 30
0.0
 10
-1353.9386
 20
172.9479
 30
0.0
 10
-1353.9386
 20
172.9479
 30
0.0
 10
-1353.4234
 20
173.5379
 30
0.0
 10
-1352.7109
 20
173.8327
 30
0.0
 10
-1351.8006
 20
173.8327
 30
0.0
 10
-1351.8006
 20
173.8327
 30
0.0
 10
-1351.1374
 20
173.8327
 30
0.0
 10
-1350.5941
 20
173.6077
 30
0.0
 10
-1350.1566
 20
173.1497
 30
0.0
 10
-1350.1566
 20
173.1497
 30
0.0
 10
-1349.7264
 20
172.6917
 30
0.0
 10
-1349.5076
 20
172.1174
 30
0.0
 10
-1349.5076
 20
171.4189
 30
0.0
 10
-1349.5076
 20
171.4189
 30
0.0
 10
-1349.5076
 20
170.8912
 30
0.0
 10
-1349.6841
 20
170.2779
 30
0.0
 10
-1350.0369
 20
169.5872
 30
0.0
 10
-1350.0369
 20
169.5872
 30
0.0
 10
-1350.3896
 20
168.8967
 30
0.0
 10
-1350.5659
 20
168.4309
 30
0.0
 10
-1350.5659
 20
168.1902
 30
0.0
 10
-1350.5659
 20
168.1902
 30
0.0
 10
-1350.5659
 20
167.8102
 30
0.0
 10
-1350.3471
 20
167.4997
 30
0.0
 10
-1349.9026
 20
167.2592
 30
0.0
 10
-1349.9026
 20
167.2592
 30
0.0
 10
-1349.4654
 20
167.0184
 30
0.0
 10
-1348.8796
 20
166.8942
 30
0.0
 10
-1348.1529
 20
166.8942
 30
0.0
 10
-1348.1529
 20
166.8942
 30
0.0
 10
-1346.0011
 20
166.8942
 30
0.0
 10
-1344.1454
 20
168.0897
 30
0.0
 10
-1342.5649
 20
170.4877
 30
0.0
 10
-1342.5649
 20
170.4877
 30
0.0
 10
-1340.9916
 20
172.8782
 30
0.0
 10
-1339.6511
 20
176.5412
 30
0.0
 10
-1338.5504
 20
181.4697
 30
0.0
  0
SPLINE
  5
4C
330
1F
100
AcDbEntity
  8
layer 1
 62
    41
370
     9
100
AcDbSpline
210
0.0
220
0.0
230
1.0
 70
    11
 71
     3
 72
    36
 73
    32
 74
     0
 42
0.0000000001
 43
0.0000000001
 12
1.0
 22
0.0
 32
0.0
 13
1.0
 23
0.0
 33
0.0
 40
0.0
 40
0.0
 40
0.0
 40
0.0
 40
0.1111111111111111
 40
0.1111111111111111
 40
0.1111111111111111
 40
0.1111111111111111
 40
0.2222222222222222
 40
0.2222222222222222
 40
0.2222222222222222
 40
0.2222222222222222
 40
0.3333333333333333
 40
0.3333333333333333
 40
0.3333333333333333
 40
0.3333333333333333
 40
0.4444444444444444
 40
0.4444444444444444
 40
0.4444444444444444
 40
0.4444444444444444
 40
0.5555555555555556
 40
0.5555555555555556
 40
0.5555555555555556
 40
0.5555555555555556
 40
0.6666666666666666
 40
0.6666666666666666
 40
0.6666666666666666
 40
0.6666666666666666
 40
0.7777777777777778
 40
0.7777777777777778
 40
0.7777777777777778
 40
0.7777777777777778
 40
1.0
 40
1.0
 40
1.0
 40
1.0
 10
-1276.6016
 20
130.6839
 30
0.0
 10
-1278.4504
 20
130.6839
 30
0.0
 10
-1280.0376
 20
129.6979
 30
0.0
 10
-1281.3569
 20
127.7192
 30
0.0
 10
-1281.3569
 20
127.7192
 30
0.0
 10
-1282.6834
 20
125.7399
 30
0.0
 10
-1283.3469
 20
123.3104
 30
0.0
 10
-1283.3469
 20
120.4314
 30
0.0
 10
-1283.3469
 20
120.4314
 30
0.0
 10
-1283.3469
 20
118.5687
 30
0.0
 10
-1282.9444
 20
117.0862
 30
0.0
 10
-1282.1471
 20
115.9844
 30
0.0
 10
-1282.1471
 20
115.9844
 30
0.0
 10
-1281.3431
 20
114.8899
 30
0.0
 10
-1280.2636
 20
114.3392
 30
0.0
 10
-1278.8946
 20
114.3392
 30
0.0
 10
-1278.8946
 20
114.3392
 30
0.0
 10
-1277.0111
 20
114.3392
 30
0.0
 10
-1275.4306
 20
115.3712
 30
0.0
 10
-1274.1604
 20
117.4434
 30
0.0
 10
-1274.1604
 20
117.4434
 30
0.0
 10
-1272.8904
 20
119.5079
 30
0.0
 10
-1272.2554
 20
122.1077
 30
0.0
 10
-1272.2554
 20
125.2277
 30
0.0
 10
-1272.2554
 20
125.2277
 30
0.0
 10
-1272.2554
 20
126.9739
 30
0.0
 10
-1272.6364
 20
128.3167
 30
0.0
 10
-1273.3914
 20
129.2637
 30
0.0
 10
-1273.3914
 20
129.2637
 30
0.0
 10
-1274.1536
 20
130.2104
 30
0.0
 10
-1275.2189
 20
130.6839
 30
0.0
 10
-1276.6016
 20
130.6839
 30
0.0
  0
SPLINE
  5
4D
330
1F
100
AcDbEntity
  8
layer 1
 62
    41
370
     9
100
AcDbSpline
210
0.0
220
0.0
230
1.0
 70
    11
 71
     3
 72
   108
 73
   104
 74
     0
 42
0.0000000001
 43
0.0000000001
 12
1.0
 22
0.0
 32
0.0
 13
1.0
 23
0.0
 33
0.0
 40
0.0
 40
0.0
 40
0.0
 40
0.0
 40
0.037037037037037
 40
0.037037037037037
 40
0.037037037037037
 40
0.037037037037037
 40
0.0740740740740741
 40
0.0740740740740741
 40
0.0740740740740741
 40
0.0740740740740741
 40
0.1111111111111111
 40
0.1111111111111111
 40
0.1111111111111111
 40
0.1111111111111111
 40
0.1481481481481481
 40
0.1481481481481481
 40
0.1481481481481481
 40
0.1481481481481481
 40
0.1851851851851852
 40
0.1851851851851852
 40
0.1851851851851852
 40
0.1851851851851852
 40
0.2222222222222222
 40
0.2222222222222222
 40
0.2222222222222222
 40
0.2222222222222222
 40
0.2592592592592592
 40
0.2592592592592592
 40
0.2592592592592592
 40
0.2592592592592592
 40
0.2962962962962963
 40
0.2962962962962963
 40
0.2962962962962963
 40
0.2962962962962963
 40
0.3333333333333333
 40
0.3333333333333333
 40
0.3333333333333333
 40
0.3333333333333333
 40
0.3703703703703703
 40
0.3703703703703703
 40
0.3703703703703703
 40
0.3703703703703703
 40
0.4074074074074074
 40
0.4074074074074074
 40
0.4074074074074074
 40
0.4074074074074074
 40
0.4444444444444444
 40
0.4444444444444444
 40
0.4444444444444444
 40
0.4444444444444444
 40
0.4814814814814815
 40
0.4814814814814815
 40
0.4814814814814815
 40
0.4814814814814815
 40
0.5185185185185185
 40
0.5185185185185185
 40
0.5185185185185185
 40
0.5185185185185185
 40
0.5555555555555556
 40
0.5555555555555556
 40
0.5555555555555556
 40
0.5555555555555556
 40
0.5925925925925926
 40
0.5925925925925926
 40
0.5925925925925926
 40
0.5925925925925926
 40
0.6296296296296297
 40
0.6296296296296297
 40
0.6296296296296297
 40
0.6296296296296297
 40
0.6666666666666666
 40
0.6666666666666666
 40
0.6666666666666666
 40
0.6666666666666666
 40
0.7037037037037037
 40
0.7037037037037037
 40
0.7037037037037037
 40
0.7037037037037037
 40
0.7407407407407407
 40
0.7407407407407407
 40
0.7407407407407407
 40
0.7407407407407407
 40
0.7777777777777778
 40
0.7777777777777778
 40
0.7777777777777778
 40
0.7777777777777778
 40
0.8148148148148148
 40
0.8148148148148148
 40
0.8148148148148148
 40
0.8148148148148148
 40
0.8518518518518519
 40
0.8518518518518519
 40
0.8518518518518519
 40
0.8518518518518519
 40
0.8888888888888888
 40
0.8888888888888888
 40
0.8888888888888888
 40
0.8888888888888888
 40
0.9259259259259259
 40
0.9259259259259259
 40
0.9259259259259259
 40
0.9259259259259259
 40
1.0
 40
1.0
 40
1.0
 40
1.0
 10
-1281.9566
 20
129.6592
 30
0.0
 10
-1280.8844
 20
130.8854
 30
0.0
 10
-1279.7624
 20
131.8169
 30
0.0
 10
-1278.5914
 20
132.4457
 30
0.0
 10
-1278.5914
 20
132.4457
 30
0.0
 10
-1277.4199
 20
133.0742
 30
0.0
 10
-1276.2419
 20
133.3847
 30
0.0
 10
-1275.0494
 20
133.3847
 30
0.0
 10
-1275.0494
 20
133.3847
 30
0.0
 10
-1272.9964
 20
133.3847
 30
0.0
 10
-1271.3031
 20
132.6239
 30
0.0
 10
-1269.9764
 20
131.1107
 30
0.0
 10
-1269.9764
 20
131.1107
 30
0.0
 10
-1268.6431
 20
129.5972
 30
0.0
 10
-1267.9796
 20
127.6494
 30
0.0
 10
-1267.9796
 20
125.2662
 30
0.0
 10
-1267.9796
 20
125.2662
 30
0.0
 10
-1267.9796
 20
123.7842
 30
0.0
 10
-1268.2196
 20
122.3094
 30
0.0
 10
-1268.7064
 20
120.8352
 30
0.0
 10
-1268.7064
 20
120.8352
 30
0.0
 10
-1269.1861
 20
119.3682
 30
0.0
 10
-1269.8706
 20
118.0409
 30
0.0
 10
-1270.7666
 20
116.8612
 30
0.0
 10
-1270.7666
 20
116.8612
 30
0.0
 10
-1271.8321
 20
115.4177
 30
0.0
 10
-1273.0666
 20
114.3079
 30
0.0
 10
-1274.4711
 20
113.5162
 30
0.0
 10
-1274.4711
 20
113.5162
 30
0.0
 10
-1275.8749
 20
112.7324
 30
0.0
 10
-1277.3214
 20
112.3364
 30
0.0
 10
-1278.8101
 20
112.3364
 30
0.0
 10
-1278.8101
 20
112.3364
 30
0.0
 10
-1281.3714
 20
112.3364
 30
0.0
 10
-1283.4171
 20
113.3529
 30
0.0
 10
-1284.9484
 20
115.3867
 30
0.0
 10
-1284.9484
 20
115.3867
 30
0.0
 10
-1286.4794
 20
117.4124
 30
0.0
 10
-1287.2416
 20
120.1594
 30
0.0
 10
-1287.2416
 20
123.6134
 30
0.0
 10
-1287.2416
 20
123.6134
 30
0.0
 10
-1287.2416
 20
126.2214
 30
0.0
 10
-1286.8746
 20
128.8287
 30
0.0
 10
-1286.1479
 20
131.4444
 30
0.0
 10
-1286.1479
 20
131.4444
 30
0.0
 10
-1285.4141
 20
134.0599
 30
0.0
 10
-1284.3981
 20
136.4117
 30
0.0
 10
-1283.0929
 20
138.5069
 30
0.0
 10
-1283.0929
 20
138.5069
 30
0.0
 10
-1281.5476
 20
140.9749
 30
0.0
 10
-1279.8474
 20
142.8609
 30
0.0
 10
-1277.9844
 20
144.1569
 30
0.0
 10
-1277.9844
 20
144.1569
 30
0.0
 10
-1276.1289
 20
145.4532
 30
0.0
 10
-1274.1889
 20
146.0974
 30
0.0
 10
-1272.1639
 20
146.0974
 30
0.0
 10
-1272.1639
 20
146.0974
 30
0.0
 10
-1270.3154
 20
146.0974
 30
0.0
 10
-1268.7911
 20
145.5697
 30
0.0
 10
-1267.5846
 20
144.5139
 30
0.0
 10
-1267.5846
 20
144.5139
 30
0.0
 10
-1266.3784
 20
143.4662
 30
0.0
 10
-1265.7786
 20
142.1549
 30
0.0
 10
-1265.7786
 20
140.5947
 30
0.0
 10
-1265.7786
 20
140.5947
 30
0.0
 10
-1265.7786
 20
139.5779
 30
0.0
 10
-1266.0394
 20
138.7707
 30
0.0
 10
-1266.5616
 20
138.1809
 30
0.0
 10
-1266.5616
 20
138.1809
 30
0.0
 10
-1267.0909
 20
137.5912
 30
0.0
 10
-1267.7961
 20
137.2964
 30
0.0
 10
-1268.6926
 20
137.2964
 30
0.0
 10
-1268.6926
 20
137.2964
 30
0.0
 10
-1269.3556
 20
137.2964
 30
0.0
 10
-1269.9061
 20
137.5289
 30
0.0
 10
-1270.3576
 20
138.0024
 30
0.0
 10
-1270.3576
 20
138.0024
 30
0.0
 10
-1270.8019
 20
138.4682
 30
0.0
 10
-1271.0279
 20
139.0579
 30
0.0
 10
-1271.0279
 20
139.7564
 30
0.0
 10
-1271.0279
 20
139.7564
 30
0.0
 10
-1271.0279
 20
140.2842
 30
0.0
 10
-1270.8514
 20
140.8897
 30
0.0
 10
-1270.4986
 20
141.5649
 30
0.0
 10
-1270.4986
 20
141.5649
 30
0.0
 10
-1270.1456
 20
142.2399
 30
0.0
 10
-1269.9694
 20
142.6979
 30
0.0
 10
-1269.9694
 20
142.9384
 30
0.0
 10
-1269.9694
 20
142.9384
 30
0.0
 10
-1269.9694
 20
143.3344
 30
0.0
 10
-1270.1884
 20
143.6527
 30
0.0
 10
-1270.6186
 20
143.9087
 30
0.0
 10
-1270.6186
 20
143.9087
 30
0.0
 10
-1271.0561
 20
144.1569
 30
0.0
 10
-1271.6276
 20
144.2814
 30
0.0
 10
-1272.3471
 20
144.2814
 30
0.0
 10
-1272.3471
 20
144.2814
 30
0.0
 10
-1274.4849
 20
144.2814
 30
0.0
 10
-1276.3404
 20
143.0782
 30
0.0
 10
-1277.9211
 20
140.6802
 30
0.0
 10
-1277.9211
 20
140.6802
 30
0.0
 10
-1279.4946
 20
138.2744
 30
0.0
 10
-1280.8419
 20
134.6032
 30
0.0
 10
-1281.9566
 20
129.6592
 30
0.0
  0
SPLINE
  5
4E
330
1F
100
AcDbEntity
  8
layer 1
 62
    41
370
     9
100
AcDbSpline
210
0.0
220
0.0
230
1.0
 70
    11
 71
     3
 72
   188
 73
   184
 74
     0
 42
0.0000000001
 43
0.0000000001
 12
1.0
 22
0.0
 32
0.0
 13
1.0
 23
0.0
 33
0.0
 40
0.0
 40
0.0
 40
0.0
 40
0.0
 40
0.0212765957446809
 40
0.0212765957446809
 40
0.0212765957446809
 40
0.0212765957446809
 40
0.0425531914893617
 40
0.0425531914893617
 40
0.0425531914893617
 40
0.0425531914893617
 40
0.0638297872340425
 40
0.0638297872340425
 40
0.0638297872340425
 40
0.0638297872340425
 40
0.0851063829787234
 40
0.0851063829787234
 40
0.0851063829787234
 40
0.0851063829787234
 40
0.1063829787234043
 40
0.1063829787234043
 40
0.1063829787234043
 40
0.1063829787234043
 40
0.1276595744680851
 40
0.1276595744680851
 40
0.1276595744680851
 40
0.1276595744680851
 40
0.148936170212766
 40
0.148936170212766
 40
0.148936170212766
 40
0.148936170212766
 40
0.1702127659574468
 40
0.1702127659574468
 40
0.1702127659574468
 40
0.1702127659574468
 40
0.1914893617021277
 40
0.1914893617021277
 40
0.1914893617021277
 40
0.1914893617021277
 40
0.2127659574468085
 40
0.2127659574468085
 40
0.2127659574468085
 40
0.2127659574468085
 40
0.2340425531914894
 40
0.2340425531914894
 40
0.2340425531914894
 40
0.2340425531914894
 40
0.2553191489361702
 40
0.2553191489361702
 40
0.2553191489361702
 40
0.2553191489361702
 40
0.2765957446808511
 40
0.2765957446808511
 40
0.2765957446808511
 40
0.2765957446808511
 40
0.2978723404255319
 40
0.2978723404255319
 40
0.2978723404255319
 40
0.2978723404255319
 40
0.3191489361702128
 40
0.3191489361702128
 40
0.3191489361702128
 40
0.3191489361702128
 40
0.3404255319148936
 40
0.3404255319148936
 40
0.3404255319148936
 40
0.3404255319148936
 40
0.3617021276595745
 40
0.3617021276595745
 40
0.3617021276595745
 40
0.3617021276595745
 40
0.3829787234042553
 40
0.3829787234042553
 40
0.3829787234042553
 40
0.3829787234042553
 40
0.4042553191489361
 40
0.4042553191489361
 40
0.4042553191489361
 40
0.4042553191489361
 40
0.425531914893617
 40
0.425531914893617
 40
0.425531914893617
 40
0.425531914893617
 40
0.4468085106382979
 40
0.4468085106382979
 40
0.4468085106382979
 40
0.4468085106382979
 40
0.4680851063829787
 40
0.4680851063829787
 40
0.4680851063829787
 40
0.4680851063829787
 40
0.4893617021276596
 40
0.4893617021276596
 40
0.4893617021276596
 40
0.4893617021276596
 40
0.5106382978723404
 40
0.5106382978723404
 40
0.5106382978723404
 40
0.5106382978723404
 40
0.5319148936170213
 40
0.5319148936170213
 40
0.5319148936170213
 40
0.5319148936170213
 40
0.5531914893617021
 40
0.5531914893617021
 40
0.5531914893617021
 40
0.5531914893617021
 40
0.574468085106383
 40
0.574468085106383
 40
0.574468085106383
 40
0.574468085106383
 40
0.5957446808510638
 40
0.5957446808510638
 40
0.5957446808510638
 40
0.5957446808510638
 40
0.6170212765957447
 40
0.6170212765957447
 40
0.6170212765957447
 40
0.6170212765957447
 40
0.6382978723404256
 40
0.6382978723404256
 40
0.6382978723404256
 40
0.6382978723404256
 40
0.6595744680851063
 40
0.6595744680851063
 40
0.6595744680851063
 40
0.6595744680851063
 40
0.6808510638297872
 40
0.6808510638297872
 40
0.6808510638297872
 40
0.6808510638297872
 40
0.7021276595744681
 40
0.7021276595744681
 40
0.7021276595744681
 40
0.7021276595744681
 40
0.723404255319149
 40
0.723404255319149
 40
0.723404255319149
 40
0.723404255319149
 40
0.7446808510638298
 40
0.7446808510638298
 40
0.7446808510638298
 40
0.7446808510638298
 40
0.7659574468085106
 40
0.7659574468085106
 40
0.7659574468085106
 40
0.7659574468085106
 40
0.7872340425531915
 40
0.7872340425531915
 40
0.7872340425531915
 40
0.7872340425531915
 40
0.8085106382978723
 40
0.8085106382978723
 40
0.8085106382978723
 40
0.8085106382978723
 40
0.8297872340425532
 40
0.8297872340425532
 40
0.8297872340425532
 40
0.8297872340425532
 40
0.851063829787234
 40
0.851063829787234
 40
0.851063829787234
 40
0.851063829787234
 40
0.8723404255319149
 40
0.8723404255319149
 40
0.8723404255319149
 40
0.8723404255319149
 40
0.8936170212765957
 40
0.8936170212765957
 40
0.8936170212765957
 40
0.8936170212765957
 40
0.9148936170212766
 40
0.9148936170212766
 40
0.9148936170212766
 40
0.9148936170212766
 40
0.9361702127659575
 40
0.9361702127659575
 40
0.9361702127659575
 40
0.9361702127659575
 40
0.9574468085106383
 40
0.9574468085106383
 40
0.9574468085106383
 40
0.9574468085106383
 40
1.0
 40
1.0
 40
1.0
 40
1.0
 10
-1209.1946
 20
182.5262
 30
0.0
 10
-1207.5436
 20
182.0762
 30
0.0
 10
-1206.2879
 20
181.2609
 30
0.0
 10
-1205.4411
 20
180.0969
 30
0.0
 10
-1205.4411
 20
180.0969
 30
0.0
 10
-1204.5944
 20
178.9329
 30
0.0
 10
-1204.1711
 20
177.4272
 30
0.0
 10
-1204.1711
 20
175.5954
 30
0.0
 10
-1204.1711
 20
175.5954
 30
0.0
 10
-1204.1711
 20
172.3512
 30
0.0
 10
-1205.2224
 20
169.7127
 30
0.0
 10
-1207.3249
 20
167.6637
 30
0.0
 10
-1207.3249
 20
167.6637
 30
0.0
 10
-1209.4276
 20
165.6227
 30
0.0
 10
-1212.1229
 20
164.5979
 30
0.0
 10
-1215.4176
 20
164.5979
 30
0.0
 10
-1215.4176
 20
164.5979
 30
0.0
 10
-1217.8024
 20
164.5979
 30
0.0
 10
-1219.7639
 20
165.2809
 30
0.0
 10
-1221.2949
 20
166.6547
 30
0.0
 10
-1221.2949
 20
166.6547
 30
0.0
 10
-1222.8331
 20
168.0284
 30
0.0
 10
-1223.6021
 20
169.7669
 30
0.0
 10
-1223.6021
 20
171.8702
 30
0.0
 10
-1223.6021
 20
171.8702
 30
0.0
 10
-1223.6021
 20
173.1584
 30
0.0
 10
-1223.3199
 20
174.1907
 30
0.0
 10
-1222.7554
 20
174.9514
 30
0.0
 10
-1222.7554
 20
174.9514
 30
0.0
 10
-1222.1911
 20
175.7197
 30
0.0
 10
-1221.4431
 20
176.1002
 30
0.0
 10
-1220.5046
 20
176.1002
 30
0.0
 10
-1220.5046
 20
176.1002
 30
0.0
 10
-1219.7074
 20
176.1002
 30
0.0
 10
-1219.0654
 20
175.8362
 30
0.0
 10
-1218.5786
 20
175.3159
 30
0.0
 10
-1218.5786
 20
175.3159
 30
0.0
 10
-1218.0916
 20
174.7959
 30
0.0
 10
-1217.8449
 20
174.1052
 30
0.0
 10
-1217.8449
 20
173.2594
 30
0.0
 10
-1217.8449
 20
173.2594
 30
0.0
 10
-1217.8449
 20
172.7704
 30
0.0
 10
-1217.9366
 20
172.3437
 30
0.0
 10
-1218.1271
 20
171.9632
 30
0.0
 10
-1218.1271
 20
171.9632
 30
0.0
 10
-1218.3104
 20
171.5829
 30
0.0
 10
-1218.5996
 20
171.2417
 30
0.0
 10
-1218.9806
 20
170.9389
 30
0.0
 10
-1218.9806
 20
170.9389
 30
0.0
 10
-1219.1501
 20
170.8069
 30
0.0
 10
-1219.4041
 20
170.6672
 30
0.0
 10
-1219.7499
 20
170.5274
 30
0.0
 10
-1219.7499
 20
170.5274
 30
0.0
 10
-1220.3424
 20
170.2869
 30
0.0
 10
-1220.6389
 20
169.9377
 30
0.0
 10
-1220.6389
 20
169.4874
 30
0.0
 10
-1220.6389
 20
169.4874
 30
0.0
 10
-1220.6389
 20
168.7269
 30
0.0
 10
-1220.1731
 20
168.0439
 30
0.0
 10
-1219.2419
 20
167.4307
 30
0.0
 10
-1219.2419
 20
167.4307
 30
0.0
 10
-1218.3104
 20
166.8177
 30
0.0
 10
-1217.1956
 20
166.5072
 30
0.0
 10
-1215.8974
 20
166.5072
 30
0.0
 10
-1215.8974
 20
166.5072
 30
0.0
 10
-1213.7456
 20
166.5072
 30
0.0
 10
-1211.9816
 20
167.4387
 30
0.0
 10
-1210.5989
 20
169.3012
 30
0.0
 10
-1210.5989
 20
169.3012
 30
0.0
 10
-1209.2229
 20
171.1639
 30
0.0
 10
-1208.5314
 20
173.5697
 30
0.0
 10
-1208.5314
 20
176.5034
 30
0.0
 10
-1208.5314
 20
176.5034
 30
0.0
 10
-1208.5314
 20
178.1099
 30
0.0
 10
-1208.8279
 20
179.3597
 30
0.0
 10
-1209.4134
 20
180.2519
 30
0.0
 10
-1209.4134
 20
180.2519
 30
0.0
 10
-1209.9991
 20
181.1447
 30
0.0
 10
-1210.8174
 20
181.5949
 30
0.0
 10
-1211.8616
 20
181.5949
 30
0.0
 10
-1211.8616
 20
181.5949
 30
0.0
 10
-1212.3204
 20
181.5949
 30
0.0
 10
-1212.8424
 20
181.5484
 30
0.0
 10
-1213.4281
 20
181.4474
 30
0.0
 10
-1213.4281
 20
181.4474
 30
0.0
 10
-1214.0136
 20
181.3464
 30
0.0
 10
-1214.3664
 20
181.2997
 30
0.0
 10
-1214.4934
 20
181.2997
 30
0.0
 10
-1214.4934
 20
181.2997
 30
0.0
 10
-1214.8534
 20
181.2997
 30
0.0
 10
-1215.1426
 20
181.4164
 30
0.0
 10
-1215.3614
 20
181.6414
 30
0.0
 10
-1215.3614
 20
181.6414
 30
0.0
 10
-1215.5871
 20
181.8667
 30
0.0
 10
-1215.6929
 20
182.1614
 30
0.0
 10
-1215.6929
 20
182.5262
 30
0.0
 10
-1215.6929
 20
182.5262
 30
0.0
 10
-1215.6929
 20
182.8754
 30
0.0
 10
-1215.5799
 20
183.1779
 30
0.0
 10
-1215.3541
 20
183.4344
 30
0.0
 10
-1215.3541
 20
183.4344
 30
0.0
 10
-1215.1284
 20
183.6982
 30
0.0
 10
-1214.8534
 20
183.8224
 30
0.0
 10
-1214.5359
 20
183.8224
 30
0.0
 10
-1214.5359
 20
183.8224
 30
0.0
 10
-1214.4159
 20
183.8224
 30
0.0
 10
-1214.0984
 20
183.7757
 30
0.0
 10
-1213.5974
 20
183.6904
 30
0.0
 10
-1213.5974
 20
183.6904
 30
0.0
 10
-1213.0894
 20
183.5972
 30
0.0
 10
-1212.6589
 20
183.5507
 30
0.0
 10
-1212.3061
 20
183.5507
 30
0.0
 10
-1212.3061
 20
183.5507
 30
0.0
 10
-1210.5916
 20
183.5507
 30
0.0
 10
-1209.1594
 20
184.3267
 30
0.0
 10
-1207.9954
 20
185.8712
 30
0.0
 10
-1207.9954
 20
185.8712
 30
0.0
 10
-1206.8311
 20
187.4157
 30
0.0
 10
-1206.2454
 20
189.3249
 30
0.0
 10
-1206.2454
 20
191.5989
 30
0.0
 10
-1206.2454
 20
191.5989
 30
0.0
 10
-1206.2454
 20
193.0889
 30
0.0
 10
-1206.6406
 20
194.2377
 30
0.0
 10
-1207.4379
 20
195.0449
 30
0.0
 10
-1207.4379
 20
195.0449
 30
0.0
 10
-1208.2281
 20
195.8597
 30
0.0
 10
-1209.3569
 20
196.2634
 30
0.0
 10
-1210.8174
 20
196.2634
 30
0.0
 10
-1210.8174
 20
196.2634
 30
0.0
 10
-1211.9604
 20
196.2634
 30
0.0
 10
-1212.9694
 20
195.9994
 30
0.0
 10
-1213.8514
 20
195.4717
 30
0.0
 10
-1213.8514
 20
195.4717
 30
0.0
 10
-1214.7334
 20
194.9362
 30
0.0
 10
-1215.1779
 20
194.3929
 30
0.0
 10
-1215.1779
 20
193.8339
 30
0.0
 10
-1215.1779
 20
193.8339
 30
0.0
 10
-1215.1779
 20
193.6244
 30
0.0
 10
-1214.9026
 20
193.2287
 30
0.0
 10
-1214.3524
 20
192.6467
 30
0.0
 10
-1214.3524
 20
192.6467
 30
0.0
 10
-1213.8019
 20
192.0567
 30
0.0
 10
-1213.5269
 20
191.4204
 30
0.0
 10
-1213.5269
 20
190.7219
 30
0.0
 10
-1213.5269
 20
190.7219
 30
0.0
 10
-1213.5269
 20
189.9999
 30
0.0
 10
-1213.7666
 20
189.3792
 30
0.0
 10
-1214.2464
 20
188.8747
 30
0.0
 10
-1214.2464
 20
188.8747
 30
0.0
 10
-1214.7334
 20
188.3704
 30
0.0
 10
-1215.3259
 20
188.1142
 30
0.0
 10
-1216.0244
 20
188.1142
 30
0.0
 10
-1216.0244
 20
188.1142
 30
0.0
 10
-1216.8076
 20
188.1142
 30
0.0
 10
-1217.4356
 20
188.4014
 30
0.0
 10
-1217.9011
 20
188.9679
 30
0.0
 10
-1217.9011
 20
188.9679
 30
0.0
 10
-1218.3739
 20
189.5344
 30
0.0
 10
-1218.6069
 20
190.2949
 30
0.0
 10
-1218.6069
 20
191.2497
 30
0.0
 10
-1218.6069
 20
191.2497
 30
0.0
 10
-1218.6069
 20
193.1667
 30
0.0
 10
-1217.8024
 20
194.8119
 30
0.0
 10
-1216.2009
 20
196.1779
 30
0.0
 10
-1216.2009
 20
196.1779
 30
0.0
 10
-1214.5921
 20
197.5362
 30
0.0
 10
-1212.6236
 20
198.2192
 30
0.0
 10
-1210.2814
 20
198.2192
 30
0.0
 10
-1210.2814
 20
198.2192
 30
0.0
 10
-1207.8119
 20
198.2192
 30
0.0
 10
-1205.8364
 20
197.5284
 30
0.0
 10
-1204.3404
 20
196.1467
 30
0.0
 10
-1204.3404
 20
196.1467
 30
0.0
 10
-1202.8446
 20
194.7732
 30
0.0
 10
-1202.0969
 20
192.9569
 30
0.0
 10
-1202.0969
 20
190.7142
 30
0.0
 10
-1202.0969
 20
190.7142
 30
0.0
 10
-1202.0969
 20
188.8517
 30
0.0
 10
-1202.7106
 20
187.2139
 30
0.0
 10
-1203.9314
 20
185.8012
 30
0.0
 10
-1203.9314
 20
185.8012
 30
0.0
 10
-1205.1589
 20
184.3889
 30
0.0
 10
-1206.9086
 20
183.3024
 30
0.0
 10
-1209.1946
 20
182.5262
 30
0.0
  0
SPLINE
  5
4F
330
1F
100
AcDbEntity
  8
layer 1
 62
    41
370
     9
100
AcDbSpline
210
0.0
220
0.0
230
1.0
 70
    11
 71
     3
 72
    36
 73
    32
 74
     0
 42
0.0000000001
 43
0.0000000001
 12
1.0
 22
0.0
 32
0.0
 13
1.0
 23
0.0
 33
0.0
 40
0.0
 40
0.0
 40
0.0
 40
0.0
 40
0.1111111111111111
 40
0.1111111111111111
 40
0.1111111111111111
 40
0.1111111111111111
 40
0.2222222222222222
 40
0.2222222222222222
 40
0.2222222222222222
 40
0.2222222222222222
 40
0.3333333333333333
 40
0.3333333333333333
 40
0.3333333333333333
 40
0.3333333333333333
 40
0.4444444444444444
 40
0.4444444444444444
 40
0.4444444444444444
 40
0.4444444444444444
 40
0.5555555555555556
 40
0.5555555555555556
 40
0.5555555555555556
 40
0.5555555555555556
 40
0.6666666666666666
 40
0.6666666666666666
 40
0.6666666666666666
 40
0.6666666666666666
 40
0.7777777777777778
 40
0.7777777777777778
 40
0.7777777777777778
 40
0.7777777777777778
 40
1.0
 40
1.0
 40
1.0
 40
1.0
 10
-1308.9666
 20
237.9299
 30
0.0
 10
-1308.9666
 20
237.9299
 30
0.0
 10
-1308.9666
 20
237.9299
 30
0.0
 10
-1308.9666
 20
237.9299
 30
0.0
 10
-1308.9666
 20
237.9299
 30
0.0
 10
-1308.3994
 20
238.2574
 30
0.0
 10
-1307.6676
 20
238.0614
 30
0.0
 10
-1307.3404
 20
237.4944
 30
0.0
 10
-1307.3404
 20
237.4944
 30
0.0
 10
-1307.3404
 20
237.4944
 30
0.0
 10
-1299.1049
 20
223.2302
 30
0.0
 10
-1299.1049
 20
223.2302
 30
0.0
 10
-1299.1049
 20
223.2302
 30
0.0
 10
-1298.7774
 20
222.6629
 30
0.0
 10
-1298.9734
 20
221.9314
 30
0.0
 10
-1299.5406
 20
221.6039
 30
0.0
 10
-1299.5406
 20
221.6039
 30
0.0
 10
-1299.5406
 20
221.6039
 30
0.0
 10
-1299.5409
 20
221.6037
 30
0.0
 10
-1299.5409
 20
221.6037
 30
0.0
 10
-1299.5409
 20
221.6037
 30
0.0
 10
-1300.1081
 20
221.2762
 30
0.0
 10
-1300.8396
 20
221.4724
 30
0.0
 10
-1301.1671
 20
222.0394
 30
0.0
 10
-1301.1671
 20
222.0394
 30
0.0
 10
-1301.1671
 20
222.0394
 30
0.0
 10
-1309.4026
 20
236.3037
 30
0.0
 10
-1309.4026
 20
236.3037
 30
0.0
 10
-1309.4026
 20
236.3037
 30
0.0
 10
-1309.7299
 20
236.8707
 30
0.0
 10
-1309.5339
 20
237.6024
 30
0.0
 10
-1308.9666
 20
237.9299
 30
0.0
  0
SPLINE
  5
50
330
1F
100
AcDbEntity
  8
layer 1
 62
    41
370
     9
100
AcDbSpline
210
0.0
220
0.0
230
1.0
 70
    11
 71
     3
 72
    36
 73
    32
 74
     0
 42
0.0000000001
 43
0.0000000001
 12
1.0
 22
0.0
 32
0.0
 13
1.0
 23
0.0
 33
0.0
 40
0.0
 40
0.0
 40
0.0
 40
0.0
 40
0.1111111111111111
 40
0.1111111111111111
 40
0.1111111111111111
 40
0.1111111111111111
 40
0.2222222222222222
 40
0.2222222222222222
 40
0.2222222222222222
 40
0.2222222222222222
 40
0.3333333333333333
 40
0.3333333333333333
 40
0.3333333333333333
 40
0.3333333333333333
 40
0.4444444444444444
 40
0.4444444444444444
 40
0.4444444444444444
 40
0.4444444444444444
 40
0.5555555555555556
 40
0.5555555555555556
 40
0.5555555555555556
 40
0.5555555555555556
 40
0.6666666666666666
 40
0.6666666666666666
 40
0.6666666666666666
 40
0.6666666666666666
 40
0.7777777777777778
 40
0.7777777777777778
 40
0.7777777777777778
 40
0.7777777777777778
 40
1.0
 40
1.0
 40
1.0
 40
1.0
 10
-1276.5101
 20
243.6427
 30
0.0
 10
-1276.5101
 20
243.6427
 30
0.0
 10
-1276.5099
 20
243.6427
 30
0.0
 10
-1276.5099
 20
243.6427
 30
0.0
 10
-1276.5099
 20
243.6427
 30
0.0
 10
-1275.8549
 20
243.6427
 30
0.0
 10
-1275.3194
 20
243.1072
 30
0.0
 10
-1275.3194
 20
242.4522
 30
0.0
 10
-1275.3194
 20
242.4522
 30
0.0
 10
-1275.3194
 20
242.4522
 30
0.0
 10
-1275.3194
 20
225.9814
 30
0.0
 10
-1275.3194
 20
225.9814
 30
0.0
 10
-1275.3194
 20
225.9814
 30
0.0
 10
-1275.3194
 20
225.3264
 30
0.0
 10
-1275.8549
 20
224.7909
 30
0.0
 10
-1276.5099
 20
224.7909
 30
0.0
 10
-1276.5099
 20
224.7909
 30
0.0
 10
-1276.5099
 20
224.7909
 30
0.0
 10
-1276.5101
 20
224.7909
 30
0.0
 10
-1276.5101
 20
224.7909
 30
0.0
 10
-1276.5101
 20
224.7909
 30
0.0
 10
-1277.1651
 20
224.7909
 30
0.0
 10
-1277.7006
 20
225.3264
 30
0.0
 10
-1277.7006
 20
225.9814
 30
0.0
 10
-1277.7006
 20
225.9814
 30
0.0
 10
-1277.7006
 20
225.9814
 30
0.0
 10
-1277.7006
 20
242.4522
 30
0.0
 10
-1277.7006
 20
242.4522
 30
0.0
 10
-1277.7006
 20
242.4522
 30
0.0
 10
-1277.7006
 20
243.1072
 30
0.0
 10
-1277.1651
 20
243.6427
 30
0.0
 10
-1276.5101
 20
243.6427
 30
0.0
  0
SPLINE
  5
51
330
1F
100
AcDbEntity
  8
layer 1
 62
    41
370
     9
100
AcDbSpline
210
0.0
220
0.0
230
1.0
 70
    11
 71
     3
 72
    36
 73
    32
 74
     0
 42
0.0000000001
 43
0.0000000001
 12
1.0
 22
0.0
 32
0.0
 13
1.0
 23
0.0
 33
0.0
 40
0.0
 40
0.0
 40
0.0
 40
0.0
 40
0.1111111111111111
 40
0.1111111111111111
 40
0.1111111111111111
 40
0.1111111111111111
 40
0.2222222222222222
 40
0.2222222222222222
 40
0.2222222222222222
 40
0.2222222222222222
 40
0.3333333333333333
 40
0.3333333333333333
 40
0.3333333333333333
 40
0.3333333333333333
 40
0.4444444444444444
 40
0.4444444444444444
 40
0.4444444444444444
 40
0.4444444444444444
 40
0.5555555555555556
 40
0.5555555555555556
 40
0.5555555555555556
 40
0.5555555555555556
 40
0.6666666666666666
 40
0.6666666666666666
 40
0.6666666666666666
 40
0.6666666666666666
 40
0.7777777777777778
 40
0.7777777777777778
 40
0.7777777777777778
 40
0.7777777777777778
 40
1.0
 40
1.0
 40
1.0
 40
1.0
 10
-1339.5176
 20
218.0932
 30
0.0
 10
-1339.5176
 20
218.0932
 30
0.0
 10
-1339.5174
 20
218.0932
 30
0.0
 10
-1339.5174
 20
218.0932
 30
0.0
 10
-1339.5174
 20
218.0932
 30
0.0
 10
-1339.1899
 20
218.6604
 30
0.0
 10
-1338.4584
 20
218.8564
 30
0.0
 10
-1337.8914
 20
218.5292
 30
0.0
 10
-1337.8914
 20
218.5292
 30
0.0
 10
-1337.8914
 20
218.5292
 30
0.0
 10
-1323.6271
 20
210.2937
 30
0.0
 10
-1323.6271
 20
210.2937
 30
0.0
 10
-1323.6271
 20
210.2937
 30
0.0
 10
-1323.0599
 20
209.9662
 30
0.0
 10
-1322.8639
 20
209.2347
 30
0.0
 10
-1323.1914
 20
208.6674
 30
0.0
 10
-1323.1914
 20
208.6674
 30
0.0
 10
-1323.1914
 20
208.6674
 30
0.0
 10
-1323.1914
 20
208.6672
 30
0.0
 10
-1323.1914
 20
208.6672
 30
0.0
 10
-1323.1914
 20
208.6672
 30
0.0
 10
-1323.5189
 20
208.0999
 30
0.0
 10
-1324.2506
 20
207.9039
 30
0.0
 10
-1324.8176
 20
208.2314
 30
0.0
 10
-1324.8176
 20
208.2314
 30
0.0
 10
-1324.8176
 20
208.2314
 30
0.0
 10
-1339.0819
 20
216.4669
 30
0.0
 10
-1339.0819
 20
216.4669
 30
0.0
 10
-1339.0819
 20
216.4669
 30
0.0
 10
-1339.6489
 20
216.7942
 30
0.0
 10
-1339.8451
 20
217.5259
 30
0.0
 10
-1339.5176
 20
218.0932
 30
0.0
  0
SPLINE
  5
52
330
1F
100
AcDbEntity
  8
layer 1
 62
    41
370
     9
100
AcDbSpline
210
0.0
220
0.0
230
1.0
 70
    11
 71
     3
 72
    36
 73
    32
 74
     0
 42
0.0000000001
 43
0.0000000001
 12
1.0
 22
0.0
 32
0.0
 13
1.0
 23
0.0
 33
0.0
 40
0.0
 40
0.0
 40
0.0
 40
0.0
 40
0.1111111111111111
 40
0.1111111111111111
 40
0.1111111111111111
 40
0.1111111111111111
 40
0.2222222222222222
 40
0.2222222222222222
 40
0.2222222222222222
 40
0.2222222222222222
 40
0.3333333333333333
 40
0.3333333333333333
 40
0.3333333333333333
 40
0.3333333333333333
 40
0.4444444444444444
 40
0.4444444444444444
 40
0.4444444444444444
 40
0.4444444444444444
 40
0.5555555555555556
 40
0.5555555555555556
 40
0.5555555555555556
 40
0.5555555555555556
 40
0.6666666666666666
 40
0.6666666666666666
 40
0.6666666666666666
 40
0.6666666666666666
 40
0.7777777777777778
 40
0.7777777777777778
 40
0.7777777777777778
 40
0.7777777777777778
 40
1.0
 40
1.0
 40
1.0
 40
1.0
 10
-1253.4826
 20
141.8292
 30
0.0
 10
-1253.4826
 20
141.8292
 30
0.0
 10
-1253.4826
 20
141.8292
 30
0.0
 10
-1253.4826
 20
141.8292
 30
0.0
 10
-1253.4826
 20
141.8292
 30
0.0
 10
-1252.9154
 20
142.1567
 30
0.0
 10
-1252.1836
 20
141.9607
 30
0.0
 10
-1251.8564
 20
141.3937
 30
0.0
 10
-1251.8564
 20
141.3937
 30
0.0
 10
-1251.8564
 20
141.3937
 30
0.0
 10
-1243.6209
 20
127.1294
 30
0.0
 10
-1243.6209
 20
127.1294
 30
0.0
 10
-1243.6209
 20
127.1294
 30
0.0
 10
-1243.2934
 20
126.5622
 30
0.0
 10
-1243.4894
 20
125.8307
 30
0.0
 10
-1244.0566
 20
125.5032
 30
0.0
 10
-1244.0566
 20
125.5032
 30
0.0
 10
-1244.0566
 20
125.5032
 30
0.0
 10
-1244.0569
 20
125.5029
 30
0.0
 10
-1244.0569
 20
125.5029
 30
0.0
 10
-1244.0569
 20
125.5029
 30
0.0
 10
-1244.6241
 20
125.1754
 30
0.0
 10
-1245.3556
 20
125.3717
 30
0.0
 10
-1245.6831
 20
125.9387
 30
0.0
 10
-1245.6831
 20
125.9387
 30
0.0
 10
-1245.6831
 20
125.9387
 30
0.0
 10
-1253.9186
 20
140.2029
 30
0.0
 10
-1253.9186
 20
140.2029
 30
0.0
 10
-1253.9186
 20
140.2029
 30
0.0
 10
-1254.2459
 20
140.7699
 30
0.0
 10
-1254.0499
 20
141.5017
 30
0.0
 10
-1253.4826
 20
141.8292
 30
0.0
  0
SPLINE
  5
53
330
1F
100
AcDbEntity
  8
layer 1
 62
    41
370
     9
100
AcDbSpline
210
0.0
220
0.0
230
1.0
 70
    11
 71
     3
 72
    36
 73
    32
 74
     0
 42
0.0000000001
 43
0.0000000001
 12
1.0
 22
0.0
 32
0.0
 13
1.0
 23
0.0
 33
0.0
 40
0.0
 40
0.0
 40
0.0
 40
0.0
 40
0.1111111111111111
 40
0.1111111111111111
 40
0.1111111111111111
 40
0.1111111111111111
 40
0.2222222222222222
 40
0.2222222222222222
 40
0.2222222222222222
 40
0.2222222222222222
 40
0.3333333333333333
 40
0.3333333333333333
 40
0.3333333333333333
 40
0.3333333333333333
 40
0.4444444444444444
 40
0.4444444444444444
 40
0.4444444444444444
 40
0.4444444444444444
 40
0.5555555555555556
 40
0.5555555555555556
 40
0.5555555555555556
 40
0.5555555555555556
 40
0.6666666666666666
 40
0.6666666666666666
 40
0.6666666666666666
 40
0.6666666666666666
 40
0.7777777777777778
 40
0.7777777777777778
 40
0.7777777777777778
 40
0.7777777777777778
 40
1.0
 40
1.0
 40
1.0
 40
1.0
 10
-1230.0809
 20
154.7657
 30
0.0
 10
-1230.0809
 20
154.7657
 30
0.0
 10
-1230.0806
 20
154.7657
 30
0.0
 10
-1230.0806
 20
154.7657
 30
0.0
 10
-1230.0806
 20
154.7657
 30
0.0
 10
-1229.7531
 20
155.3329
 30
0.0
 10
-1229.0216
 20
155.5289
 30
0.0
 10
-1228.4546
 20
155.2017
 30
0.0
 10
-1228.4546
 20
155.2017
 30
0.0
 10
-1228.4546
 20
155.2017
 30
0.0
 10
-1214.1904
 20
146.9662
 30
0.0
 10
-1214.1904
 20
146.9662
 30
0.0
 10
-1214.1904
 20
146.9662
 30
0.0
 10
-1213.6231
 20
146.6387
 30
0.0
 10
-1213.4271
 20
145.9072
 30
0.0
 10
-1213.7546
 20
145.3399
 30
0.0
 10
-1213.7546
 20
145.3399
 30
0.0
 10
-1213.7546
 20
145.3399
 30
0.0
 10
-1213.7546
 20
145.3397
 30
0.0
 10
-1213.7546
 20
145.3397
 30
0.0
 10
-1213.7546
 20
145.3397
 30
0.0
 10
-1214.0821
 20
144.7724
 30
0.0
 10
-1214.8139
 20
144.5764
 30
0.0
 10
-1215.3809
 20
144.9039
 30
0.0
 10
-1215.3809
 20
144.9039
 30
0.0
 10
-1215.3809
 20
144.9039
 30
0.0
 10
-1229.6451
 20
153.1394
 30
0.0
 10
-1229.6451
 20
153.1394
 30
0.0
 10
-1229.6451
 20
153.1394
 30
0.0
 10
-1230.2121
 20
153.4667
 30
0.0
 10
-1230.4084
 20
154.1984
 30
0.0
 10
-1230.0809
 20
154.7657
 30
0.0
  0
SPLINE
  5
54
330
1F
100
AcDbEntity
  8
layer 1
 62
    41
370
     9
100
AcDbSpline
210
0.0
220
0.0
230
1.0
 70
    11
 71
     3
 72
    36
 73
    32
 74
     0
 42
0.0000000001
 43
0.0000000001
 12
1.0
 22
0.0
 32
0.0
 13
1.0
 23
0.0
 33
0.0
 40
0.0
 40
0.0
 40
0.0
 40
0.0
 40
0.1111111111111111
 40
0.1111111111111111
 40
0.1111111111111111
 40
0.1111111111111111
 40
0.2222222222222222
 40
0.2222222222222222
 40
0.2222222222222222
 40
0.2222222222222222
 40
0.3333333333333333
 40
0.3333333333333333
 40
0.3333333333333333
 40
0.3333333333333333
 40
0.4444444444444444
 40
0.4444444444444444
 40
0.4444444444444444
 40
0.4444444444444444
 40
0.5555555555555556
 40
0.5555555555555556
 40
0.5555555555555556
 40
0.5555555555555556
 40
0.6666666666666666
 40
0.6666666666666666
 40
0.6666666666666666
 40
0.6666666666666666
 40
0.7777777777777778
 40
0.7777777777777778
 40
0.7777777777777778
 40
0.7777777777777778
 40
1.0
 40
1.0
 40
1.0
 40
1.0
 10
-1322.8234
 20
154.8497
 30
0.0
 10
-1322.8234
 20
154.8497
 30
0.0
 10
-1322.8236
 20
154.8497
 30
0.0
 10
-1322.8236
 20
154.8497
 30
0.0
 10
-1322.8236
 20
154.8497
 30
0.0
 10
-1323.1511
 20
155.4169
 30
0.0
 10
-1323.8826
 20
155.6129
 30
0.0
 10
-1324.4496
 20
155.2857
 30
0.0
 10
-1324.4496
 20
155.2857
 30
0.0
 10
-1324.4496
 20
155.2857
 30
0.0
 10
-1338.7139
 20
147.0502
 30
0.0
 10
-1338.7139
 20
147.0502
 30
0.0
 10
-1338.7139
 20
147.0502
 30
0.0
 10
-1339.2811
 20
146.7227
 30
0.0
 10
-1339.4771
 20
145.9912
 30
0.0
 10
-1339.1496
 20
145.4239
 30
0.0
 10
-1339.1496
 20
145.4239
 30
0.0
 10
-1339.1496
 20
145.4239
 30
0.0
 10
-1339.1496
 20
145.4237
 30
0.0
 10
-1339.1496
 20
145.4237
 30
0.0
 10
-1339.1496
 20
145.4237
 30
0.0
 10
-1338.8221
 20
144.8564
 30
0.0
 10
-1338.0904
 20
144.6604
 30
0.0
 10
-1337.5234
 20
144.9879
 30
0.0
 10
-1337.5234
 20
144.9879
 30
0.0
 10
-1337.5234
 20
144.9879
 30
0.0
 10
-1323.2591
 20
153.2234
 30
0.0
 10
-1323.2591
 20
153.2234
 30
0.0
 10
-1323.2591
 20
153.2234
 30
0.0
 10
-1322.6921
 20
153.5507
 30
0.0
 10
-1322.4959
 20
154.2824
 30
0.0
 10
-1322.8234
 20
154.8497
 30
0.0
  0
SPLINE
  5
55
330
1F
100
AcDbEntity
  8
layer 1
 62
    41
370
     9
100
AcDbSpline
210
0.0
220
0.0
230
1.0
 70
    11
 71
     3
 72
    36
 73
    32
 74
     0
 42
0.0000000001
 43
0.0000000001
 12
1.0
 22
0.0
 32
0.0
 13
1.0
 23
0.0
 33
0.0
 40
0.0
 40
0.0
 40
0.0
 40
0.0
 40
0.1111111111111111
 40
0.1111111111111111
 40
0.1111111111111111
 40
0.1111111111111111
 40
0.2222222222222222
 40
0.2222222222222222
 40
0.2222222222222222
 40
0.2222222222222222
 40
0.3333333333333333
 40
0.3333333333333333
 40
0.3333333333333333
 40
0.3333333333333333
 40
0.4444444444444444
 40
0.4444444444444444
 40
0.4444444444444444
 40
0.4444444444444444
 40
0.5555555555555556
 40
0.5555555555555556
 40
0.5555555555555556
 40
0.5555555555555556
 40
0.6666666666666666
 40
0.6666666666666666
 40
0.6666666666666666
 40
0.6666666666666666
 40
0.7777777777777778
 40
0.7777777777777778
 40
0.7777777777777778
 40
0.7777777777777778
 40
1.0
 40
1.0
 40
1.0
 40
1.0
 10
-1213.5039
 20
218.0939
 30
0.0
 10
-1213.5039
 20
218.0939
 30
0.0
 10
-1213.5041
 20
218.0939
 30
0.0
 10
-1213.5041
 20
218.0939
 30
0.0
 10
-1213.5041
 20
218.0939
 30
0.0
 10
-1213.8316
 20
218.6612
 30
0.0
 10
-1214.5631
 20
218.8572
 30
0.0
 10
-1215.1301
 20
218.5299
 30
0.0
 10
-1215.1301
 20
218.5299
 30
0.0
 10
-1215.1301
 20
218.5299
 30
0.0
 10
-1229.3944
 20
210.2944
 30
0.0
 10
-1229.3944
 20
210.2944
 30
0.0
 10
-1229.3944
 20
210.2944
 30
0.0
 10
-1229.9616
 20
209.9669
 30
0.0
 10
-1230.1576
 20
209.2354
 30
0.0
 10
-1229.8301
 20
208.6682
 30
0.0
 10
-1229.8301
 20
208.6682
 30
0.0
 10
-1229.8301
 20
208.6682
 30
0.0
 10
-1229.8301
 20
208.6679
 30
0.0
 10
-1229.8301
 20
208.6679
 30
0.0
 10
-1229.8301
 20
208.6679
 30
0.0
 10
-1229.5026
 20
208.1007
 30
0.0
 10
-1228.7709
 20
207.9047
 30
0.0
 10
-1228.2039
 20
208.2322
 30
0.0
 10
-1228.2039
 20
208.2322
 30
0.0
 10
-1228.2039
 20
208.2322
 30
0.0
 10
-1213.9396
 20
216.4677
 30
0.0
 10
-1213.9396
 20
216.4677
 30
0.0
 10
-1213.9396
 20
216.4677
 30
0.0
 10
-1213.3726
 20
216.7949
 30
0.0
 10
-1213.1764
 20
217.5267
 30
0.0
 10
-1213.5039
 20
218.0939
 30
0.0
  0
SPLINE
  5
56
330
1F
100
AcDbEntity
  8
layer 1
 62
    41
370
     9
100
AcDbSpline
210
0.0
220
0.0
230
1.0
 70
    11
 71
     3
 72
    36
 73
    32
 74
     0
 42
0.0000000001
 43
0.0000000001
 12
1.0
 22
0.0
 32
0.0
 13
1.0
 23
0.0
 33
0.0
 40
0.0
 40
0.0
 40
0.0
 40
0.0
 40
0.1111111111111111
 40
0.1111111111111111
 40
0.1111111111111111
 40
0.1111111111111111
 40
0.2222222222222222
 40
0.2222222222222222
 40
0.2222222222222222
 40
0.2222222222222222
 40
0.3333333333333333
 40
0.3333333333333333
 40
0.3333333333333333
 40
0.3333333333333333
 40
0.4444444444444444
 40
0.4444444444444444
 40
0.4444444444444444
 40
0.4444444444444444
 40
0.5555555555555556
 40
0.5555555555555556
 40
0.5555555555555556
 40
0.5555555555555556
 40
0.6666666666666666
 40
0.6666666666666666
 40
0.6666666666666666
 40
0.6666666666666666
 40
0.7777777777777778
 40
0.7777777777777778
 40
0.7777777777777778
 40
0.7777777777777778
 40
1.0
 40
1.0
 40
1.0
 40
1.0
 10
-1243.8769
 20
237.9537
 30
0.0
 10
-1243.8769
 20
237.9537
 30
0.0
 10
-1243.8769
 20
237.9537
 30
0.0
 10
-1243.8769
 20
237.9537
 30
0.0
 10
-1243.8769
 20
237.9537
 30
0.0
 10
-1244.4441
 20
238.2812
 30
0.0
 10
-1245.1759
 20
238.0852
 30
0.0
 10
-1245.5031
 20
237.5182
 30
0.0
 10
-1245.5031
 20
237.5182
 30
0.0
 10
-1245.5031
 20
237.5182
 30
0.0
 10
-1253.7386
 20
223.2539
 30
0.0
 10
-1253.7386
 20
223.2539
 30
0.0
 10
-1253.7386
 20
223.2539
 30
0.0
 10
-1254.0661
 20
222.6867
 30
0.0
 10
-1253.8701
 20
221.9552
 30
0.0
 10
-1253.3029
 20
221.6277
 30
0.0
 10
-1253.3029
 20
221.6277
 30
0.0
 10
-1253.3029
 20
221.6277
 30
0.0
 10
-1253.3026
 20
221.6274
 30
0.0
 10
-1253.3026
 20
221.6274
 30
0.0
 10
-1253.3026
 20
221.6274
 30
0.0
 10
-1252.7354
 20
221.2999
 30
0.0
 10
-1252.0039
 20
221.4962
 30
0.0
 10
-1251.6764
 20
222.0632
 30
0.0
 10
-1251.6764
 20
222.0632
 30
0.0
 10
-1251.6764
 20
222.0632
 30
0.0
 10
-1243.4409
 20
236.3274
 30
0.0
 10
-1243.4409
 20
236.3274
 30
0.0
 10
-1243.4409
 20
236.3274
 30
0.0
 10
-1243.1136
 20
236.8944
 30
0.0
 10
-1243.3096
 20
237.6262
 30
0.0
 10
-1243.8769
 20
237.9537
 30
0.0
  0
SPLINE
  5
57
330
1F
100
AcDbEntity
  8
layer 1
 62
    41
370
     9
100
AcDbSpline
210
0.0
220
0.0
230
1.0
 70
    11
 71
     3
 72
    36
 73
    32
 74
     0
 42
0.0000000001
 43
0.0000000001
 12
1.0
 22
0.0
 32
0.0
 13
1.0
 23
0.0
 33
0.0
 40
0.0
 40
0.0
 40
0.0
 40
0.0
 40
0.1111111111111111
 40
0.1111111111111111
 40
0.1111111111111111
 40
0.1111111111111111
 40
0.2222222222222222
 40
0.2222222222222222
 40
0.2222222222222222
 40
0.2222222222222222
 40
0.3333333333333333
 40
0.3333333333333333
 40
0.3333333333333333
 40
0.3333333333333333
 40
0.4444444444444444
 40
0.4444444444444444
 40
0.4444444444444444
 40
0.4444444444444444
 40
0.5555555555555556
 40
0.5555555555555556
 40
0.5555555555555556
 40
0.5555555555555556
 40
0.6666666666666666
 40
0.6666666666666666
 40
0.6666666666666666
 40
0.6666666666666666
 40
0.7777777777777778
 40
0.7777777777777778
 40
0.7777777777777778
 40
0.7777777777777778
 40
1.0
 40
1.0
 40
1.0
 40
1.0
 10
-1299.5399
 20
141.8299
 30
0.0
 10
-1299.5399
 20
141.8299
 30
0.0
 10
-1299.5399
 20
141.8299
 30
0.0
 10
-1299.5399
 20
141.8299
 30
0.0
 10
-1299.5399
 20
141.8299
 30
0.0
 10
-1300.1071
 20
142.1574
 30
0.0
 10
-1300.8389
 20
141.9614
 30
0.0
 10
-1301.1661
 20
141.3944
 30
0.0
 10
-1301.1661
 20
141.3944
 30
0.0
 10
-1301.1661
 20
141.3944
 30
0.0
 10
-1309.4016
 20
127.1302
 30
0.0
 10
-1309.4016
 20
127.1302
 30
0.0
 10
-1309.4016
 20
127.1302
 30
0.0
 10
-1309.7291
 20
126.5629
 30
0.0
 10
-1309.5331
 20
125.8314
 30
0.0
 10
-1308.9659
 20
125.5039
 30
0.0
 10
-1308.9659
 20
125.5039
 30
0.0
 10
-1308.9659
 20
125.5039
 30
0.0
 10
-1308.9656
 20
125.5037
 30
0.0
 10
-1308.9656
 20
125.5037
 30
0.0
 10
-1308.9656
 20
125.5037
 30
0.0
 10
-1308.3984
 20
125.1762
 30
0.0
 10
-1307.6669
 20
125.3724
 30
0.0
 10
-1307.3394
 20
125.9394
 30
0.0
 10
-1307.3394
 20
125.9394
 30
0.0
 10
-1307.3394
 20
125.9394
 30
0.0
 10
-1299.1039
 20
140.2037
 30
0.0
 10
-1299.1039
 20
140.2037
 30
0.0
 10
-1299.1039
 20
140.2037
 30
0.0
 10
-1298.7766
 20
140.7707
 30
0.0
 10
-1298.9726
 20
141.5024
 30
0.0
 10
-1299.5399
 20
141.8299
 30
0.0
  0
SPLINE
  5
58
330
1F
100
AcDbEntity
  8
layer 1
 62
    41
370
     9
100
AcDbSpline
210
0.0
220
0.0
230
1.0
 70
    11
 71
     3
 72
    20
 73
    16
 74
     0
 42
0.0000000001
 43
0.0000000001
 12
1.0
 22
0.0
 32
0.0
 13
1.0
 23
0.0
 33
0.0
 40
0.0
 40
0.0
 40
0.0
 40
0.0
 40
0.2
 40
0.2
 40
0.2
 40
0.2
 40
0.4
 40
0.4
 40
0.4
 40
0.4
 40
0.6
 40
0.6
 40
0.6
 40
0.6
 40
1.0
 40
1.0
 40
1.0
 40
1.0
 10
-1276.5104
 20
182.9669
 30
0.0
 10
-1275.8201
 20
182.9669
 30
0.0
 10
-1275.2604
 20
182.4072
 30
0.0
 10
-1275.2604
 20
181.7169
 30
0.0
 10
-1275.2604
 20
181.7169
 30
0.0
 10
-1275.2604
 20
181.0267
 30
0.0
 10
-1275.8201
 20
180.4669
 30
0.0
 10
-1276.5104
 20
180.4669
 30
0.0
 10
-1276.5104
 20
180.4669
 30
0.0
 10
-1277.2006
 20
180.4669
 30
0.0
 10
-1277.7604
 20
181.0267
 30
0.0
 10
-1277.7604
 20
181.7169
 30
0.0
 10
-1277.7604
 20
181.7169
 30
0.0
 10
-1277.7604
 20
182.4072
 30
0.0
 10
-1277.2006
 20
182.9669
 30
0.0
 10
-1276.5104
 20
182.9669
 30
0.0
  0
ENDSEC
  0
SECTION
  2
OBJECTS
  0
DICTIONARY
  5
C
330
0
100
AcDbDictionary
281
     1
  3
ACAD_GROUP
350
D
  3
ACAD_LAYOUT
350
1A
  3
ACAD_MATERIAL
350
3B
  3
ACAD_MLEADERSTYLE
350
80
  3
ACAD_MLINESTYLE
350
17
  3
ACAD_PLOTSETTINGS
350
19
  3
ACAD_PLOTSTYLENAME
350
E
  3
ACAD_TABLESTYLE
350
7F
  3
ACAD_VISUALSTYLE
350
2A
  0
DICTIONARY
  5
D
102
{ACAD_REACTORS
330
C
102
}
330
C
100
AcDbDictionary
281
     1
  0
DICTIONARY
  5
1A
102
{ACAD_REACTORS
330
C
102
}
330
C
100
AcDbDictionary
281
     1
  3
Layout1
350
1E
  3
Layout2
350
26
  3
Model
350
22
  0
DICTIONARY
  5
3B
102
{ACAD_REACTORS
330
C
102
}
330
C
100
AcDbDictionary
281
     1
  3
ByBlock
350
3D
  3
ByLayer
350
3C
  3
Global
350
3E
  0
DICTIONARY
  5
80
102
{ACAD_REACTORS
330
C
102
}
330
C
100
AcDbDictionary
281
     1
  0
DICTIONARY
  5
17
102
{ACAD_REACTORS
330
C
102
}
330
C
100
AcDbDictionary
281
     1
  3
Standard
350
18
  0
DICTIONARY
  5
19
102
{ACAD_REACTORS
330
C
102
}
330
C
100
AcDbDictionary
281
     1
  0
ACDBDICTIONARYWDFLT
  5
E
102
{ACAD_REACTORS
330
C
102
}
330
C
100
AcDbDictionary
281
     1
  3
Normal
350
F
100
AcDbDictionaryWithDefault
340
F
  0
DICTIONARY
  5
7F
102
{ACAD_REACTORS
330
C
102
}
330
C
100
AcDbDictionary
281
     1
  0
DICTIONARY
  5
2A
102
{ACAD_REACTORS
330
C
102
}
330
C
100
AcDbDictionary
281
     1
  3
2dWireframe
350
2F
  3
3D Hidden
350
31
  3
3dWireframe
350
30
  3
Basic
350
32
  3
Brighten
350
36
  3
ColorChange
350
3A
  3
Conceptual
350
34
  3
Dim
350
35
  3
Facepattern
350
39
  3
Flat
350
2B
  3
FlatWithEdges
350
2C
  3
Gouraud
350
2D
  3
GouraudWithEdges
350
2E
  3
Linepattern
350
38
  3
Realistic
350
33
  3
Thicken
350
37
  0
LAYOUT
  5
1E
102
{ACAD_REACTORS
330
1A
102
}
330
1A
100
AcDbPlotSettings
  1

  2
none_device
  4

  6

 40
0.0
 41
0.0
 42
0.0
 43
0.0
 44
0.0
 45
0.0
 46
0.0
 47
0.0
 48
0.0
 49
0.0
140
0.0
141
0.0
142
1.0
143
1.0
 70
   688
 72
     0
 73
     0
 74
     5
  7

 75
    16
 76
     0
 77
     2
 78
   300
147
1.0
148
0.0
149
0.0
100
AcDbLayout
  1
Layout1
 70
     1
 71
     1
 10
0.0
 20
0.0
 11
12.0
 21
9.0
 12
0.0
 22
0.0
 32
0.0
 14
1.000000000000000E+20
 24
1.000000000000000E+20
 34
1.000000000000000E+20
 15
-1.000000000000000E+20
 25
-1.000000000000000E+20
 35
-1.000000000000000E+20
146
0.0
 13
0.0
 23
0.0
 33
0.0
 16
1.0
 26
0.0
 36
0.0
 17
0.0
 27
1.0
 37
0.0
 76
     0
330
1B
  0
LAYOUT
  5
26
102
{ACAD_REACTORS
330
1A
102
}
330
1A
100
AcDbPlotSettings
  1

  2
none_device
  4

  6

 40
0.0
 41
0.0
 42
0.0
 43
0.0
 44
0.0
 45
0.0
 46
0.0
 47
0.0
 48
0.0
 49
0.0
140
0.0
141
0.0
142
1.0
143
1.0
 70
   688
 72
     0
 73
     0
 74
     5
  7

 75
    16
 76
     0
 77
     2
 78
   300
147
1.0
148
0.0
149
0.0
100
AcDbLayout
  1
Layout2
 70
     1
 71
     2
 10
0.0
 20
0.0
 11
0.0
 21
0.0
 12
0.0
 22
0.0
 32
0.0
 14
0.0
 24
0.0
 34
0.0
 15
0.0
 25
0.0
 35
0.0
146
0.0
 13
0.0
 23
0.0
 33
0.0
 16
1.0
 26
0.0
 36
0.0
 17
0.0
 27
1.0
 37
0.0
 76
     0
330
23
  0
LAYOUT
  5
22
102
{ACAD_REACTORS
330
1A
102
}
330
1A
100
AcDbPlotSettings
  1

  2
none_device
  4

  6

 40
0.0
 41
0.0
 42
0.0
 43
0.0
 44
0.0
 45
0.0
 46
0.0
 47
0.0
 48
0.0
 49
0.0
140
0.0
141
0.0
142
1.0
143
1.0
 70
  1712
 72
     0
 73
     0
 74
     0
  7

 75
     0
 76
     0
 77
     2
 78
   300
147
1.0
148
0.0
149
0.0
100
AcDbLayout
  1
Model
 70
     1
 71
     0
 10
0.0
 20
0.0
 11
12.0
 21
9.0
 12
0.0
 22
0.0
 32
0.0
 14
-1385.3038
 24
102.4584
 34
0.0
 15
-1092.2891
 25
603.5981
 35
0.0
146
0.0
 13
0.0
 23
0.0
 33
0.0
 16
1.0
 26
0.0
 36
0.0
 17
0.0
 27
1.0
 37
0.0
 76
     0
330
1F
331
29
  0
MATERIAL
  5
3D
102
{ACAD_REACTORS
330
3B
102
}
102
{ACAD_XDICTIONARY
360
7B
102
}
330
3B
100
AcDbMaterial
  1
ByBlock
  0
MATERIAL
  5
3C
102
{ACAD_REACTORS
330
3B
102
}
102
{ACAD_XDICTIONARY
360
79
102
}
330
3B
100
AcDbMaterial
  1
ByLayer
  0
MATERIAL
  5
3E
102
{ACAD_REACTORS
330
3B
102
}
102
{ACAD_XDICTIONARY
360
7D
102
}
330
3B
100
AcDbMaterial
  1
Global
  0
MLINESTYLE
  5
18
102
{ACAD_REACTORS
330
17
102
}
330
17
100
AcDbMlineStyle
  2
Standard
 70
     0
  3

 62
   256
 51
90.0
 52
90.0
 71
     2
 49
0.5
 62
   256
  6
BYLAYER
 49
-0.5
 62
   256
  6
BYLAYER
  0
ACDBPLACEHOLDER
  5
F
102
{ACAD_REACTORS
330
E
102
}
330
E
  0
VISUALSTYLE
  5
2F
102
{ACAD_REACTORS
330
2A
102
}
102
{ACAD_XDICTIONARY
360
61
102
}
330
2A
100
AcDbVisualStyle
  2
2dWireframe
 70
     4
 71
     0
 72
     2
 73
     0
 90
        0
 40
-0.6
 41
-30.0
 62
     5
 63
     7
421
 16777215
 74
     1
 91
        4
 64
     7
 65
   257
 75
     1
175
     1
 42
1.0
 92
        0
 66
   257
 43
1.0
 76
     1
 77
     6
 78
     2
 67
     7
 79
     5
170
     0
171
     0
290
     0
174
     0
 93
        1
 44
0.0
173
     0
291
     0
 45
0.0
1001
ACAD
1000
AcDbSavedByObjectVersion
1070
     0
  0
VISUALSTYLE
  5
31
102
{ACAD_REACTORS
330
2A
102
}
102
{ACAD_XDICTIONARY
360
65
102
}
330
2A
100
AcDbVisualStyle
  2
3D Hidden
 70
     6
 71
     1
 72
     2
 73
     2
 90
        0
 40
-0.6
 41
-30.0
 62
     5
 63
     7
421
 16777215
 74
     2
 91
        2
 64
     7
 65
   257
 75
     2
175
     1
 42
40.0
 92
        0
 66
   257
 43
1.0
 76
     1
 77
     6
 78
     2
 67
     7
 79
     3
170
     0
171
     0
290
     0
174
     0
 93
        1
 44
0.0
173
     0
291
     0
 45
0.0
1001
ACAD
1000
AcDbSavedByObjectVersion
1070
     0
  0
VISUALSTYLE
  5
30
102
{ACAD_REACTORS
330
2A
102
}
102
{ACAD_XDICTIONARY
360
63
102
}
330
2A
100
AcDbVisualStyle
  2
3dWireframe
 70
     5
 71
     0
 72
     2
 73
     0
 90
        0
 40
-0.6
 41
-30.0
 62
     5
 63
     7
421
 16777215
 74
     1
 91
        4
 64
     7
 65
   257
 75
     1
175
     1
 42
1.0
 92
        0
 66
   257
 43
1.0
 76
     1
 77
     6
 78
     2
 67
     7
 79
     5
170
     0
171
     0
290
     0
174
     0
 93
        1
 44
0.0
173
     0
291
     0
 45
0.0
1001
ACAD
1000
AcDbSavedByObjectVersion
1070
     0
  0
VISUALSTYLE
  5
32
102
{ACAD_REACTORS
330
2A
102
}
102
{ACAD_XDICTIONARY
360
67
102
}
330
2A
100
AcDbVisualStyle
  2
Basic
 70
     7
 71
     1
 72
     0
 73
     1
 90
        0
 40
-0.6
 41
-30.0
 62
     5
 63
     7
421
 16777215
 74
     0
 91
        4
 64
     7
 65
   257
 75
     1
175
     1
 42
1.0
 92
        8
 66
     7
 43
1.0
 76
     1
 77
     6
 78
     2
 67
     7
 79
     5
170
     0
171
     0
290
     0
174
     0
 93
        1
 44
0.0
173
     0
291
     1
 45
0.0
1001
ACAD
1000
AcDbSavedByObjectVersion
1070
     0
  0
VISUALSTYLE
  5
36
102
{ACAD_REACTORS
330
2A
102
}
102
{ACAD_XDICTIONARY
360
6F
102
}
330
2A
100
AcDbVisualStyle
  2
Brighten
 70
    12
 71
     2
 72
     2
 73
     0
 90
        0
 40
-0.6
 41
-30.0
 62
     5
 63
     7
421
 16777215
 74
     1
 91
        4
 64
     7
 65
   257
 75
     1
175
     1
 42
1.0
 92
        8
 66
     7
 43
1.0
 76
     1
 77
     6
 78
     2
 67
     7
 79
     5
170
     0
171
     0
290
     0
174
     0
 93
        1
 44
50.0
173
     0
291
     1
 45
0.0
1001
ACAD
1000
AcDbSavedByObjectVersion
1070
     0
  0
VISUALSTYLE
  5
3A
102
{ACAD_REACTORS
330
2A
102
}
102
{ACAD_XDICTIONARY
360
77
102
}
330
2A
100
AcDbVisualStyle
  2
ColorChange
 70
    16
 71
     2
 72
     2
 73
     3
 90
        0
 40
-0.6
 41
-30.0
 62
     5
 63
     8
421
  8421504
 74
     1
 91
        4
 64
     7
 65
   257
 75
     1
175
     1
 42
1.0
 92
        8
 66
     8
424
  8421504
 43
1.0
 76
     1
 77
     6
 78
     2
 67
     7
 79
     5
170
     0
171
     0
290
     0
174
     0
 93
        1
 44
0.0
173
     0
291
     1
 45
0.0
1001
ACAD
1000
AcDbSavedByObjectVersion
1070
     0
  0
VISUALSTYLE
  5
34
102
{ACAD_REACTORS
330
2A
102
}
102
{ACAD_XDICTIONARY
360
6B
102
}
330
2A
100
AcDbVisualStyle
  2
Conceptual
 70
     9
 71
     3
 72
     2
 73
     0
 90
        0
 40
-0.6
 41
-30.0
 62
     5
 63
     7
421
 16777215
 74
     2
 91
        2
 64
     7
 65
   257
 75
     1
175
     1
 42
40.0
 92
        8
 66
     7
 43
1.0
 76
     1
 77
     6
 78
     2
 67
     7
 79
     3
170
     0
171
     0
290
     0
174
     0
 93
        1
 44
0.0
173
     0
291
     0
 45
0.0
1001
ACAD
1000
AcDbSavedByObjectVersion
1070
     0
  0
VISUALSTYLE
  5
35
102
{ACAD_REACTORS
330
2A
102
}
102
{ACAD_XDICTIONARY
360
6D
102
}
330
2A
100
AcDbVisualStyle
  2
Dim
 70
    11
 71
     2
 72
     2
 73
     0
 90
        0
 40
-0.6
 41
-30.0
 62
     5
 63
     7
421
 16777215
 74
     1
 91
        4
 64
     7
 65
   257
 75
     1
175
     1
 42
1.0
 92
        8
 66
     7
 43
1.0
 76
     1
 77
     6
 78
     2
 67
     7
 79
     5
170
     0
171
     0
290
     0
174
     0
 93
        1
 44
-50.0
173
     0
291
     1
 45
0.0
1001
ACAD
1000
AcDbSavedByObjectVersion
1070
     0
  0
VISUALSTYLE
  5
39
102
{ACAD_REACTORS
330
2A
102
}
102
{ACAD_XDICTIONARY
360
75
102
}
330
2A
100
AcDbVisualStyle
  2
Facepattern
 70
    15
 71
     2
 72
     2
 73
     0
 90
        0
 40
-0.6
 41
-30.0
 62
     5
 63
     7
421
 16777215
 74
     1
 91
        4
 64
     7
 65
   257
 75
     1
175
     1
 42
1.0
 92
        8
 66
     7
 43
1.0
 76
     1
 77
     6
 78
     2
 67
     7
 79
     5
170
     0
171
     0
290
     0
174
     0
 93
        1
 44
0.0
173
     0
291
     1
 45
0.0
1001
ACAD
1000
AcDbSavedByObjectVersion
1070
     0
  0
VISUALSTYLE
  5
2B
102
{ACAD_REACTORS
330
2A
102
}
102
{ACAD_XDICTIONARY
360
59
102
}
330
2A
100
AcDbVisualStyle
  2
Flat
 70
     0
 71
     2
 72
     1
 73
     1
 90
        2
 40
-0.6
 41
30.0
 62
     5
 63
     7
421
 16777215
 74
     0
 91
        4
 64
     7
 65
   257
 75
     1
175
     1
 42
1.0
 92
        8
 66
     7
 43
1.0
 76
     1
 77
     6
 78
     2
 67
     7
 79
     5
170
     0
171
     0
290
     0
174
     0
 93
       13
 44
0.0
173
     0
291
     1
 45
0.0
1001
ACAD
1000
AcDbSavedByObjectVersion
1070
     0
  0
VISUALSTYLE
  5
2C
102
{ACAD_REACTORS
330
2A
102
}
102
{ACAD_XDICTIONARY
360
5B
102
}
330
2A
100
AcDbVisualStyle
  2
FlatWithEdges
 70
     1
 71
     2
 72
     1
 73
     1
 90
        2
 40
-0.6
 41
30.0
 62
     5
 63
     7
421
 16777215
 74
     1
 91
        4
 64
     7
 65
   257
 75
     1
175
     1
 42
1.0
 92
        0
 66
   257
 43
1.0
 76
     1
 77
     6
 78
     2
 67
     7
 79
     5
170
     0
171
     0
290
     0
174
     0
 93
       13
 44
0.0
173
     0
291
     1
 45
0.0
1001
ACAD
1000
AcDbSavedByObjectVersion
1070
     0
  0
VISUALSTYLE
  5
2D
102
{ACAD_REACTORS
330
2A
102
}
102
{ACAD_XDICTIONARY
360
5D
102
}
330
2A
100
AcDbVisualStyle
  2
Gouraud
 70
     2
 71
     2
 72
     2
 73
     1
 90
        2
 40
-0.6
 41
30.0
 62
     5
 63
     7
421
 16777215
 74
     0
 91
        4
 64
     7
 65
   257
 75
     1
175
     1
 42
1.0
 92
        0
 66
     7
 43
1.0
 76
     1
 77
     6
 78
     2
 67
     7
 79
     5
170
     0
171
     0
290
     0
174
     0
 93
       13
 44
0.0
173
     0
291
     1
 45
0.0
1001
ACAD
1000
AcDbSavedByObjectVersion
1070
     0
  0
VISUALSTYLE
  5
2E
102
{ACAD_REACTORS
330
2A
102
}
102
{ACAD_XDICTIONARY
360
5F
102
}
330
2A
100
AcDbVisualStyle
  2
GouraudWithEdges
 70
     3
 71
     2
 72
     2
 73
     1
 90
        2
 40
-0.6
 41
30.0
 62
     5
 63
     7
421
 16777215
 74
     1
 91
        4
 64
     7
 65
   257
 75
     1
175
     1
 42
1.0
 92
        0
 66
   257
 43
1.0
 76
     1
 77
     6
 78
     2
 67
     7
 79
     5
170
     0
171
     0
290
     0
174
     0
 93
       13
 44
0.0
173
     0
291
     1
 45
0.0
1001
ACAD
1000
AcDbSavedByObjectVersion
1070
     0
  0
VISUALSTYLE
  5
38
102
{ACAD_REACTORS
330
2A
102
}
102
{ACAD_XDICTIONARY
360
73
102
}
330
2A
100
AcDbVisualStyle
  2
Linepattern
 70
    14
 71
     2
 72
     2
 73
     0
 90
        0
 40
-0.6
 41
-30.0
 62
     5
 63
     7
421
 16777215
 74
     1
 91
        4
 64
     7
 65
   257
 75
     7
175
     7
 42
1.0
 92
        8
 66
     7
 43
1.0
 76
     1
 77
     6
 78
     2
 67
     7
 79
     5
170
     0
171
     0
290
     0
174
     0
 93
        1
 44
0.0
173
     0
291
     1
 45
0.0
1001
ACAD
1000
AcDbSavedByObjectVersion
1070
     0
  0
VISUALSTYLE
  5
33
102
{ACAD_REACTORS
330
2A
102
}
102
{ACAD_XDICTIONARY
360
69
102
}
330
2A
100
AcDbVisualStyle
  2
Realistic
 70
     8
 71
     2
 72
     2
 73
     0
 90
        0
 40
-0.6
 41
-30.0
 62
     5
 63
     7
421
 16777215
 74
     1
 91
        0
 64
     7
 65
   257
 75
     1
175
     1
 42
1.0
 92
        8
 66
     8
424
  7895160
 43
1.0
 76
     1
 77
     6
 78
     2
 67
     7
 79
     5
170
     0
171
     0
290
     0
174
     0
 93
       13
 44
0.0
173
     0
291
     0
 45
0.0
1001
ACAD
1000
AcDbSavedByObjectVersion
1070
     0
  0
VISUALSTYLE
  5
37
102
{ACAD_REACTORS
330
2A
102
}
102
{ACAD_XDICTIONARY
360
71
102
}
330
2A
100
AcDbVisualStyle
  2
Thicken
 70
    13
 71
     2
 72
     2
 73
     0
 90
        0
 40
-0.6
 41
-30.0
 62
     5
 63
     7
421
 16777215
 74
     1
 91
        4
 64
     7
 65
   257
 75
     1
175
     1
 42
1.0
 92
       12
 66
     7
 43
1.0
 76
     1
 77
     6
 78
     2
 67
     7
 79
     5
170
     0
171
     0
290
     0
174
     0
 93
        1
 44
0.0
173
     0
291
     1
 45
0.0
1001
ACAD
1000
AcDbSavedByObjectVersion
1070
     0
  0
DICTIONARY
  5
7B
330
3D
100
AcDbDictionary
280
     1
281
     1
  3
ACAD_XREC_ROUNDTRIP
360
7C
  0
DICTIONARY
  5
79
330
3C
100
AcDbDictionary
280
     1
281
     1
  3
ACAD_XREC_ROUNDTRIP
360
7A
  0
DICTIONARY
  5
7D
330
3E
100
AcDbDictionary
280
     1
281
     1
  3
ACAD_XREC_ROUNDTRIP
360
7E
  0
DICTIONARY
  5
61
330
2F
100
AcDbDictionary
280
     1
281
     1
  3
ACAD_XREC_ROUNDTRIP
360
62
  0
DICTIONARY
  5
65
330
31
100
AcDbDictionary
280
     1
281
     1
  3
ACAD_XREC_ROUNDTRIP
360
66
  0
DICTIONARY
  5
63
330
30
100
AcDbDictionary
280
     1
281
     1
  3
ACAD_XREC_ROUNDTRIP
360
64
  0
DICTIONARY
  5
67
330
32
100
AcDbDictionary
280
     1
281
     1
  3
ACAD_XREC_ROUNDTRIP
360
68
  0
DICTIONARY
  5
6F
330
36
100
AcDbDictionary
280
     1
281
     1
  3
ACAD_XREC_ROUNDTRIP
360
70
  0
DICTIONARY
  5
77
330
3A
100
AcDbDictionary
280
     1
281
     1
  3
ACAD_XREC_ROUNDTRIP
360
78
  0
DICTIONARY
  5
6B
330
34
100
AcDbDictionary
280
     1
281
     1
  3
ACAD_XREC_ROUNDTRIP
360
6C
  0
DICTIONARY
  5
6D
330
35
100
AcDbDictionary
280
     1
281
     1
  3
ACAD_XREC_ROUNDTRIP
360
6E
  0
DICTIONARY
  5
75
330
39
100
AcDbDictionary
280
     1
281
     1
  3
ACAD_XREC_ROUNDTRIP
360
76
  0
DICTIONARY
  5
59
330
2B
100
AcDbDictionary
280
     1
281
     1
  3
ACAD_XREC_ROUNDTRIP
360
5A
  0
DICTIONARY
  5
5B
330
2C
100
AcDbDictionary
280
     1
281
     1
  3
ACAD_XREC_ROUNDTRIP
360
5C
  0
DICTIONARY
  5
5D
330
2D
100
AcDbDictionary
280
     1
281
     1
  3
ACAD_XREC_ROUNDTRIP
360
5E
  0
DICTIONARY
  5
5F
330
2E
100
AcDbDictionary
280
     1
281
     1
  3
ACAD_XREC_ROUNDTRIP
360
60
  0
DICTIONARY
  5
73
330
38
100
AcDbDictionary
280
     1
281
     1
  3
ACAD_XREC_ROUNDTRIP
360
74
  0
DICTIONARY
  5
69
330
33
100
AcDbDictionary
280
     1
281
     1
  3
ACAD_XREC_ROUNDTRIP
360
6A
  0
DICTIONARY
  5
71
330
37
100
AcDbDictionary
280
     1
281
     1
  3
ACAD_XREC_ROUNDTRIP
360
72
  0
XRECORD
  5
7C
102
{ACAD_REACTORS
330
7B
102
}
330
7B
100
AcDbXrecord
280
     1
102
MATERIAL
148
0.0
149
0.0
149
0.0
 93
        0
 94
      127
282
     0
 72
     1
 77
     1
171
     1
175
     1
179
     1
273
     0
  0
XRECORD
  5
7A
102
{ACAD_REACTORS
330
79
102
}
330
79
100
AcDbXrecord
280
     1
102
MATERIAL
148
0.0
149
0.0
149
0.0
 93
        0
 94
      127
282
     0
 72
     1
 77
     1
171
     1
175
     1
179
     1
273
     0
  0
XRECORD
  5
7E
102
{ACAD_REACTORS
330
7D
102
}
330
7D
100
AcDbXrecord
280
     1
102
MATERIAL
148
0.0
149
0.0
149
0.0
 93
        0
 94
      127
282
     0
 72
     1
 77
     1
171
     1
175
     1
179
     1
273
     0
  0
XRECORD
  5
62
102
{ACAD_REACTORS
330
61
102
}
330
61
100
AcDbXrecord
280
     1
102
RTVSPropertyOp0
 70
     1
102
RTVSPropertyOp1
 70
     1
102
RTVSPropertyOp2
 70
     1
102
RTVSPropertyOp3
 70
     1
102
RTVSPropertyOp4
 70
     1
102
RTVSPropertyOp5
 70
     1
102
RTVSPropertyOp6
 70
     1
102
RTVSPropertyOp7
 70
     1
102
RTVSPropertyOp8
 70
     1
102
RTVSPropertyOp9
 70
     1
102
RTVSPropertyOp10
 70
     1
102
RTVSPropertyOp11
 70
     1
102
RTVSPropertyOp12
 70
     1
102
RTVSPropertyOp13
 70
     1
102
RTVSPropertyOp14
 70
     1
102
RTVSPropertyOp15
 70
     1
102
RTVSPropertyOp16
 70
     1
102
RTVSPropertyOp17
 70
     1
102
RTVSPropertyOp18
 70
     1
102
RTVSPropertyOp19
 70
     1
102
RTVSPropertyOp20
 70
     1
102
RTVSPropertyOp21
 70
     1
102
RTVSPropertyOp22
 70
     1
102
RTVSPropertyOp23
 70
     1
102
RTVSPropertyOp24
 70
     1
102
RTVSPropertyOp25
 70
     1
102
RTVSPropertyOp26
 70
     1
102
RTVSPropertyOp27
 70
     1
102
RTVSPropertyOp28
 70
     1
102
RTVSPropertyOp29
 70
     1
102
RTVSPropertyOp30
 70
     1
102
RTVSPropertyOp31
 70
     1
102
RTVSPropertyOp32
 70
     1
  0
XRECORD
  5
66
102
{ACAD_REACTORS
330
65
102
}
330
65
100
AcDbXrecord
280
     1
102
RTVSPropertyOp0
 70
     1
102
RTVSPropertyOp1
 70
     1
102
RTVSPropertyOp2
 70
     1
102
RTVSPropertyOp3
 70
     1
102
RTVSPropertyOp4
 70
     1
102
RTVSPropertyOp5
 70
     1
102
RTVSPropertyOp6
 70
     1
102
RTVSPropertyOp7
 70
     1
102
RTVSPropertyOp8
 70
     1
102
RTVSPropertyOp9
 70
     1
102
RTVSPropertyOp10
 70
     1
102
RTVSPropertyOp11
 70
     1
102
RTVSPropertyOp12
 70
     1
102
RTVSPropertyOp13
 70
     1
102
RTVSPropertyOp14
 70
     1
102
RTVSPropertyOp15
 70
     1
102
RTVSPropertyOp16
 70
     1
102
RTVSPropertyOp17
 70
     1
102
RTVSPropertyOp18
 70
     1
102
RTVSPropertyOp19
 70
     1
102
RTVSPropertyOp20
 70
     1
102
RTVSPropertyOp21
 70
     1
102
RTVSPropertyOp22
 70
     1
102
RTVSPropertyOp23
 70
     1
102
RTVSPropertyOp24
 70
     1
102
RTVSPropertyOp25
 70
     1
102
RTVSPropertyOp26
 70
     1
102
RTVSPropertyOp27
 70
     1
102
RTVSPropertyOp28
 70
     1
102
RTVSPropertyOp29
 70
     1
102
RTVSPropertyOp30
 70
     1
102
RTVSPropertyOp31
 70
     1
102
RTVSPropertyOp32
 70
     1
  0
XRECORD
  5
64
102
{ACAD_REACTORS
330
63
102
}
330
63
100
AcDbXrecord
280
     1
102
RTVSPropertyOp0
 70
     1
102
RTVSPropertyOp1
 70
     1
102
RTVSPropertyOp2
 70
     1
102
RTVSPropertyOp3
 70
     1
102
RTVSPropertyOp4
 70
     1
102
RTVSPropertyOp5
 70
     1
102
RTVSPropertyOp6
 70
     1
102
RTVSPropertyOp7
 70
     1
102
RTVSPropertyOp8
 70
     1
102
RTVSPropertyOp9
 70
     1
102
RTVSPropertyOp10
 70
     1
102
RTVSPropertyOp11
 70
     1
102
RTVSPropertyOp12
 70
     1
102
RTVSPropertyOp13
 70
     1
102
RTVSPropertyOp14
 70
     1
102
RTVSPropertyOp15
 70
     1
102
RTVSPropertyOp16
 70
     1
102
RTVSPropertyOp17
 70
     1
102
RTVSPropertyOp18
 70
     1
102
RTVSPropertyOp19
 70
     1
102
RTVSPropertyOp20
 70
     1
102
RTVSPropertyOp21
 70
     1
102
RTVSPropertyOp22
 70
     1
102
RTVSPropertyOp23
 70
     1
102
RTVSPropertyOp24
 70
     1
102
RTVSPropertyOp25
 70
     1
102
RTVSPropertyOp26
 70
     1
102
RTVSPropertyOp27
 70
     1
102
RTVSPropertyOp28
 70
     1
102
RTVSPropertyOp29
 70
     1
102
RTVSPropertyOp30
 70
     1
102
RTVSPropertyOp31
 70
     1
102
RTVSPropertyOp32
 70
     1
  0
XRECORD
  5
68
102
{ACAD_REACTORS
330
67
102
}
330
67
100
AcDbXrecord
280
     1
102
RTVSPropertyOp0
 70
     1
102
RTVSPropertyOp1
 70
     1
102
RTVSPropertyOp2
 70
     1
102
RTVSPropertyOp3
 70
     1
102
RTVSPropertyOp4
 70
     1
102
RTVSPropertyOp5
 70
     1
102
RTVSPropertyOp6
 70
     1
102
RTVSPropertyOp7
 70
     1
102
RTVSPropertyOp8
 70
     1
102
RTVSPropertyOp9
 70
     1
102
RTVSPropertyOp10
 70
     1
102
RTVSPropertyOp11
 70
     1
102
RTVSPropertyOp12
 70
     1
102
RTVSPropertyOp13
 70
     1
102
RTVSPropertyOp14
 70
     1
102
RTVSPropertyOp15
 70
     1
102
RTVSPropertyOp16
 70
     1
102
RTVSPropertyOp17
 70
     1
102
RTVSPropertyOp18
 70
     1
102
RTVSPropertyOp19
 70
     1
102
RTVSPropertyOp20
 70
     1
102
RTVSPropertyOp21
 70
     1
102
RTVSPropertyOp22
 70
     1
102
RTVSPropertyOp23
 70
     1
102
RTVSPropertyOp24
 70
     1
102
RTVSPropertyOp25
 70
     1
102
RTVSPropertyOp26
 70
     1
102
RTVSPropertyOp27
 70
     1
102
RTVSPropertyOp28
 70
     1
102
RTVSPropertyOp29
 70
     1
102
RTVSPropertyOp30
 70
     1
102
RTVSPropertyOp31
 70
     1
102
RTVSPropertyOp32
 70
     1
  0
XRECORD
  5
70
102
{ACAD_REACTORS
330
6F
102
}
330
6F
100
AcDbXrecord
280
     1
102
RTVSPropertyOp0
 70
     1
102
RTVSPropertyOp1
 70
     1
102
RTVSPropertyOp2
 70
     1
102
RTVSPropertyOp3
 70
     1
102
RTVSPropertyOp4
 70
     1
102
RTVSPropertyOp5
 70
     1
102
RTVSPropertyOp6
 70
     1
102
RTVSPropertyOp7
 70
     1
102
RTVSPropertyOp8
 70
     1
102
RTVSPropertyOp9
 70
     1
102
RTVSPropertyOp10
 70
     1
102
RTVSPropertyOp11
 70
     1
102
RTVSPropertyOp12
 70
     1
102
RTVSPropertyOp13
 70
     1
102
RTVSPropertyOp14
 70
     1
102
RTVSPropertyOp15
 70
     1
102
RTVSPropertyOp16
 70
     1
102
RTVSPropertyOp17
 70
     1
102
RTVSPropertyOp18
 70
     1
102
RTVSPropertyOp19
 70
     1
102
RTVSPropertyOp20
 70
     1
102
RTVSPropertyOp21
 70
     1
102
RTVSPropertyOp22
 70
     1
102
RTVSPropertyOp23
 70
     1
102
RTVSPropertyOp24
 70
     1
102
RTVSPropertyOp25
 70
     1
102
RTVSPropertyOp26
 70
     1
102
RTVSPropertyOp27
 70
     1
102
RTVSPropertyOp28
 70
     1
102
RTVSPropertyOp29
 70
     1
102
RTVSPropertyOp30
 70
     1
102
RTVSPropertyOp31
 70
     1
102
RTVSPropertyOp32
 70
     1
  0
XRECORD
  5
78
102
{ACAD_REACTORS
330
77
102
}
330
77
100
AcDbXrecord
280
     1
102
RTVSPropertyOp0
 70
     1
102
RTVSPropertyOp1
 70
     1
102
RTVSPropertyOp2
 70
     1
102
RTVSPropertyOp3
 70
     1
102
RTVSPropertyOp4
 70
     1
102
RTVSPropertyOp5
 70
     1
102
RTVSPropertyOp6
 70
     1
102
RTVSPropertyOp7
 70
     1
102
RTVSPropertyOp8
 70
     1
102
RTVSPropertyOp9
 70
     1
102
RTVSPropertyOp10
 70
     1
102
RTVSPropertyOp11
 70
     1
102
RTVSPropertyOp12
 70
     1
102
RTVSPropertyOp13
 70
     1
102
RTVSPropertyOp14
 70
     1
102
RTVSPropertyOp15
 70
     1
102
RTVSPropertyOp16
 70
     1
102
RTVSPropertyOp17
 70
     1
102
RTVSPropertyOp18
 70
     1
102
RTVSPropertyOp19
 70
     1
102
RTVSPropertyOp20
 70
     1
102
RTVSPropertyOp21
 70
     1
102
RTVSPropertyOp22
 70
     1
102
RTVSPropertyOp23
 70
     1
102
RTVSPropertyOp24
 70
     1
102
RTVSPropertyOp25
 70
     1
102
RTVSPropertyOp26
 70
     1
102
RTVSPropertyOp27
 70
     1
102
RTVSPropertyOp28
 70
     1
102
RTVSPropertyOp29
 70
     1
102
RTVSPropertyOp30
 70
     1
102
RTVSPropertyOp31
 70
     1
102
RTVSPropertyOp32
 70
     1
  0
XRECORD
  5
6C
102
{ACAD_REACTORS
330
6B
102
}
330
6B
100
AcDbXrecord
280
     1
102
RTVSPropertyOp0
 70
     1
102
RTVSPropertyOp1
 70
     1
102
RTVSPropertyOp2
 70
     1
102
RTVSPropertyOp3
 70
     1
102
RTVSPropertyOp4
 70
     1
102
RTVSPropertyOp5
 70
     1
102
RTVSPropertyOp6
 70
     1
102
RTVSPropertyOp7
 70
     1
102
RTVSPropertyOp8
 70
     1
102
RTVSPropertyOp9
 70
     1
102
RTVSPropertyOp10
 70
     1
102
RTVSPropertyOp11
 70
     1
102
RTVSPropertyOp12
 70
     1
102
RTVSPropertyOp13
 70
     1
102
RTVSPropertyOp14
 70
     1
102
RTVSPropertyOp15
 70
     1
102
RTVSPropertyOp16
 70
     1
102
RTVSPropertyOp17
 70
     1
102
RTVSPropertyOp18
 70
     1
102
RTVSPropertyOp19
 70
     1
102
RTVSPropertyOp20
 70
     1
102
RTVSPropertyOp21
 70
     1
102
RTVSPropertyOp22
 70
     1
102
RTVSPropertyOp23
 70
     1
102
RTVSPropertyOp24
 70
     1
102
RTVSPropertyOp25
 70
     1
102
RTVSPropertyOp26
 70
     1
102
RTVSPropertyOp27
 70
     1
102
RTVSPropertyOp28
 70
     1
102
RTVSPropertyOp29
 70
     1
102
RTVSPropertyOp30
 70
     1
102
RTVSPropertyOp31
 70
     1
102
RTVSPropertyOp32
 70
     1
  0
XRECORD
  5
6E
102
{ACAD_REACTORS
330
6D
102
}
330
6D
100
AcDbXrecord
280
     1
102
RTVSPropertyOp0
 70
     1
102
RTVSPropertyOp1
 70
     1
102
RTVSPropertyOp2
 70
     1
102
RTVSPropertyOp3
 70
     1
102
RTVSPropertyOp4
 70
     1
102
RTVSPropertyOp5
 70
     1
102
RTVSPropertyOp6
 70
     1
102
RTVSPropertyOp7
 70
     1
102
RTVSPropertyOp8
 70
     1
102
RTVSPropertyOp9
 70
     1
102
RTVSPropertyOp10
 70
     1
102
RTVSPropertyOp11
 70
     1
102
RTVSPropertyOp12
 70
     1
102
RTVSPropertyOp13
 70
     1
102
RTVSPropertyOp14
 70
     1
102
RTVSPropertyOp15
 70
     1
102
RTVSPropertyOp16
 70
     1
102
RTVSPropertyOp17
 70
     1
102
RTVSPropertyOp18
 70
     1
102
RTVSPropertyOp19
 70
     1
102
RTVSPropertyOp20
 70
     1
102
RTVSPropertyOp21
 70
     1
102
RTVSPropertyOp22
 70
     1
102
RTVSPropertyOp23
 70
     1
102
RTVSPropertyOp24
 70
     1
102
RTVSPropertyOp25
 70
     1
102
RTVSPropertyOp26
 70
     1
102
RTVSPropertyOp27
 70
     1
102
RTVSPropertyOp28
 70
     1
102
RTVSPropertyOp29
 70
     1
102
RTVSPropertyOp30
 70
     1
102
RTVSPropertyOp31
 70
     1
102
RTVSPropertyOp32
 70
     1
  0
XRECORD
  5
76
102
{ACAD_REACTORS
330
75
102
}
330
75
100
AcDbXrecord
280
     1
102
RTVSPropertyOp0
 70
     1
102
RTVSPropertyOp1
 70
     1
102
RTVSPropertyOp2
 70
     1
102
RTVSPropertyOp3
 70
     1
102
RTVSPropertyOp4
 70
     1
102
RTVSPropertyOp5
 70
     1
102
RTVSPropertyOp6
 70
     1
102
RTVSPropertyOp7
 70
     1
102
RTVSPropertyOp8
 70
     1
102
RTVSPropertyOp9
 70
     1
102
RTVSPropertyOp10
 70
     1
102
RTVSPropertyOp11
 70
     1
102
RTVSPropertyOp12
 70
     1
102
RTVSPropertyOp13
 70
     1
102
RTVSPropertyOp14
 70
     1
102
RTVSPropertyOp15
 70
     1
102
RTVSPropertyOp16
 70
     1
102
RTVSPropertyOp17
 70
     1
102
RTVSPropertyOp18
 70
     1
102
RTVSPropertyOp19
 70
     1
102
RTVSPropertyOp20
 70
     1
102
RTVSPropertyOp21
 70
     1
102
RTVSPropertyOp22
 70
     1
102
RTVSPropertyOp23
 70
     1
102
RTVSPropertyOp24
 70
     1
102
RTVSPropertyOp25
 70
     1
102
RTVSPropertyOp26
 70
     1
102
RTVSPropertyOp27
 70
     1
102
RTVSPropertyOp28
 70
     1
102
RTVSPropertyOp29
 70
     1
102
RTVSPropertyOp30
 70
     1
102
RTVSPropertyOp31
 70
     1
102
RTVSPropertyOp32
 70
     1
  0
XRECORD
  5
5A
102
{ACAD_REACTORS
330
59
102
}
330
59
100
AcDbXrecord
280
     1
102
RTVSPropertyOp0
 70
     1
102
RTVSPropertyOp1
 70
     1
102
RTVSPropertyOp2
 70
     1
102
RTVSPropertyOp3
 70
     1
102
RTVSPropertyOp4
 70
     1
102
RTVSPropertyOp5
 70
     1
102
RTVSPropertyOp6
 70
     1
102
RTVSPropertyOp7
 70
     1
102
RTVSPropertyOp8
 70
     1
102
RTVSPropertyOp9
 70
     1
102
RTVSPropertyOp10
 70
     1
102
RTVSPropertyOp11
 70
     1
102
RTVSPropertyOp12
 70
     1
102
RTVSPropertyOp13
 70
     1
102
RTVSPropertyOp14
 70
     1
102
RTVSPropertyOp15
 70
     1
102
RTVSPropertyOp16
 70
     1
102
RTVSPropertyOp17
 70
     1
102
RTVSPropertyOp18
 70
     1
102
RTVSPropertyOp19
 70
     1
102
RTVSPropertyOp20
 70
     1
102
RTVSPropertyOp21
 70
     1
102
RTVSPropertyOp22
 70
     1
102
RTVSPropertyOp23
 70
     1
102
RTVSPropertyOp24
 70
     1
102
RTVSPropertyOp25
 70
     1
102
RTVSPropertyOp26
 70
     1
102
RTVSPropertyOp27
 70
     1
102
RTVSPropertyOp28
 70
     1
102
RTVSPropertyOp29
 70
     1
102
RTVSPropertyOp30
 70
     1
102
RTVSPropertyOp31
 70
     1
102
RTVSPropertyOp32
 70
     1
  0
XRECORD
  5
5C
102
{ACAD_REACTORS
330
5B
102
}
330
5B
100
AcDbXrecord
280
     1
102
RTVSPropertyOp0
 70
     1
102
RTVSPropertyOp1
 70
     1
102
RTVSPropertyOp2
 70
     1
102
RTVSPropertyOp3
 70
     1
102
RTVSPropertyOp4
 70
     1
102
RTVSPropertyOp5
 70
     1
102
RTVSPropertyOp6
 70
     1
102
RTVSPropertyOp7
 70
     1
102
RTVSPropertyOp8
 70
     1
102
RTVSPropertyOp9
 70
     1
102
RTVSPropertyOp10
 70
     1
102
RTVSPropertyOp11
 70
     1
102
RTVSPropertyOp12
 70
     1
102
RTVSPropertyOp13
 70
     1
102
RTVSPropertyOp14
 70
     1
102
RTVSPropertyOp15
 70
     1
102
RTVSPropertyOp16
 70
     1
102
RTVSPropertyOp17
 70
     1
102
RTVSPropertyOp18
 70
     1
102
RTVSPropertyOp19
 70
     1
102
RTVSPropertyOp20
 70
     1
102
RTVSPropertyOp21
 70
     1
102
RTVSPropertyOp22
 70
     1
102
RTVSPropertyOp23
 70
     1
102
RTVSPropertyOp24
 70
     1
102
RTVSPropertyOp25
 70
     1
102
RTVSPropertyOp26
 70
     1
102
RTVSPropertyOp27
 70
     1
102
RTVSPropertyOp28
 70
     1
102
RTVSPropertyOp29
 70
     1
102
RTVSPropertyOp30
 70
     1
102
RTVSPropertyOp31
 70
     1
102
RTVSPropertyOp32
 70
     1
  0
XRECORD
  5
5E
102
{ACAD_REACTORS
330
5D
102
}
330
5D
100
AcDbXrecord
280
     1
102
RTVSPropertyOp0
 70
     1
102
RTVSPropertyOp1
 70
     1
102
RTVSPropertyOp2
 70
     1
102
RTVSPropertyOp3
 70
     1
102
RTVSPropertyOp4
 70
     1
102
RTVSPropertyOp5
 70
     1
102
RTVSPropertyOp6
 70
     1
102
RTVSPropertyOp7
 70
     1
102
RTVSPropertyOp8
 70
     1
102
RTVSPropertyOp9
 70
     1
102
RTVSPropertyOp10
 70
     1
102
RTVSPropertyOp11
 70
     1
102
RTVSPropertyOp12
 70
     1
102
RTVSPropertyOp13
 70
     1
102
RTVSPropertyOp14
 70
     1
102
RTVSPropertyOp15
 70
     1
102
RTVSPropertyOp16
 70
     1
102
RTVSPropertyOp17
 70
     1
102
RTVSPropertyOp18
 70
     1
102
RTVSPropertyOp19
 70
     1
102
RTVSPropertyOp20
 70
     1
102
RTVSPropertyOp21
 70
     1
102
RTVSPropertyOp22
 70
     1
102
RTVSPropertyOp23
 70
     1
102
RTVSPropertyOp24
 70
     1
102
RTVSPropertyOp25
 70
     1
102
RTVSPropertyOp26
 70
     1
102
RTVSPropertyOp27
 70
     1
102
RTVSPropertyOp28
 70
     1
102
RTVSPropertyOp29
 70
     1
102
RTVSPropertyOp30
 70
     1
102
RTVSPropertyOp31
 70
     1
102
RTVSPropertyOp32
 70
     1
  0
XRECORD
  5
60
102
{ACAD_REACTORS
330
5F
102
}
330
5F
100
AcDbXrecord
280
     1
102
RTVSPropertyOp0
 70
     1
102
RTVSPropertyOp1
 70
     1
102
RTVSPropertyOp2
 70
     1
102
RTVSPropertyOp3
 70
     1
102
RTVSPropertyOp4
 70
     1
102
RTVSPropertyOp5
 70
     1
102
RTVSPropertyOp6
 70
     1
102
RTVSPropertyOp7
 70
     1
102
RTVSPropertyOp8
 70
     1
102
RTVSPropertyOp9
 70
     1
102
RTVSPropertyOp10
 70
     1
102
RTVSPropertyOp11
 70
     1
102
RTVSPropertyOp12
 70
     1
102
RTVSPropertyOp13
 70
     1
102
RTVSPropertyOp14
 70
     1
102
RTVSPropertyOp15
 70
     1
102
RTVSPropertyOp16
 70
     1
102
RTVSPropertyOp17
 70
     1
102
RTVSPropertyOp18
 70
     1
102
RTVSPropertyOp19
 70
     1
102
RTVSPropertyOp20
 70
     1
102
RTVSPropertyOp21
 70
     1
102
RTVSPropertyOp22
 70
     1
102
RTVSPropertyOp23
 70
     1
102
RTVSPropertyOp24
 70
     1
102
RTVSPropertyOp25
 70
     1
102
RTVSPropertyOp26
 70
     1
102
RTVSPropertyOp27
 70
     1
102
RTVSPropertyOp28
 70
     1
102
RTVSPropertyOp29
 70
     1
102
RTVSPropertyOp30
 70
     1
102
RTVSPropertyOp31
 70
     1
102
RTVSPropertyOp32
 70
     1
  0
XRECORD
  5
74
102
{ACAD_REACTORS
330
73
102
}
330
73
100
AcDbXrecord
280
     1
102
RTVSPropertyOp0
 70
     1
102
RTVSPropertyOp1
 70
     1
102
RTVSPropertyOp2
 70
     1
102
RTVSPropertyOp3
 70
     1
102
RTVSPropertyOp4
 70
     1
102
RTVSPropertyOp5
 70
     1
102
RTVSPropertyOp6
 70
     1
102
RTVSPropertyOp7
 70
     1
102
RTVSPropertyOp8
 70
     1
102
RTVSPropertyOp9
 70
     1
102
RTVSPropertyOp10
 70
     1
102
RTVSPropertyOp11
 70
     1
102
RTVSPropertyOp12
 70
     1
102
RTVSPropertyOp13
 70
     1
102
RTVSPropertyOp14
 70
     1
102
RTVSPropertyOp15
 70
     1
102
RTVSPropertyOp16
 70
     1
102
RTVSPropertyOp17
 70
     1
102
RTVSPropertyOp18
 70
     1
102
RTVSPropertyOp19
 70
     1
102
RTVSPropertyOp20
 70
     1
102
RTVSPropertyOp21
 70
     1
102
RTVSPropertyOp22
 70
     1
102
RTVSPropertyOp23
 70
     1
102
RTVSPropertyOp24
 70
     1
102
RTVSPropertyOp25
 70
     1
102
RTVSPropertyOp26
 70
     1
102
RTVSPropertyOp27
 70
     1
102
RTVSPropertyOp28
 70
     1
102
RTVSPropertyOp29
 70
     1
102
RTVSPropertyOp30
 70
     1
102
RTVSPropertyOp31
 70
     1
102
RTVSPropertyOp32
 70
     1
  0
XRECORD
  5
6A
102
{ACAD_REACTORS
330
69
102
}
330
69
100
AcDbXrecord
280
     1
102
RTVSPropertyOp0
 70
     1
102
RTVSPropertyOp1
 70
     1
102
RTVSPropertyOp2
 70
     1
102
RTVSPropertyOp3
 70
     1
102
RTVSPropertyOp4
 70
     1
102
RTVSPropertyOp5
 70
     1
102
RTVSPropertyOp6
 70
     1
102
RTVSPropertyOp7
 70
     1
102
RTVSPropertyOp8
 70
     1
102
RTVSPropertyOp9
 70
     1
102
RTVSPropertyOp10
 70
     1
102
RTVSPropertyOp11
 70
     1
102
RTVSPropertyOp12
 70
     1
102
RTVSPropertyOp13
 70
     1
102
RTVSPropertyOp14
 70
     1
102
RTVSPropertyOp15
 70
     1
102
RTVSPropertyOp16
 70
     1
102
RTVSPropertyOp17
 70
     1
102
RTVSPropertyOp18
 70
     1
102
RTVSPropertyOp19
 70
     1
102
RTVSPropertyOp20
 70
     1
102
RTVSPropertyOp21
 70
     1
102
RTVSPropertyOp22
 70
     1
102
RTVSPropertyOp23
 70
     1
102
RTVSPropertyOp24
 70
     1
102
RTVSPropertyOp25
 70
     1
102
RTVSPropertyOp26
 70
     1
102
RTVSPropertyOp27
 70
     1
102
RTVSPropertyOp28
 70
     1
102
RTVSPropertyOp29
 70
     1
102
RTVSPropertyOp30
 70
     1
102
RTVSPropertyOp31
 70
     1
102
RTVSPropertyOp32
 70
     1
  0
XRECORD
  5
72
102
{ACAD_REACTORS
330
71
102
}
330
71
100
AcDbXrecord
280
     1
102
RTVSPropertyOp0
 70
     1
102
RTVSPropertyOp1
 70
     1
102
RTVSPropertyOp2
 70
     1
102
RTVSPropertyOp3
 70
     1
102
RTVSPropertyOp4
 70
     1
102
RTVSPropertyOp5
 70
     1
102
RTVSPropertyOp6
 70
     1
102
RTVSPropertyOp7
 70
     1
102
RTVSPropertyOp8
 70
     1
102
RTVSPropertyOp9
 70
     1
102
RTVSPropertyOp10
 70
     1
102
RTVSPropertyOp11
 70
     1
102
RTVSPropertyOp12
 70
     1
102
RTVSPropertyOp13
 70
     1
102
RTVSPropertyOp14
 70
     1
102
RTVSPropertyOp15
 70
     1
102
RTVSPropertyOp16
 70
     1
102
RTVSPropertyOp17
 70
     1
102
RTVSPropertyOp18
 70
     1
102
RTVSPropertyOp19
 70
     1
102
RTVSPropertyOp20
 70
     1
102
RTVSPropertyOp21
 70
     1
102
RTVSPropertyOp22
 70
     1
102
RTVSPropertyOp23
 70
     1
102
RTVSPropertyOp24
 70
     1
102
RTVSPropertyOp25
 70
     1
102
RTVSPropertyOp26
 70
     1
102
RTVSPropertyOp27
 70
     1
102
RTVSPropertyOp28
 70
     1
102
RTVSPropertyOp29
 70
     1
102
RTVSPropertyOp30
 70
     1
102
RTVSPropertyOp31
 70
     1
102
RTVSPropertyOp32
 70
     1
  0
ENDSEC
  0
EOF
