  0
SECTION
  2
HEADER
  9
$ACADVER
  1
AC1015
  9
$ACADMAINTVER
 70
     6
  9
$DWGCODEPAGE
  3
ANSI_1252
  9
$INSBASE
 10
0.0
 20
0.0
 30
0.0
  9
$EXTMIN
 10
0.0
 20
0.0
 30
0.0
  9
$EXTMAX
 10
300.0
 20
200.0
 30
0.0
  9
$LIMMIN
 10
0.0
 20
0.0
  9
$LIMMAX
 10
300.0
 20
200.0
  9
$ORTHOMODE
 70
     0
  9
$REGENMODE
 70
     1
  9
$FILLMODE
 70
     1
  9
$QTEXTMODE
 70
     0
  9
$MIRRTEXT
 70
     1
  9
$LTSCALE
 40
1.0
  9
$ATTMODE
 70
     1
  9
$TEXTSIZE
 40
3.5
  9
$TRACEWID
 40
1.0
  9
$TEXTSTYLE
  7
Standard
  9
$CLAYER
  8
0
  9
$CELTYPE
  6
ByLayer
  9
$CECOLOR
 62
   256
  9
$CELTSCALE
 40
1.0
  9
$DISPSILH
 70
     0
  9
$DIMSCALE
 40
1.0
  9
$DIMASZ
 40
3.302
  9
$DIMEXO
 40
1.0
  9
$DIMDLI
 40
3.75
  9
$DIMRND
 40
0.0
  9
$DIMDLE
 40
0.0
  9
$DIMEXE
 40
1.0
  9
$DIMTP
 40
0.0
  9
$DIMTM
 40
0.0
  9
$DIMTXT
 40
3.5
  9
$DIMCEN
 40
2.5
  9
$DIMTSZ
 40
0.0
  9
$DIMTOL
 70
     0
  9
$DIMLIM
 70
     0
  9
$DIMTIH
 70
     1
  9
$DIMTOH
 70
     1
  9
$DIMSE1
 70
     0
  9
$DIMSE2
 70
     0
  9
$DIMTAD
 70
     1
  9
$DIMZIN
 70
     0
  9
$DIMBLK
  1

  9
$DIMASO
 70
     1
  9
$DIMSHO
 70
     1
  9
$DIMPOST
  1

  9
$DIMAPOST
  1

  9
$DIMALT
 70
     0
  9
$DIMALTD
 70
     3
  9
$DIMALTF
 40
0.0393700787
  9
$DIMLFAC
 40
0.5
  9
$DIMTOFL
 70
     1
  9
$DIMTVP
 40
0.0
  9
$DIMTIX
 70
     0
  9
$DIMSOXD
 70
     0
  9
$DIMSAH
 70
     0
  9
$DIMBLK1
  1

  9
$DIMBLK2
  1

  9
$DIMSTYLE
  2
ISO-25
  9
$DIMCLRD
 70
     0
  9
$DIMCLRE
 70
     0
  9
$DIMCLRT
 70
     0
  9
$DIMTFAC
 40
1.0
  9
$DIMGAP
 40
1.524
  9
$DIMJUST
 70
     0
  9
$DIMSD1
 70
     0
  9
$DIMSD2
 70
     0
  9
$DIMTOLJ
 70
     0
  9
$DIMTZIN
 70
     0
  9
$DIMALTZ
 70
     0
  9
$DIMALTTZ
 70
     0
  9
$DIMUPT
 70
     0
  9
$DIMDEC
 70
     3
  9
$DIMTDEC
 70
     3
  9
$DIMALTU
 70
     2
  9
$DIMALTTD
 70
     3
  9
$DIMTXSTY
  7
Standard
  9
$DIMAUNIT
 70
     0
  9
$DIMADEC
 70
     2
  9
$DIMALTRND
 40
0.0
  9
$DIMAZIN
 70
     0
  9
$DIMDSEP
 70
    44
  9
$DIMATFIT
 70
     3
  9
$DIMFRAC
 70
     0
  9
$DIMLDRBLK
  1

  9
$DIMLUNIT
 70
     2
  9
$DIMLWD
 70
    -2
  9
$DIMLWE
 70
    -2
  9
$DIMTMOVE
 70
     0
  9
$LUNITS
 70
     2
  9
$LUPREC
 70
     2
  9
$SKETCHINC
 40
1.0
  9
$FILLETRAD
 40
10.0
  9
$AUNITS
 70
     0
  9
$AUPREC
 70
     2
  9
$MENU
  1
.
  9
$ELEVATION
 40
0.0
  9
$PELEVATION
 40
0.0
  9
$THICKNESS
 40
0.0
  9
$LIMCHECK
 70
     0
  9
$CHAMFERA
 40
10.0
  9
$CHAMFERB
 40
10.0
  9
$CHAMFERC
 40
20.0
  9
$CHAMFERD
 40
0.0
  9
$SKPOLY
 70
     0
  9
$TDCREATE
 40
2456065.507145579
  9
$TDUCREATE
 40
2456065.423812245
  9
$TDUPDATE
 40
2456065.50714559
  9
$TDUUPDATE
 40
2456065.423812257
  9
$TDINDWG
 40
0.0000000116
  9
$TDUSRTIMER
 40
0.0000000116
  9
$USRTIMER
 70
     1
  9
$ANGBASE
 50
0.0
  9
$ANGDIR
 70
     0
  9
$PDMODE
 70
     0
  9
$PDSIZE
 40
-1.0
  9
$PLINEWID
 40
0.0
  9
$SPLFRAME
 70
     0
  9
$SPLINETYPE
 70
     6
  9
$SPLINESEGS
 70
     8
  9
$HANDSEED
  5
29D
  9
$SURFTAB1
 70
     6
  9
$SURFTAB2
 70
     6
  9
$SURFTYPE
 70
     6
  9
$SURFU
 70
     6
  9
$SURFV
 70
     6
  9
$UCSBASE
  2

  9
$UCSNAME
  2

  9
$UCSORG
 10
0.0
 20
0.0
 30
0.0
  9
$UCSXDIR
 10
1.0
 20
0.0
 30
0.0
  9
$UCSYDIR
 10
0.0
 20
1.0
 30
0.0
  9
$UCSORTHOREF
  2

  9
$UCSORTHOVIEW
 70
     0
  9
$UCSORGTOP
 10
0.0
 20
0.0
 30
0.0
  9
$UCSORGBOTTOM
 10
0.0
 20
0.0
 30
0.0
  9
$UCSORGLEFT
 10
0.0
 20
0.0
 30
0.0
  9
$UCSORGRIGHT
 10
0.0
 20
0.0
 30
0.0
  9
$UCSORGFRONT
 10
0.0
 20
0.0
 30
0.0
  9
$UCSORGBACK
 10
0.0
 20
0.0
 30
0.0
  9
$PUCSBASE
  2

  9
$PUCSNAME
  2

  9
$PUCSORG
 10
0.0
 20
0.0
 30
0.0
  9
$PUCSXDIR
 10
1.0
 20
0.0
 30
0.0
  9
$PUCSYDIR
 10
0.0
 20
1.0
 30
0.0
  9
$PUCSORTHOREF
  2

  9
$PUCSORTHOVIEW
 70
     0
  9
$PUCSORGTOP
 10
0.0
 20
0.0
 30
0.0
  9
$PUCSORGBOTTOM
 10
0.0
 20
0.0
 30
0.0
  9
$PUCSORGLEFT
 10
0.0
 20
0.0
 30
0.0
  9
$PUCSORGRIGHT
 10
0.0
 20
0.0
 30
0.0
  9
$PUCSORGFRONT
 10
0.0
 20
0.0
 30
0.0
  9
$PUCSORGBACK
 10
0.0
 20
0.0
 30
0.0
  9
$USERI1
 70
     0
  9
$USERI2
 70
     0
  9
$USERI3
 70
     0
  9
$USERI4
 70
     0
  9
$USERI5
 70
     0
  9
$USERR1
 40
0.0
  9
$USERR2
 40
0.0
  9
$USERR3
 40
0.0
  9
$USERR4
 40
0.0
  9
$USERR5
 40
0.0
  9
$WORLDVIEW
 70
     1
  9
$SHADEDGE
 70
     3
  9
$SHADEDIF
 70
    70
  9
$TILEMODE
 70
     1
  9
$MAXACTVP
 70
    64
  9
$PINSBASE
 10
0.0
 20
0.0
 30
0.0
  9
$PLIMCHECK
 70
     0
  9
$PEXTMIN
 10
1.0000000000E+20
 20
1.0000000000E+20
 30
1.0000000000E+20
  9
$PEXTMAX
 10
-1.0000000000E+20
 20
-1.0000000000E+20
 30
-1.0000000000E+20
  9
$PLIMMIN
 10
0.0
 20
0.0
  9
$PLIMMAX
 10
420.0
 20
297.0
  9
$UNITMODE
 70
     0
  9
$VISRETAIN
 70
     1
  9
$PLINEGEN
 70
     0
  9
$PSLTSCALE
 70
     1
  9
$TREEDEPTH
 70
  3020
  9
$CMLSTYLE
  2
Standard
  9
$CMLJUST
 70
     0
  9
$CMLSCALE
 40
20.0
  9
$PROXYGRAPHICS
 70
     1
  9
$MEASUREMENT
 70
     1
  9
$CELWEIGHT
370
    -1
  9
$ENDCAPS
280
     0
  9
$JOINSTYLE
280
     0
  9
$LWDISPLAY
290
     1
  9
$INSUNITS
 70
     4
  9
$HYPERLINKBASE
  1

  9
$STYLESHEET
  1

  9
$XEDIT
290
     1
  9
$CEPSNTYPE
380
     0
  9
$PSTYLEMODE
290
     1
  9
$FINGERPRINTGUID
  2
{B595BAF2-58DD-4CD9-882A-9BFFDC509750}
  9
$VERSIONGUID
  2
{FAEB1C32-E019-11D5-929B-00C0DF256EC4}
  9
$EXTNAMES
290
     1
  9
$PSVPSCALE
 40
0.0
  9
$OLESTARTUP
290
     0
  0
ENDSEC
  0
SECTION
  2
CLASSES
  0
CLASS
  1
ACDBDICTIONARYWDFLT
  2
AcDbDictionaryWithDefault
  3
ObjectDBX Classes
 90
        0
280
     0
281
     0
  0
CLASS
  1
VISUALSTYLE
  2
AcDbVisualStyle
  3
ObjectDBX Classes
 90
     4095
280
     0
281
     0
  0
CLASS
  1
DICTIONARYVAR
  2
AcDbDictionaryVar
  3
ObjectDBX Classes
 90
        0
280
     0
281
     0
  0
CLASS
  1
ACDBPLACEHOLDER
  2
AcDbPlaceHolder
  3
ObjectDBX Classes
 90
        0
280
     0
281
     0
  0
CLASS
  1
LAYOUT
  2
AcDbLayout
  3
ObjectDBX Classes
 90
        0
280
     0
281
     0
  0
ENDSEC
  0
SECTION
  2
TABLES
  0
TABLE
  2
VPORT
  5
8
330
0
100
AcDbSymbolTable
 70
     1
  0
VPORT
  5
29
330
8
100
AcDbSymbolTableRecord
100
AcDbViewportTableRecord
  2
*Active
 70
     0
 10
0.0
 20
0.0
 11
1.0
 21
1.0
 12
150.0
 22
100.0
 13
0.0
 23
0.0
 14
10.0
 24
10.0
 15
10.0
 25
10.0
 16
0.0
 26
0.0
 36
1.0
 17
0.0
 27
0.0
 37
0.0
 40
200.0
 41
1.5
 42
50.0
 43
0.0
 44
0.0
 50
0.0
 51
0.0
 71
     0
 72
  2000
 73
     1
 74
     3
 75
     0
 76
     0
 77
     0
 78
     0
281
     0
 65
     1
110
0.0
120
0.0
130
0.0
111
1.0
121
0.0
131
0.0
112
0.0
122
1.0
132
0.0
 79
     0
146
0.0
  0
ENDTAB
  0
TABLE
  2
LTYPE
  5
5
330
0
100
AcDbSymbolTable
 70
     6
  0
LTYPE
  5
14
330
5
100
AcDbSymbolTableRecord
100
AcDbLinetypeTableRecord
  2
ByBlock
 70
     0
  3

 72
    65
 73
     0
 40
0.0
  0
LTYPE
  5
15
330
5
100
AcDbSymbolTableRecord
100
AcDbLinetypeTableRecord
  2
ByLayer
 70
     0
  3

 72
    65
 73
     0
 40
0.0
  0
LTYPE
  5
16
330
5
100
AcDbSymbolTableRecord
100
AcDbLinetypeTableRecord
  2
Continuous
 70
     0
  3
Solid line
 72
    65
 73
     0
 40
0.0
  0
LTYPE
  5
3B
330
5
100
AcDbSymbolTableRecord
100
AcDbLinetypeTableRecord
  2
HIDDEN
 70
     0
  3
Hidden __ __ __ __ __ __ __ __ __ __ __ __ __ __
 72
    65
 73
     2
 40
1.905
 49
1.27
 74
     0
 49
-0.635
 74
     0
  0
LTYPE
  5
3C
330
5
100
AcDbSymbolTableRecord
100
AcDbLinetypeTableRecord
  2
PHANTOM
 70
     0
  3
Phantom ______  __  __  ______  __  __  ______
 72
    65
 73
     6
 40
12.7
 49
6.35
 74
     0
 49
-1.27
 74
     0
 49
1.27
 74
     0
 49
-1.27
 74
     0
 49
1.27
 74
     0
 49
-1.27
 74
     0
  0
LTYPE
  5
3D
330
5
100
AcDbSymbolTableRecord
100
AcDbLinetypeTableRecord
  2
CENTER
 70
     0
  3
Center ____ _ ____ _ ____ _ ____ _ ____ _ ____
 72
    65
 73
     4
 40
10.16
 49
6.35
 74
     0
 49
-1.27
 74
     0
 49
1.27
 74
     0
 49
-1.27
 74
     0
  0
LTYPE
  5
3E
330
5
100
AcDbSymbolTableRecord
100
AcDbLinetypeTableRecord
  2
CENTERX2
 70
     0
  3
Center (2x) ________  __  ________  __  _____
 72
    65
 73
     4
 40
20.32
 49
12.7
 74
     0
 49
-2.54
 74
     0
 49
2.54
 74
     0
 49
-2.54
 74
     0
  0
LTYPE
  5
3F
330
5
100
AcDbSymbolTableRecord
100
AcDbLinetypeTableRecord
  2
DOT2
 70
     0
  3
Dot (.5x) ........................................
 72
    65
 73
     2
 40
0.635
 49
0.0
 74
     0
 49
-0.635
 74
     0
  0
ENDTAB
  0
TABLE
  2
LAYER
  5
2
330
0
100
AcDbSymbolTable
 70
     1
  0
LAYER
  5
10
330
2
100
AcDbSymbolTableRecord
100
AcDbLayerTableRecord
  2
0
 70
     0
 62
     7
  6
Continuous
370
    -3
390
F
  0
ENDTAB
  0
TABLE
  2
STYLE
  5
3
330
0
100
AcDbSymbolTable
 70
     1
  0
STYLE
  5
11
330
3
100
AcDbSymbolTableRecord
100
AcDbTextStyleTableRecord
  2
Standard
 70
     0
 40
0.0
 41
1.0
 50
0.0
 71
     0
 42
2.5
  3
txt
  4

  0
ENDTAB
  0
TABLE
  2
VIEW
  5
6
330
0
100
AcDbSymbolTable
 70
     0
  0
ENDTAB
  0
TABLE
  2
UCS
  5
7
330
0
100
AcDbSymbolTable
 70
     0
  0
ENDTAB
  0
TABLE
  2
APPID
  5
9
330
0
100
AcDbSymbolTable
 70
     1
  0
APPID
  5
12
330
9
100
AcDbSymbolTableRecord
100
AcDbRegAppTableRecord
  2
ACAD
 70
     0
  0
ENDTAB
  0
TABLE
  2
DIMSTYLE
  5
A
330
0
100
AcDbSymbolTable
 70
     1
100
AcDbDimStyleTable
  0
DIMSTYLE
105
27
330
A
100
AcDbSymbolTableRecord
100
AcDbDimStyleTableRecord
  2
ISO-25
 70
     0
 41
2.5
 42
0.625
 43
3.75
 44
1.25
 73
     0
 74
     0
 77
     1
 78
     8
140
2.5
141
2.5
143
0.0393700787
147
0.625
171
     3
172
     1
271
     2
272
     2
274
     3
278
    44
283
     0
284
     8
340
11
  0
ENDTAB
  0
TABLE
  2
BLOCK_RECORD
  5
1
330
0
100
AcDbSymbolTable
 70
     1
  0
BLOCK_RECORD
  5
1F
330
1
100
AcDbSymbolTableRecord
100
AcDbBlockTableRecord
  2
*Model_Space
340
22
  0
BLOCK_RECORD
  5
1B
330
1
100
AcDbSymbolTableRecord
100
AcDbBlockTableRecord
  2
*Paper_Space
340
1E
  0
BLOCK_RECORD
  5
23
330
1
100
AcDbSymbolTableRecord
100
AcDbBlockTableRecord
  2
*Paper_Space0
340
26
  0
ENDTAB
  0
ENDSEC
  0
SECTION
  2
BLOCKS
  0
BLOCK
  5
20
330
1F
100
AcDbEntity
  8
0
100
AcDbBlockBegin
  2
*Model_Space
 70
     0
 10
0.0
 20
0.0
 30
0.0
  3
*Model_Space
  1

  0
ENDBLK
  5
21
330
1F
100
AcDbEntity
  8
0
100
AcDbBlockEnd
  0
BLOCK
  5
1C
330
1B
100
AcDbEntity
 67
     1
  8
0
100
AcDbBlockBegin
  2
*Paper_Space
 70
     0
 10
0.0
 20
0.0
 30
0.0
  3
*Paper_Space
  1

  0
ENDBLK
  5
1D
330
1B
100
AcDbEntity
 67
     1
  8
0
100
AcDbBlockEnd
  0
BLOCK
  5
24
330
23
100
AcDbEntity
  8
0
100
AcDbBlockBegin
  2
*Paper_Space0
 70
     0
 10
0.0
 20
0.0
 30
0.0
  3
*Paper_Space0
  1

  0
ENDBLK
  5
25
330
23
100
AcDbEntity
  8
0
100
AcDbBlockEnd
  0
ENDSEC
  0
SECTION
  2
ENTITIES
  0
LINE
  5
40
330
1F
100
AcDbEntity
  8
0
  6
Continuous
 62
     7
370
    15
100
AcDbLine
 10
213.1582961857
 20
102.9517577175
 30
0.0
 11
213.1582961857
 21
82.9517577175
 31
0.0
  0
LINE
  5
41
330
1F
100
AcDbEntity
  8
0
  6
Continuous
 62
     7
370
    15
100
AcDbLine
 10
216.1582961857
 20
102.9517577175
 30
0.0
 11
213.1582961857
 21
102.9517577175
 31
0.0
  0
LINE
  5
42
330
1F
100
AcDbEntity
  8
0
  6
Continuous
 62
     7
370
    15
100
AcDbLine
 10
216.1582961857
 20
122.9517577175
 30
0.0
 11
216.1582961857
 21
102.9517577175
 31
0.0
  0
LINE
  5
43
330
1F
100
AcDbEntity
  8
0
  6
Continuous
 62
     7
370
    15
100
AcDbLine
 10
213.1582961857
 20
122.9517577175
 30
0.0
 11
216.1582961857
 21
122.9517577175
 31
0.0
  0
LINE
  5
44
330
1F
100
AcDbEntity
  8
0
  6
Continuous
 62
     7
370
    15
100
AcDbLine
 10
213.1582961857
 20
142.9517577175
 30
0.0
 11
213.1582961857
 21
122.9517577175
 31
0.0
  0
LINE
  5
45
330
1F
100
AcDbEntity
  8
0
  6
Continuous
 62
     7
370
    15
100
AcDbLine
 10
216.1582961857
 20
142.9517577175
 30
0.0
 11
213.1582961857
 21
142.9517577175
 31
0.0
  0
LINE
  5
46
330
1F
100
AcDbEntity
  8
0
  6
Continuous
 62
     7
370
    15
100
AcDbLine
 10
216.1582961857
 20
162.9517577175
 30
0.0
 11
216.1582961857
 21
142.9517577175
 31
0.0
  0
LINE
  5
47
330
1F
100
AcDbEntity
  8
0
  6
Continuous
 62
     7
370
    15
100
AcDbLine
 10
213.1582961857
 20
162.9517577175
 30
0.0
 11
216.1582961857
 21
162.9517577175
 31
0.0
  0
LINE
  5
48
330
1F
100
AcDbEntity
  8
0
  6
Continuous
 62
     7
370
    15
100
AcDbLine
 10
213.1582961857
 20
182.9517577175
 30
0.0
 11
213.1582961857
 21
162.9517577175
 31
0.0
  0
LINE
  5
49
330
1F
100
AcDbEntity
  8
0
  6
Continuous
 62
     7
370
    15
100
AcDbLine
 10
216.1582961857
 20
182.9517577175
 30
0.0
 11
213.1582961857
 21
182.9517577175
 31
0.0
  0
LINE
  5
4A
330
1F
100
AcDbEntity
  8
0
  6
Continuous
 62
     7
370
    15
100
AcDbLine
 10
216.1582961857
 20
189.9517577175
 30
0.0
 11
216.1582961857
 21
182.9517577175
 31
0.0
  0
LINE
  5
4B
330
1F
100
AcDbEntity
  8
0
  6
Continuous
 62
     7
370
    15
100
AcDbLine
 10
225.1582961857
 20
189.9517577175
 30
0.0
 11
216.1582961857
 21
189.9517577175
 31
0.0
  0
LINE
  5
4C
330
1F
100
AcDbEntity
  8
0
  6
Continuous
 62
     7
370
    15
100
AcDbLine
 10
225.1582961857
 20
192.9517577175
 30
0.0
 11
225.1582961857
 21
189.9517577175
 31
0.0
  0
LINE
  5
4D
330
1F
100
AcDbEntity
  8
0
  6
Continuous
 62
     7
370
    15
100
AcDbLine
 10
233.1582961857
 20
192.9517577175
 30
0.0
 11
225.1582961857
 21
192.9517577175
 31
0.0
  0
LINE
  5
4E
330
1F
100
AcDbEntity
  8
0
  6
Continuous
 62
     7
370
    15
100
AcDbLine
 10
233.1582961857
 20
189.9517577175
 30
0.0
 11
233.1582961857
 21
192.9517577175
 31
0.0
  0
LINE
  5
4F
330
1F
100
AcDbEntity
  8
0
  6
Continuous
 62
     7
370
    15
100
AcDbLine
 10
241.1582961857
 20
189.9517577175
 30
0.0
 11
233.1582961857
 21
189.9517577175
 31
0.0
  0
LINE
  5
50
330
1F
100
AcDbEntity
  8
0
  6
Continuous
 62
     7
370
    15
100
AcDbLine
 10
241.1582961857
 20
192.9517577175
 30
0.0
 11
241.1582961857
 21
189.9517577175
 31
0.0
  0
LINE
  5
51
330
1F
100
AcDbEntity
  8
0
  6
Continuous
 62
     7
370
    15
100
AcDbLine
 10
249.1582961857
 20
192.9517577175
 30
0.0
 11
241.1582961857
 21
192.9517577175
 31
0.0
  0
LINE
  5
52
330
1F
100
AcDbEntity
  8
0
  6
Continuous
 62
     7
370
    15
100
AcDbLine
 10
249.1582961857
 20
189.9517577175
 30
0.0
 11
249.1582961857
 21
192.9517577175
 31
0.0
  0
LINE
  5
53
330
1F
100
AcDbEntity
  8
0
  6
Continuous
 62
     7
370
    15
100
AcDbLine
 10
257.1582961857
 20
189.9517577175
 30
0.0
 11
249.1582961857
 21
189.9517577175
 31
0.0
  0
LINE
  5
54
330
1F
100
AcDbEntity
  8
0
  6
Continuous
 62
     7
370
    15
100
AcDbLine
 10
257.1582961857
 20
192.9517577175
 30
0.0
 11
257.1582961857
 21
189.9517577175
 31
0.0
  0
LINE
  5
55
330
1F
100
AcDbEntity
  8
0
  6
Continuous
 62
     7
370
    15
100
AcDbLine
 10
265.1582961857
 20
192.9517577175
 30
0.0
 11
257.1582961857
 21
192.9517577175
 31
0.0
  0
LINE
  5
56
330
1F
100
AcDbEntity
  8
0
  6
Continuous
 62
     7
370
    15
100
AcDbLine
 10
265.1582961857
 20
189.9517577175
 30
0.0
 11
265.1582961857
 21
192.9517577175
 31
0.0
  0
LINE
  5
57
330
1F
100
AcDbEntity
  8
0
  6
Continuous
 62
     7
370
    15
100
AcDbLine
 10
273.1582961857
 20
189.9517577175
 30
0.0
 11
265.1582961857
 21
189.9517577175
 31
0.0
  0
LINE
  5
58
330
1F
100
AcDbEntity
  8
0
  6
Continuous
 62
     7
370
    15
100
AcDbLine
 10
273.1582961857
 20
192.9517577175
 30
0.0
 11
273.1582961857
 21
189.9517577175
 31
0.0
  0
LINE
  5
59
330
1F
100
AcDbEntity
  8
0
  6
Continuous
 62
     7
370
    15
100
AcDbLine
 10
281.1582961857
 20
192.9517577175
 30
0.0
 11
273.1582961857
 21
192.9517577175
 31
0.0
  0
LINE
  5
5A
330
1F
100
AcDbEntity
  8
0
  6
Continuous
 62
     7
370
    15
100
AcDbLine
 10
281.1582961857
 20
189.9517577175
 30
0.0
 11
281.1582961857
 21
192.9517577175
 31
0.0
  0
LINE
  5
5B
330
1F
100
AcDbEntity
  8
0
  6
Continuous
 62
     7
370
    15
100
AcDbLine
 10
290.1582961857
 20
189.9517577175
 30
0.0
 11
281.1582961857
 21
189.9517577175
 31
0.0
  0
LINE
  5
5C
330
1F
100
AcDbEntity
  8
0
  6
Continuous
 62
     7
370
    15
100
AcDbLine
 10
290.1582961857
 20
182.9517577175
 30
0.0
 11
290.1582961857
 21
189.9517577175
 31
0.0
  0
LINE
  5
5D
330
1F
100
AcDbEntity
  8
0
  6
Continuous
 62
     7
370
    15
100
AcDbLine
 10
293.1582961857
 20
182.9517577175
 30
0.0
 11
290.1582961857
 21
182.9517577175
 31
0.0
  0
LINE
  5
5E
330
1F
100
AcDbEntity
  8
0
  6
Continuous
 62
     7
370
    15
100
AcDbLine
 10
293.1582961857
 20
162.9517577175
 30
0.0
 11
293.1582961857
 21
182.9517577175
 31
0.0
  0
LINE
  5
5F
330
1F
100
AcDbEntity
  8
0
  6
Continuous
 62
     7
370
    15
100
AcDbLine
 10
290.1582961857
 20
162.9517577175
 30
0.0
 11
293.1582961857
 21
162.9517577175
 31
0.0
  0
LINE
  5
60
330
1F
100
AcDbEntity
  8
0
  6
Continuous
 62
     7
370
    15
100
AcDbLine
 10
290.1582961857
 20
142.9517577175
 30
0.0
 11
290.1582961857
 21
162.9517577175
 31
0.0
  0
LINE
  5
61
330
1F
100
AcDbEntity
  8
0
  6
Continuous
 62
     7
370
    15
100
AcDbLine
 10
293.1582961857
 20
142.9517577175
 30
0.0
 11
290.1582961857
 21
142.9517577175
 31
0.0
  0
LINE
  5
62
330
1F
100
AcDbEntity
  8
0
  6
Continuous
 62
     7
370
    15
100
AcDbLine
 10
293.1582961857
 20
122.9517577175
 30
0.0
 11
293.1582961857
 21
142.9517577175
 31
0.0
  0
LINE
  5
63
330
1F
100
AcDbEntity
  8
0
  6
Continuous
 62
     7
370
    15
100
AcDbLine
 10
290.1582961857
 20
122.9517577175
 30
0.0
 11
293.1582961857
 21
122.9517577175
 31
0.0
  0
LINE
  5
64
330
1F
100
AcDbEntity
  8
0
  6
Continuous
 62
     7
370
    15
100
AcDbLine
 10
290.1582961857
 20
102.9517577175
 30
0.0
 11
290.1582961857
 21
122.9517577175
 31
0.0
  0
LINE
  5
65
330
1F
100
AcDbEntity
  8
0
  6
Continuous
 62
     7
370
    15
100
AcDbLine
 10
293.1582961857
 20
102.9517577175
 30
0.0
 11
290.1582961857
 21
102.9517577175
 31
0.0
  0
LINE
  5
66
330
1F
100
AcDbEntity
  8
0
  6
Continuous
 62
     7
370
    15
100
AcDbLine
 10
293.1582961857
 20
82.9517577175
 30
0.0
 11
293.1582961857
 21
102.9517577175
 31
0.0
  0
LINE
  5
67
330
1F
100
AcDbEntity
  8
0
  6
Continuous
 62
     7
370
    15
100
AcDbLine
 10
290.1582961857
 20
82.9517577175
 30
0.0
 11
293.1582961857
 21
82.9517577175
 31
0.0
  0
LINE
  5
68
330
1F
100
AcDbEntity
  8
0
  6
Continuous
 62
     7
370
    15
100
AcDbLine
 10
290.1582961857
 20
75.9517577175
 30
0.0
 11
290.1582961857
 21
82.9517577175
 31
0.0
  0
LINE
  5
69
330
1F
100
AcDbEntity
  8
0
  6
Continuous
 62
     7
370
    15
100
AcDbLine
 10
281.1582961857
 20
75.9517577175
 30
0.0
 11
290.1582961857
 21
75.9517577175
 31
0.0
  0
LINE
  5
6A
330
1F
100
AcDbEntity
  8
0
  6
Continuous
 62
     7
370
    15
100
AcDbLine
 10
281.1582961857
 20
72.9517577175
 30
0.0
 11
281.1582961857
 21
75.9517577175
 31
0.0
  0
LINE
  5
6B
330
1F
100
AcDbEntity
  8
0
  6
Continuous
 62
     7
370
    15
100
AcDbLine
 10
273.1582961857
 20
72.9517577175
 30
0.0
 11
281.1582961857
 21
72.9517577175
 31
0.0
  0
LINE
  5
6C
330
1F
100
AcDbEntity
  8
0
  6
Continuous
 62
     7
370
    15
100
AcDbLine
 10
273.1582961857
 20
75.9517577175
 30
0.0
 11
273.1582961857
 21
72.9517577175
 31
0.0
  0
LINE
  5
6D
330
1F
100
AcDbEntity
  8
0
  6
Continuous
 62
     7
370
    15
100
AcDbLine
 10
265.1582961857
 20
75.9517577175
 30
0.0
 11
273.1582961857
 21
75.9517577175
 31
0.0
  0
LINE
  5
6E
330
1F
100
AcDbEntity
  8
0
  6
Continuous
 62
     7
370
    15
100
AcDbLine
 10
265.1582961857
 20
72.9517577175
 30
0.0
 11
265.1582961857
 21
75.9517577175
 31
0.0
  0
LINE
  5
6F
330
1F
100
AcDbEntity
  8
0
  6
Continuous
 62
     7
370
    15
100
AcDbLine
 10
257.1582961857
 20
72.9517577175
 30
0.0
 11
265.1582961857
 21
72.9517577175
 31
0.0
  0
LINE
  5
70
330
1F
100
AcDbEntity
  8
0
  6
Continuous
 62
     7
370
    15
100
AcDbLine
 10
257.1582961857
 20
75.9517577175
 30
0.0
 11
257.1582961857
 21
72.9517577175
 31
0.0
  0
LINE
  5
71
330
1F
100
AcDbEntity
  8
0
  6
Continuous
 62
     7
370
    15
100
AcDbLine
 10
249.1582961857
 20
75.9517577175
 30
0.0
 11
257.1582961857
 21
75.9517577175
 31
0.0
  0
LINE
  5
72
330
1F
100
AcDbEntity
  8
0
  6
Continuous
 62
     7
370
    15
100
AcDbLine
 10
249.1582961857
 20
72.9517577175
 30
0.0
 11
249.1582961857
 21
75.9517577175
 31
0.0
  0
LINE
  5
73
330
1F
100
AcDbEntity
  8
0
  6
Continuous
 62
     7
370
    15
100
AcDbLine
 10
241.1582961857
 20
72.9517577175
 30
0.0
 11
249.1582961857
 21
72.9517577175
 31
0.0
  0
LINE
  5
74
330
1F
100
AcDbEntity
  8
0
  6
Continuous
 62
     7
370
    15
100
AcDbLine
 10
241.1582961857
 20
75.9517577175
 30
0.0
 11
241.1582961857
 21
72.9517577175
 31
0.0
  0
LINE
  5
75
330
1F
100
AcDbEntity
  8
0
  6
Continuous
 62
     7
370
    15
100
AcDbLine
 10
233.1582961857
 20
75.9517577175
 30
0.0
 11
241.1582961857
 21
75.9517577175
 31
0.0
  0
LINE
  5
76
330
1F
100
AcDbEntity
  8
0
  6
Continuous
 62
     7
370
    15
100
AcDbLine
 10
233.1582961857
 20
72.9517577175
 30
0.0
 11
233.1582961857
 21
75.9517577175
 31
0.0
  0
LINE
  5
77
330
1F
100
AcDbEntity
  8
0
  6
Continuous
 62
     7
370
    15
100
AcDbLine
 10
225.1582961857
 20
72.9517577175
 30
0.0
 11
233.1582961857
 21
72.9517577175
 31
0.0
  0
LINE
  5
78
330
1F
100
AcDbEntity
  8
0
  6
Continuous
 62
     7
370
    15
100
AcDbLine
 10
225.1582961857
 20
75.9517577175
 30
0.0
 11
225.1582961857
 21
72.9517577175
 31
0.0
  0
LINE
  5
79
330
1F
100
AcDbEntity
  8
0
  6
Continuous
 62
     7
370
    15
100
AcDbLine
 10
216.1582961857
 20
75.9517577175
 30
0.0
 11
225.1582961857
 21
75.9517577175
 31
0.0
  0
LINE
  5
7A
330
1F
100
AcDbEntity
  8
0
  6
Continuous
 62
     7
370
    15
100
AcDbLine
 10
216.1582961857
 20
82.9517577175
 30
0.0
 11
216.1582961857
 21
75.9517577175
 31
0.0
  0
LINE
  5
7B
330
1F
100
AcDbEntity
  8
0
  6
Continuous
 62
     7
370
    15
100
AcDbLine
 10
213.1582961857
 20
82.9517577175
 30
0.0
 11
216.1582961857
 21
82.9517577175
 31
0.0
  0
LINE
  5
7C
330
1F
100
AcDbEntity
  8
0
  6
Continuous
 62
     7
370
    15
100
AcDbLine
 10
20.2515153564
 20
161.2220285288
 30
0.0
 11
20.2515153564
 21
164.2220285288
 31
0.0
  0
LINE
  5
7D
330
1F
100
AcDbEntity
  8
0
  6
Continuous
 62
     7
370
    15
100
AcDbLine
 10
40.2515153564
 20
161.2220285288
 30
0.0
 11
20.2515153564
 21
161.2220285288
 31
0.0
  0
LINE
  5
7E
330
1F
100
AcDbEntity
  8
0
  6
Continuous
 62
     7
370
    15
100
AcDbLine
 10
40.2515153564
 20
164.2220285288
 30
0.0
 11
40.2515153564
 21
161.2220285288
 31
0.0
  0
LINE
  5
7F
330
1F
100
AcDbEntity
  8
0
  6
Continuous
 62
     7
370
    15
100
AcDbLine
 10
20.2515153564
 20
164.2220285288
 30
0.0
 11
40.2515153564
 21
164.2220285288
 31
0.0
  0
LINE
  5
80
330
1F
100
AcDbEntity
  8
0
  6
Continuous
 62
     7
370
    15
100
AcDbLine
 10
100.2515153564
 20
161.2220285288
 30
0.0
 11
100.2515153564
 21
164.2220285288
 31
0.0
  0
LINE
  5
81
330
1F
100
AcDbEntity
  8
0
  6
Continuous
 62
     7
370
    15
100
AcDbLine
 10
120.2515153564
 20
161.2220285288
 30
0.0
 11
100.2515153564
 21
161.2220285288
 31
0.0
  0
LINE
  5
82
330
1F
100
AcDbEntity
  8
0
  6
Continuous
 62
     7
370
    15
100
AcDbLine
 10
120.2515153564
 20
164.2220285288
 30
0.0
 11
120.2515153564
 21
161.2220285288
 31
0.0
  0
LINE
  5
83
330
1F
100
AcDbEntity
  8
0
  6
Continuous
 62
     7
370
    15
100
AcDbLine
 10
100.2515153564
 20
164.2220285288
 30
0.0
 11
120.2515153564
 21
164.2220285288
 31
0.0
  0
LINE
  5
84
330
1F
100
AcDbEntity
  8
0
  6
Continuous
 62
     7
370
    15
100
AcDbLine
 10
60.2515153564
 20
161.2220285288
 30
0.0
 11
60.2515153564
 21
164.2220285288
 31
0.0
  0
LINE
  5
85
330
1F
100
AcDbEntity
  8
0
  6
Continuous
 62
     7
370
    15
100
AcDbLine
 10
80.2515153564
 20
161.2220285288
 30
0.0
 11
60.2515153564
 21
161.2220285288
 31
0.0
  0
LINE
  5
86
330
1F
100
AcDbEntity
  8
0
  6
Continuous
 62
     7
370
    15
100
AcDbLine
 10
80.2515153564
 20
164.2220285288
 30
0.0
 11
80.2515153564
 21
161.2220285288
 31
0.0
  0
LINE
  5
87
330
1F
100
AcDbEntity
  8
0
  6
Continuous
 62
     7
370
    15
100
AcDbLine
 10
60.2515153564
 20
164.2220285288
 30
0.0
 11
80.2515153564
 21
164.2220285288
 31
0.0
  0
LINE
  5
88
330
1F
100
AcDbEntity
  8
0
  6
Continuous
 62
     7
370
    15
100
AcDbLine
 10
80.2515153564
 20
87.2220285288
 30
0.0
 11
60.2515153564
 21
87.2220285288
 31
0.0
  0
LINE
  5
89
330
1F
100
AcDbEntity
  8
0
  6
Continuous
 62
     7
370
    15
100
AcDbLine
 10
60.2515153564
 20
87.2220285288
 30
0.0
 11
60.2515153564
 21
84.2220285288
 31
0.0
  0
LINE
  5
8A
330
1F
100
AcDbEntity
  8
0
  6
Continuous
 62
     7
370
    15
100
AcDbLine
 10
60.2515153564
 20
84.2220285288
 30
0.0
 11
80.2515153564
 21
84.2220285288
 31
0.0
  0
LINE
  5
8B
330
1F
100
AcDbEntity
  8
0
  6
Continuous
 62
     7
370
    15
100
AcDbLine
 10
80.2515153564
 20
84.2220285288
 30
0.0
 11
80.2515153564
 21
87.2220285288
 31
0.0
  0
LINE
  5
8C
330
1F
100
AcDbEntity
  8
0
  6
Continuous
 62
     7
370
    15
100
AcDbLine
 10
40.2515153564
 20
87.2220285288
 30
0.0
 11
20.2515153564
 21
87.2220285288
 31
0.0
  0
LINE
  5
8D
330
1F
100
AcDbEntity
  8
0
  6
Continuous
 62
     7
370
    15
100
AcDbLine
 10
20.2515153564
 20
87.2220285288
 30
0.0
 11
20.2515153564
 21
84.2220285288
 31
0.0
  0
LINE
  5
8E
330
1F
100
AcDbEntity
  8
0
  6
Continuous
 62
     7
370
    15
100
AcDbLine
 10
20.2515153564
 20
84.2220285288
 30
0.0
 11
40.2515153564
 21
84.2220285288
 31
0.0
  0
LINE
  5
8F
330
1F
100
AcDbEntity
  8
0
  6
Continuous
 62
     7
370
    15
100
AcDbLine
 10
40.2515153564
 20
84.2220285288
 30
0.0
 11
40.2515153564
 21
87.2220285288
 31
0.0
  0
CIRCLE
  5
90
330
1F
100
AcDbEntity
  8
0
  6
Continuous
 62
     7
370
    15
100
AcDbCircle
 10
16.2515153564
 20
124.2220285288
 30
0.0
 40
1.5
  0
LINE
  5
91
330
1F
100
AcDbEntity
  8
0
  6
Continuous
 62
     7
370
    15
100
AcDbLine
 10
120.2515153564
 20
87.2220285288
 30
0.0
 11
100.2515153564
 21
87.2220285288
 31
0.0
  0
LINE
  5
92
330
1F
100
AcDbEntity
  8
0
  6
Continuous
 62
     7
370
    15
100
AcDbLine
 10
100.2515153564
 20
87.2220285288
 30
0.0
 11
100.2515153564
 21
84.2220285288
 31
0.0
  0
LINE
  5
93
330
1F
100
AcDbEntity
  8
0
  6
Continuous
 62
     7
370
    15
100
AcDbLine
 10
100.2515153564
 20
84.2220285288
 30
0.0
 11
120.2515153564
 21
84.2220285288
 31
0.0
  0
LINE
  5
94
330
1F
100
AcDbEntity
  8
0
  6
Continuous
 62
     7
370
    15
100
AcDbLine
 10
120.2515153564
 20
84.2220285288
 30
0.0
 11
120.2515153564
 21
87.2220285288
 31
0.0
  0
LINE
  5
95
330
1F
100
AcDbEntity
  8
0
  6
Continuous
 62
     7
370
    15
100
AcDbLine
 10
10.2515153564
 20
127.7220285288
 30
0.0
 11
10.2515153564
 21
134.7220285288
 31
0.0
  0
LINE
  5
96
330
1F
100
AcDbEntity
  8
0
  6
Continuous
 62
     7
370
    15
100
AcDbLine
 10
10.2515153564
 20
134.7220285288
 30
0.0
 11
7.2515153564
 21
134.7220285288
 31
0.0
  0
LINE
  5
97
330
1F
100
AcDbEntity
  8
0
  6
Continuous
 62
     7
370
    15
100
AcDbLine
 10
7.2515153564
 20
134.7220285288
 30
0.0
 11
7.2515153564
 21
141.7220285288
 31
0.0
  0
LINE
  5
98
330
1F
100
AcDbEntity
  8
0
  6
Continuous
 62
     7
370
    15
100
AcDbLine
 10
7.2515153564
 20
141.7220285288
 30
0.0
 11
10.2515153564
 21
141.7220285288
 31
0.0
  0
LINE
  5
99
330
1F
100
AcDbEntity
  8
0
  6
Continuous
 62
     7
370
    15
100
AcDbLine
 10
10.2515153564
 20
141.7220285288
 30
0.0
 11
10.2515153564
 21
148.7220285288
 31
0.0
  0
LINE
  5
9A
330
1F
100
AcDbEntity
  8
0
  6
Continuous
 62
     7
370
    15
100
AcDbLine
 10
10.2515153564
 20
148.7220285288
 30
0.0
 11
7.2515153564
 21
148.7220285288
 31
0.0
  0
LINE
  5
9B
330
1F
100
AcDbEntity
  8
0
  6
Continuous
 62
     7
370
    15
100
AcDbLine
 10
7.2515153564
 20
148.7220285288
 30
0.0
 11
7.2515153564
 21
155.7220285288
 31
0.0
  0
LINE
  5
9C
330
1F
100
AcDbEntity
  8
0
  6
Continuous
 62
     7
370
    15
100
AcDbLine
 10
7.2515153564
 20
155.7220285288
 30
0.0
 11
10.2515153564
 21
155.7220285288
 31
0.0
  0
LINE
  5
9D
330
1F
100
AcDbEntity
  8
0
  6
Continuous
 62
     7
370
    15
100
AcDbLine
 10
10.2515153564
 20
155.7220285288
 30
0.0
 11
10.2515153564
 21
162.7220285288
 31
0.0
  0
LINE
  5
9E
330
1F
100
AcDbEntity
  8
0
  6
Continuous
 62
     7
370
    15
100
AcDbLine
 10
10.2515153564
 20
162.7220285288
 30
0.0
 11
7.2515153564
 21
162.7220285288
 31
0.0
  0
LINE
  5
9F
330
1F
100
AcDbEntity
  8
0
  6
Continuous
 62
     7
370
    15
100
AcDbLine
 10
7.2515153564
 20
162.7220285288
 30
0.0
 11
7.2515153564
 21
169.7220285288
 31
0.0
  0
LINE
  5
A0
330
1F
100
AcDbEntity
  8
0
  6
Continuous
 62
     7
370
    15
100
AcDbLine
 10
7.2515153564
 20
169.7220285288
 30
0.0
 11
10.2515153564
 21
169.7220285288
 31
0.0
  0
LINE
  5
A1
330
1F
100
AcDbEntity
  8
0
  6
Continuous
 62
     7
370
    15
100
AcDbLine
 10
10.2515153564
 20
169.7220285288
 30
0.0
 11
10.2515153564
 21
176.7220285288
 31
0.0
  0
LINE
  5
A2
330
1F
100
AcDbEntity
  8
0
  6
Continuous
 62
     7
370
    15
100
AcDbLine
 10
10.2515153564
 20
176.7220285288
 30
0.0
 11
7.2515153564
 21
176.7220285288
 31
0.0
  0
LINE
  5
A3
330
1F
100
AcDbEntity
  8
0
  6
Continuous
 62
     7
370
    15
100
AcDbLine
 10
7.2515153564
 20
176.7220285288
 30
0.0
 11
7.2515153564
 21
183.7220285288
 31
0.0
  0
LINE
  5
A4
330
1F
100
AcDbEntity
  8
0
  6
Continuous
 62
     7
370
    15
100
AcDbLine
 10
7.2515153564
 20
183.7220285288
 30
0.0
 11
10.2515153564
 21
183.7220285288
 31
0.0
  0
LINE
  5
A5
330
1F
100
AcDbEntity
  8
0
  6
Continuous
 62
     7
370
    15
100
AcDbLine
 10
10.2515153564
 20
183.7220285288
 30
0.0
 11
10.2515153564
 21
190.7220285288
 31
0.0
  0
LINE
  5
A6
330
1F
100
AcDbEntity
  8
0
  6
Continuous
 62
     7
370
    15
100
AcDbLine
 10
10.2515153564
 20
190.7220285288
 30
0.0
 11
7.2515153564
 21
190.7220285288
 31
0.0
  0
LINE
  5
A7
330
1F
100
AcDbEntity
  8
0
  6
Continuous
 62
     7
370
    15
100
AcDbLine
 10
7.2515153564
 20
190.7220285288
 30
0.0
 11
7.2515153564
 21
197.7220285288
 31
0.0
  0
LINE
  5
A8
330
1F
100
AcDbEntity
  8
0
  6
Continuous
 62
     7
370
    15
100
AcDbLine
 10
7.2515153564
 20
197.7220285288
 30
0.0
 11
10.2515153564
 21
197.7220285288
 31
0.0
  0
LWPOLYLINE
  5
A9
330
1F
100
AcDbEntity
  8
0
  6
Continuous
 62
     7
370
    15
100
AcDbPolyline
 90
       11
 70
   128
 43
0.0
 10
10.2515153564
 20
197.7220285288
 10
11.3198468195
 20
195.4534831295
 10
12.8426688795
 20
193.3138039528
 10
14.7862539513
 20
191.323244712
 10
17.1168744501
 20
189.5020591208
 10
19.8008027908
 20
187.8705008924
 10
22.8043113884
 20
186.4488237404
 10
26.7085614074
 20
185.0702706689
 10
30.9546550604
 20
184.0445386484
 10
35.4873778694
 20
183.4047844619
 10
40.2515153564
 20
183.1841648924
  0
LINE
  5
AA
330
1F
100
AcDbEntity
  8
0
  6
Continuous
 62
     7
370
    15
100
AcDbLine
 10
40.2515153564
 20
183.1841648924
 30
0.0
 11
160.2515153564
 21
183.1841648924
 31
0.0
  0
LINE
  5
AB
330
1F
100
AcDbEntity
  8
0
  6
Continuous
 62
     7
370
    15
100
AcDbLine
 10
160.2515153564
 20
183.1841648924
 30
0.0
 11
160.2515153564
 21
181.7030967106
 31
0.0
  0
LINE
  5
AC
330
1F
100
AcDbEntity
  8
0
  6
Continuous
 62
     7
370
    15
100
AcDbLine
 10
160.2515153564
 20
181.7030967106
 30
0.0
 11
159.7515153564
 21
181.7030967106
 31
0.0
  0
ARC
  5
AD
330
1F
100
AcDbEntity
  8
0
  6
Continuous
 62
     7
370
    15
100
AcDbCircle
 10
159.7515153564
 20
180.2030967106
 30
0.0
 40
1.5
100
AcDbArc
 50
90.0
 51
180.0
  0
LINE
  5
AE
330
1F
100
AcDbEntity
  8
0
  6
Continuous
 62
     7
370
    15
100
AcDbLine
 10
158.2515153564
 20
180.2030967106
 30
0.0
 11
158.2515153564
 21
178.7220285288
 31
0.0
  0
LWPOLYLINE
  5
AF
330
1F
100
AcDbEntity
  8
0
  6
Continuous
 62
     7
370
    15
100
AcDbPolyline
 90
        8
 70
   128
 43
0.0
 10
158.2515153564
 20
178.7220285288
 10
156.141494763
 20
178.5898910432
 10
154.2404747884
 20
178.153403428
 10
152.6247111466
 20
177.4554695262
 10
151.6459604615
 20
176.7862543171
 10
150.9027306819
 20
176.012209042
 10
150.4271921871
 20
175.1514337597
 10
150.2515153564
 20
174.2220285288
  0
LWPOLYLINE
  5
B0
330
1F
100
AcDbEntity
  8
0
  6
Continuous
 62
     7
370
    15
100
AcDbPolyline
 90
        8
 70
   128
 43
0.0
 10
150.2515153564
 20
174.2220285288
 10
150.4271921871
 20
173.2926232978
 10
150.9027306819
 20
172.4318480155
 10
151.6459604615
 20
171.6578027404
 10
152.6247111466
 20
170.9885875314
 10
154.2404747884
 20
170.2906536295
 10
156.141494763
 20
169.8541660144
 10
158.2515153564
 20
169.7220285288
  0
LINE
  5
B1
330
1F
100
AcDbEntity
  8
0
  6
Continuous
 62
     7
370
    15
100
AcDbLine
 10
158.2515153564
 20
169.7220285288
 30
0.0
 11
158.2515153564
 21
168.7220285288
 31
0.0
  0
LWPOLYLINE
  5
B2
330
1F
100
AcDbEntity
  8
0
  6
Continuous
 62
     7
370
    15
100
AcDbPolyline
 90
        8
 70
   128
 43
0.0
 10
158.2515153564
 20
168.7220285288
 10
156.141494763
 20
168.5898910432
 10
154.2404747884
 20
168.153403428
 10
152.6247111466
 20
167.4554695262
 10
151.6459604615
 20
166.7862543171
 10
150.9027306819
 20
166.012209042
 10
150.4271921871
 20
165.1514337597
 10
150.2515153564
 20
164.2220285288
  0
LWPOLYLINE
  5
B3
330
1F
100
AcDbEntity
  8
0
  6
Continuous
 62
     7
370
    15
100
AcDbPolyline
 90
        8
 70
   128
 43
0.0
 10
150.2515153564
 20
164.2220285288
 10
150.4271921871
 20
163.2926232978
 10
150.9027306819
 20
162.4318480155
 10
151.6459604615
 20
161.6578027404
 10
152.6247111466
 20
160.9885875314
 10
154.2404747884
 20
160.2906536295
 10
156.141494763
 20
159.8541660144
 10
158.2515153564
 20
159.7220285288
  0
LINE
  5
B4
330
1F
100
AcDbEntity
  8
0
  6
Continuous
 62
     7
370
    15
100
AcDbLine
 10
158.2515153564
 20
159.7220285288
 30
0.0
 11
158.2515153564
 21
158.7220285288
 31
0.0
  0
LWPOLYLINE
  5
B5
330
1F
100
AcDbEntity
  8
0
  6
Continuous
 62
     7
370
    15
100
AcDbPolyline
 90
        8
 70
   128
 43
0.0
 10
158.2515153564
 20
158.7220285288
 10
156.141494763
 20
158.5898910432
 10
154.2404747884
 20
158.153403428
 10
152.6247111466
 20
157.4554695262
 10
151.6459604615
 20
156.7862543171
 10
150.9027306819
 20
156.012209042
 10
150.4271921871
 20
155.1514337597
 10
150.2515153564
 20
154.2220285288
  0
LWPOLYLINE
  5
B6
330
1F
100
AcDbEntity
  8
0
  6
Continuous
 62
     7
370
    15
100
AcDbPolyline
 90
        8
 70
   128
 43
0.0
 10
150.2515153564
 20
154.2220285288
 10
150.4271921871
 20
153.2926232978
 10
150.9027306819
 20
152.4318480155
 10
151.6459604615
 20
151.6578027404
 10
152.6247111466
 20
150.9885875314
 10
154.2404747884
 20
150.2906536295
 10
156.141494763
 20
149.8541660144
 10
158.2515153564
 20
149.7220285288
  0
LINE
  5
B7
330
1F
100
AcDbEntity
  8
0
  6
Continuous
 62
     7
370
    15
100
AcDbLine
 10
158.2515153564
 20
149.7220285288
 30
0.0
 11
158.2515153564
 21
148.7220285288
 31
0.0
  0
LWPOLYLINE
  5
B8
330
1F
100
AcDbEntity
  8
0
  6
Continuous
 62
     7
370
    15
100
AcDbPolyline
 90
        8
 70
   128
 43
0.0
 10
158.2515153564
 20
148.7220285288
 10
156.141494763
 20
148.5898910432
 10
154.2404747884
 20
148.153403428
 10
152.6247111466
 20
147.4554695262
 10
151.6459604615
 20
146.7862543171
 10
150.9027306819
 20
146.012209042
 10
150.4271921871
 20
145.1514337597
 10
150.2515153564
 20
144.2220285288
  0
LWPOLYLINE
  5
B9
330
1F
100
AcDbEntity
  8
0
  6
Continuous
 62
     7
370
    15
100
AcDbPolyline
 90
        8
 70
   128
 43
0.0
 10
150.2515153564
 20
144.2220285288
 10
150.4271921871
 20
143.2926232978
 10
150.9027306819
 20
142.4318480155
 10
151.6459604615
 20
141.6578027404
 10
152.6247111466
 20
140.9885875314
 10
154.2404747884
 20
140.2906536295
 10
156.141494763
 20
139.8541660144
 10
158.2515153564
 20
139.7220285288
  0
LINE
  5
BA
330
1F
100
AcDbEntity
  8
0
  6
Continuous
 62
     7
370
    15
100
AcDbLine
 10
158.2515153564
 20
139.7220285288
 30
0.0
 11
158.2515153564
 21
138.7220285288
 31
0.0
  0
LWPOLYLINE
  5
BB
330
1F
100
AcDbEntity
  8
0
  6
Continuous
 62
     7
370
    15
100
AcDbPolyline
 90
        8
 70
   128
 43
0.0
 10
158.2515153564
 20
138.7220285288
 10
156.141494763
 20
138.5898910432
 10
154.2404747884
 20
138.153403428
 10
152.6247111466
 20
137.4554695262
 10
151.6459604615
 20
136.7862543171
 10
150.9027306819
 20
136.012209042
 10
150.4271921871
 20
135.1514337597
 10
150.2515153564
 20
134.2220285288
  0
LWPOLYLINE
  5
BC
330
1F
100
AcDbEntity
  8
0
  6
Continuous
 62
     7
370
    15
100
AcDbPolyline
 90
        8
 70
   128
 43
0.0
 10
150.2515153564
 20
134.2220285288
 10
150.4271921871
 20
133.2926232978
 10
150.9027306819
 20
132.4318480155
 10
151.6459604615
 20
131.6578027404
 10
152.6247111466
 20
130.9885875314
 10
154.2404747884
 20
130.2906536295
 10
156.141494763
 20
129.8541660144
 10
158.2515153564
 20
129.7220285288
  0
LINE
  5
BD
330
1F
100
AcDbEntity
  8
0
  6
Continuous
 62
     7
370
    15
100
AcDbLine
 10
158.2515153564
 20
129.7220285288
 30
0.0
 11
158.2515153564
 21
128.7220285288
 31
0.0
  0
LWPOLYLINE
  5
BE
330
1F
100
AcDbEntity
  8
0
  6
Continuous
 62
     7
370
    15
100
AcDbPolyline
 90
        8
 70
   128
 43
0.0
 10
158.2515153564
 20
128.7220285288
 10
156.141494763
 20
128.5898910432
 10
154.2404747884
 20
128.153403428
 10
152.6247111466
 20
127.4554695262
 10
151.6459604615
 20
126.7862543171
 10
150.9027306819
 20
126.012209042
 10
150.4271921871
 20
125.1514337597
 10
150.2515153564
 20
124.2220285288
  0
LWPOLYLINE
  5
BF
330
1F
100
AcDbEntity
  8
0
  6
Continuous
 62
     7
370
    15
100
AcDbPolyline
 90
        8
 70
   128
 43
0.0
 10
158.2515153564
 20
119.7220285288
 10
156.141494763
 20
119.8541660144
 10
154.2404747884
 20
120.2906536295
 10
152.6247111466
 20
120.9885875313
 10
151.6459604615
 20
121.6578027404
 10
150.9027306819
 20
122.4318480155
 10
150.4271921871
 20
123.2926232978
 10
150.2515153564
 20
124.2220285288
  0
LINE
  5
C0
330
1F
100
AcDbEntity
  8
0
  6
Continuous
 62
     7
370
    15
100
AcDbLine
 10
158.2515153564
 20
118.7220285288
 30
0.0
 11
158.2515153564
 21
119.7220285288
 31
0.0
  0
LWPOLYLINE
  5
C1
330
1F
100
AcDbEntity
  8
0
  6
Continuous
 62
     7
370
    15
100
AcDbPolyline
 90
        8
 70
   128
 43
0.0
 10
150.2515153564
 20
114.2220285288
 10
150.4271921871
 20
115.1514337597
 10
150.9027306819
 20
116.012209042
 10
151.6459604615
 20
116.7862543171
 10
152.6247111466
 20
117.4554695262
 10
154.2404747884
 20
118.153403428
 10
156.141494763
 20
118.5898910432
 10
158.2515153564
 20
118.7220285288
  0
LWPOLYLINE
  5
C2
330
1F
100
AcDbEntity
  8
0
  6
Continuous
 62
     7
370
    15
100
AcDbPolyline
 90
        8
 70
   128
 43
0.0
 10
158.2515153564
 20
109.7220285288
 10
156.141494763
 20
109.8541660144
 10
154.2404747884
 20
110.2906536295
 10
152.6247111466
 20
110.9885875313
 10
151.6459604615
 20
111.6578027404
 10
150.9027306819
 20
112.4318480155
 10
150.4271921871
 20
113.2926232978
 10
150.2515153564
 20
114.2220285288
  0
LINE
  5
C3
330
1F
100
AcDbEntity
  8
0
  6
Continuous
 62
     7
370
    15
100
AcDbLine
 10
158.2515153564
 20
108.7220285288
 30
0.0
 11
158.2515153564
 21
109.7220285288
 31
0.0
  0
LWPOLYLINE
  5
C4
330
1F
100
AcDbEntity
  8
0
  6
Continuous
 62
     7
370
    15
100
AcDbPolyline
 90
        8
 70
   128
 43
0.0
 10
150.2515153564
 20
104.2220285288
 10
150.4271921871
 20
105.1514337597
 10
150.9027306819
 20
106.012209042
 10
151.6459604615
 20
106.7862543171
 10
152.6247111466
 20
107.4554695262
 10
154.2404747884
 20
108.153403428
 10
156.141494763
 20
108.5898910432
 10
158.2515153564
 20
108.7220285288
  0
LWPOLYLINE
  5
C5
330
1F
100
AcDbEntity
  8
0
  6
Continuous
 62
     7
370
    15
100
AcDbPolyline
 90
        8
 70
   128
 43
0.0
 10
158.2515153564
 20
99.7220285288
 10
156.141494763
 20
99.8541660144
 10
154.2404747884
 20
100.2906536295
 10
152.6247111466
 20
100.9885875313
 10
151.6459604615
 20
101.6578027404
 10
150.9027306819
 20
102.4318480155
 10
150.4271921871
 20
103.2926232978
 10
150.2515153564
 20
104.2220285288
  0
LINE
  5
C6
330
1F
100
AcDbEntity
  8
0
  6
Continuous
 62
     7
370
    15
100
AcDbLine
 10
158.2515153564
 20
98.7220285288
 30
0.0
 11
158.2515153564
 21
99.7220285288
 31
0.0
  0
LWPOLYLINE
  5
C7
330
1F
100
AcDbEntity
  8
0
  6
Continuous
 62
     7
370
    15
100
AcDbPolyline
 90
        8
 70
   128
 43
0.0
 10
150.2515153564
 20
94.2220285288
 10
150.4271921871
 20
95.1514337597
 10
150.9027306819
 20
96.012209042
 10
151.6459604615
 20
96.7862543171
 10
152.6247111466
 20
97.4554695262
 10
154.2404747884
 20
98.153403428
 10
156.141494763
 20
98.5898910432
 10
158.2515153564
 20
98.7220285288
  0
LWPOLYLINE
  5
C8
330
1F
100
AcDbEntity
  8
0
  6
Continuous
 62
     7
370
    15
100
AcDbPolyline
 90
        8
 70
   128
 43
0.0
 10
158.2515153564
 20
89.7220285288
 10
156.141494763
 20
89.8541660144
 10
154.2404747884
 20
90.2906536295
 10
152.6247111466
 20
90.9885875313
 10
151.6459604615
 20
91.6578027404
 10
150.9027306819
 20
92.4318480155
 10
150.4271921871
 20
93.2926232978
 10
150.2515153564
 20
94.2220285288
  0
LINE
  5
C9
330
1F
100
AcDbEntity
  8
0
  6
Continuous
 62
     7
370
    15
100
AcDbLine
 10
158.2515153564
 20
88.7220285288
 30
0.0
 11
158.2515153564
 21
89.7220285288
 31
0.0
  0
LWPOLYLINE
  5
CA
330
1F
100
AcDbEntity
  8
0
  6
Continuous
 62
     7
370
    15
100
AcDbPolyline
 90
        8
 70
   128
 43
0.0
 10
150.2515153564
 20
84.2220285288
 10
150.4271921871
 20
85.1514337597
 10
150.9027306819
 20
86.012209042
 10
151.6459604615
 20
86.7862543171
 10
152.6247111466
 20
87.4554695262
 10
154.2404747884
 20
88.153403428
 10
156.141494763
 20
88.5898910432
 10
158.2515153564
 20
88.7220285288
  0
LWPOLYLINE
  5
CB
330
1F
100
AcDbEntity
  8
0
  6
Continuous
 62
     7
370
    15
100
AcDbPolyline
 90
        8
 70
   128
 43
0.0
 10
158.2515153564
 20
79.7220285288
 10
156.141494763
 20
79.8541660144
 10
154.2404747884
 20
80.2906536295
 10
152.6247111466
 20
80.9885875313
 10
151.6459604615
 20
81.6578027404
 10
150.9027306819
 20
82.4318480155
 10
150.4271921871
 20
83.2926232978
 10
150.2515153564
 20
84.2220285288
  0
LINE
  5
CC
330
1F
100
AcDbEntity
  8
0
  6
Continuous
 62
     7
370
    15
100
AcDbLine
 10
158.2515153564
 20
78.7220285288
 30
0.0
 11
158.2515153564
 21
79.7220285288
 31
0.0
  0
LWPOLYLINE
  5
CD
330
1F
100
AcDbEntity
  8
0
  6
Continuous
 62
     7
370
    15
100
AcDbPolyline
 90
        8
 70
   128
 43
0.0
 10
150.2515153564
 20
74.2220285288
 10
150.4271921871
 20
75.1514337597
 10
150.9027306819
 20
76.012209042
 10
151.6459604615
 20
76.7862543171
 10
152.6247111466
 20
77.4554695262
 10
154.2404747884
 20
78.153403428
 10
156.141494763
 20
78.5898910432
 10
158.2515153564
 20
78.7220285288
  0
LWPOLYLINE
  5
CE
330
1F
100
AcDbEntity
  8
0
  6
Continuous
 62
     7
370
    15
100
AcDbPolyline
 90
        8
 70
   128
 43
0.0
 10
158.2515153564
 20
69.7220285288
 10
156.141494763
 20
69.8541660144
 10
154.2404747884
 20
70.2906536295
 10
152.6247111466
 20
70.9885875313
 10
151.6459604615
 20
71.6578027404
 10
150.9027306819
 20
72.4318480155
 10
150.4271921871
 20
73.2926232978
 10
150.2515153564
 20
74.2220285288
  0
LINE
  5
CF
330
1F
100
AcDbEntity
  8
0
  6
Continuous
 62
     7
370
    15
100
AcDbLine
 10
158.2515153564
 20
68.2409603469
 30
0.0
 11
158.2515153564
 21
69.7220285288
 31
0.0
  0
ARC
  5
D0
330
1F
100
AcDbEntity
  8
0
  6
Continuous
 62
     7
370
    15
100
AcDbCircle
 10
159.7515153564
 20
68.2409603469
 30
0.0
 40
1.5
100
AcDbArc
 50
180.0
 51
270.0
  0
LINE
  5
D1
330
1F
100
AcDbEntity
  8
0
  6
Continuous
 62
     7
370
    15
100
AcDbLine
 10
160.2515153564
 20
66.7409603469
 30
0.0
 11
159.7515153564
 21
66.7409603469
 31
0.0
  0
LINE
  5
D2
330
1F
100
AcDbEntity
  8
0
  6
Continuous
 62
     7
370
    15
100
AcDbLine
 10
160.2515153564
 20
65.2598921651
 30
0.0
 11
160.2515153564
 21
66.7409603469
 31
0.0
  0
LINE
  5
D3
330
1F
100
AcDbEntity
  8
0
  6
Continuous
 62
     7
370
    15
100
AcDbLine
 10
40.2515153564
 20
65.2598921651
 30
0.0
 11
160.2515153564
 21
65.2598921651
 31
0.0
  0
LWPOLYLINE
  5
D4
330
1F
100
AcDbEntity
  8
0
  6
Continuous
 62
     7
370
    15
100
AcDbPolyline
 90
       11
 70
   128
 43
0.0
 10
10.2515153564
 20
50.7220285288
 10
11.3198468195
 20
52.990573928
 10
12.8426688795
 20
55.1302531048
 10
14.7862539513
 20
57.1208123455
 10
17.1168744501
 20
58.9419979368
 10
19.8008027908
 20
60.5735561651
 10
22.8043113884
 20
61.9952333171
 10
26.7085614074
 20
63.3737863886
 10
30.9546550604
 20
64.3995184091
 10
35.4873778694
 20
65.0392725956
 10
40.2515153564
 20
65.2598921651
  0
LINE
  5
D5
330
1F
100
AcDbEntity
  8
0
  6
Continuous
 62
     7
370
    15
100
AcDbLine
 10
7.2515153564
 20
50.7220285288
 30
0.0
 11
10.2515153564
 21
50.7220285288
 31
0.0
  0
LINE
  5
D6
330
1F
100
AcDbEntity
  8
0
  6
Continuous
 62
     7
370
    15
100
AcDbLine
 10
7.2515153564
 20
57.7220285288
 30
0.0
 11
7.2515153564
 21
50.7220285288
 31
0.0
  0
LINE
  5
D7
330
1F
100
AcDbEntity
  8
0
  6
Continuous
 62
     7
370
    15
100
AcDbLine
 10
10.2515153564
 20
57.7220285288
 30
0.0
 11
7.2515153564
 21
57.7220285288
 31
0.0
  0
LINE
  5
D8
330
1F
100
AcDbEntity
  8
0
  6
Continuous
 62
     7
370
    15
100
AcDbLine
 10
10.2515153564
 20
64.7220285288
 30
0.0
 11
10.2515153564
 21
57.7220285288
 31
0.0
  0
LINE
  5
D9
330
1F
100
AcDbEntity
  8
0
  6
Continuous
 62
     7
370
    15
100
AcDbLine
 10
7.2515153564
 20
64.7220285288
 30
0.0
 11
10.2515153564
 21
64.7220285288
 31
0.0
  0
LINE
  5
DA
330
1F
100
AcDbEntity
  8
0
  6
Continuous
 62
     7
370
    15
100
AcDbLine
 10
7.2515153564
 20
71.7220285288
 30
0.0
 11
7.2515153564
 21
64.7220285288
 31
0.0
  0
LINE
  5
DB
330
1F
100
AcDbEntity
  8
0
  6
Continuous
 62
     7
370
    15
100
AcDbLine
 10
10.2515153564
 20
71.7220285288
 30
0.0
 11
7.2515153564
 21
71.7220285288
 31
0.0
  0
LINE
  5
DC
330
1F
100
AcDbEntity
  8
0
  6
Continuous
 62
     7
370
    15
100
AcDbLine
 10
10.2515153564
 20
78.7220285288
 30
0.0
 11
10.2515153564
 21
71.7220285288
 31
0.0
  0
LINE
  5
DD
330
1F
100
AcDbEntity
  8
0
  6
Continuous
 62
     7
370
    15
100
AcDbLine
 10
7.2515153564
 20
78.7220285288
 30
0.0
 11
10.2515153564
 21
78.7220285288
 31
0.0
  0
LINE
  5
DE
330
1F
100
AcDbEntity
  8
0
  6
Continuous
 62
     7
370
    15
100
AcDbLine
 10
7.2515153564
 20
85.7220285288
 30
0.0
 11
7.2515153564
 21
78.7220285288
 31
0.0
  0
LINE
  5
DF
330
1F
100
AcDbEntity
  8
0
  6
Continuous
 62
     7
370
    15
100
AcDbLine
 10
10.2515153564
 20
85.7220285288
 30
0.0
 11
7.2515153564
 21
85.7220285288
 31
0.0
  0
LINE
  5
E0
330
1F
100
AcDbEntity
  8
0
  6
Continuous
 62
     7
370
    15
100
AcDbLine
 10
10.2515153564
 20
92.7220285288
 30
0.0
 11
10.2515153564
 21
85.7220285288
 31
0.0
  0
LINE
  5
E1
330
1F
100
AcDbEntity
  8
0
  6
Continuous
 62
     7
370
    15
100
AcDbLine
 10
7.2515153564
 20
92.7220285288
 30
0.0
 11
10.2515153564
 21
92.7220285288
 31
0.0
  0
LINE
  5
E2
330
1F
100
AcDbEntity
  8
0
  6
Continuous
 62
     7
370
    15
100
AcDbLine
 10
7.2515153564
 20
99.7220285288
 30
0.0
 11
7.2515153564
 21
92.7220285288
 31
0.0
  0
LINE
  5
E3
330
1F
100
AcDbEntity
  8
0
  6
Continuous
 62
     7
370
    15
100
AcDbLine
 10
10.2515153564
 20
99.7220285288
 30
0.0
 11
7.2515153564
 21
99.7220285288
 31
0.0
  0
LINE
  5
E4
330
1F
100
AcDbEntity
  8
0
  6
Continuous
 62
     7
370
    15
100
AcDbLine
 10
10.2515153564
 20
106.7220285288
 30
0.0
 11
10.2515153564
 21
99.7220285288
 31
0.0
  0
LINE
  5
E5
330
1F
100
AcDbEntity
  8
0
  6
Continuous
 62
     7
370
    15
100
AcDbLine
 10
7.2515153564
 20
106.7220285288
 30
0.0
 11
10.2515153564
 21
106.7220285288
 31
0.0
  0
LINE
  5
E6
330
1F
100
AcDbEntity
  8
0
  6
Continuous
 62
     7
370
    15
100
AcDbLine
 10
7.2515153564
 20
113.7220285288
 30
0.0
 11
7.2515153564
 21
106.7220285288
 31
0.0
  0
LINE
  5
E7
330
1F
100
AcDbEntity
  8
0
  6
Continuous
 62
     7
370
    15
100
AcDbLine
 10
10.2515153564
 20
113.7220285288
 30
0.0
 11
7.2515153564
 21
113.7220285288
 31
0.0
  0
LINE
  5
E8
330
1F
100
AcDbEntity
  8
0
  6
Continuous
 62
     7
370
    15
100
AcDbLine
 10
10.2515153564
 20
120.7220285288
 30
0.0
 11
10.2515153564
 21
113.7220285288
 31
0.0
  0
LINE
  5
E9
330
1F
100
AcDbEntity
  8
0
  6
Continuous
 62
     7
370
    15
100
AcDbLine
 10
7.2515153564
 20
120.7220285288
 30
0.0
 11
10.2515153564
 21
120.7220285288
 31
0.0
  0
LINE
  5
EA
330
1F
100
AcDbEntity
  8
0
  6
Continuous
 62
     7
370
    15
100
AcDbLine
 10
7.2515153564
 20
127.7220285288
 30
0.0
 11
7.2515153564
 21
120.7220285288
 31
0.0
  0
LINE
  5
EB
330
1F
100
AcDbEntity
  8
0
  6
Continuous
 62
     7
370
    15
100
AcDbLine
 10
7.2515153564
 20
127.7220285288
 30
0.0
 11
10.2515153564
 21
127.7220285288
 31
0.0
  0
LINE
  5
EC
330
1F
100
AcDbEntity
  8
0
  6
Continuous
 62
     7
370
    15
100
AcDbLine
 10
157.9623363105
 20
34.9825671364
 30
0.0
 11
137.9623363105
 21
34.9825671364
 31
0.0
  0
LINE
  5
ED
330
1F
100
AcDbEntity
  8
0
  6
Continuous
 62
     7
370
    15
100
AcDbLine
 10
137.9623363105
 20
34.9825671364
 30
0.0
 11
137.9623363105
 21
31.9825671364
 31
0.0
  0
LINE
  5
EE
330
1F
100
AcDbEntity
  8
0
  6
Continuous
 62
     7
370
    15
100
AcDbLine
 10
137.9623363105
 20
31.9825671364
 30
0.0
 11
157.9623363105
 21
31.9825671364
 31
0.0
  0
LINE
  5
EF
330
1F
100
AcDbEntity
  8
0
  6
Continuous
 62
     7
370
    15
100
AcDbLine
 10
157.9623363105
 20
31.9825671364
 30
0.0
 11
157.9623363105
 21
34.9825671364
 31
0.0
  0
LINE
  5
F0
330
1F
100
AcDbEntity
  8
0
  6
Continuous
 62
     7
370
    15
100
AcDbLine
 10
77.9623363105
 20
34.9825671364
 30
0.0
 11
57.9623363105
 21
34.9825671364
 31
0.0
  0
LINE
  5
F1
330
1F
100
AcDbEntity
  8
0
  6
Continuous
 62
     7
370
    15
100
AcDbLine
 10
57.9623363105
 20
34.9825671364
 30
0.0
 11
57.9623363105
 21
31.9825671364
 31
0.0
  0
LINE
  5
F2
330
1F
100
AcDbEntity
  8
0
  6
Continuous
 62
     7
370
    15
100
AcDbLine
 10
57.9623363105
 20
31.9825671364
 30
0.0
 11
77.9623363105
 21
31.9825671364
 31
0.0
  0
LINE
  5
F3
330
1F
100
AcDbEntity
  8
0
  6
Continuous
 62
     7
370
    15
100
AcDbLine
 10
77.9623363105
 20
31.9825671364
 30
0.0
 11
77.9623363105
 21
34.9825671364
 31
0.0
  0
LINE
  5
F4
330
1F
100
AcDbEntity
  8
0
  6
Continuous
 62
     7
370
    15
100
AcDbLine
 10
176.9623363105
 20
63.4825671364
 30
0.0
 11
173.9623363105
 21
63.4825671364
 31
0.0
  0
LINE
  5
F5
330
1F
100
AcDbEntity
  8
0
  6
Continuous
 62
     7
370
    15
100
AcDbLine
 10
176.9623363105
 20
43.4825671364
 30
0.0
 11
176.9623363105
 21
63.4825671364
 31
0.0
  0
LINE
  5
F6
330
1F
100
AcDbEntity
  8
0
  6
Continuous
 62
     7
370
    15
100
AcDbLine
 10
173.9623363105
 20
43.4825671364
 30
0.0
 11
176.9623363105
 21
43.4825671364
 31
0.0
  0
LINE
  5
F7
330
1F
100
AcDbEntity
  8
0
  6
Continuous
 62
     7
370
    15
100
AcDbLine
 10
173.9623363105
 20
23.4825671364
 30
0.0
 11
173.9623363105
 21
43.4825671364
 31
0.0
  0
LINE
  5
F8
330
1F
100
AcDbEntity
  8
0
  6
Continuous
 62
     7
370
    15
100
AcDbLine
 10
176.9623363105
 20
23.4825671364
 30
0.0
 11
173.9623363105
 21
23.4825671364
 31
0.0
  0
LINE
  5
F9
330
1F
100
AcDbEntity
  8
0
  6
Continuous
 62
     7
370
    15
100
AcDbLine
 10
176.9623363105
 20
3.4825671364
 30
0.0
 11
176.9623363105
 21
23.4825671364
 31
0.0
  0
LINE
  5
FA
330
1F
100
AcDbEntity
  8
0
  6
Continuous
 62
     7
370
    15
100
AcDbLine
 10
173.9623363105
 20
3.4825671364
 30
0.0
 11
176.9623363105
 21
3.4825671364
 31
0.0
  0
LWPOLYLINE
  5
FB
330
1F
100
AcDbEntity
  8
0
  6
Continuous
 62
     7
370
    15
100
AcDbPolyline
 90
       15
 70
   128
 43
0.0
 10
138.7623363105
 20
23.4825671364
 10
143.5387461253
 20
23.2999919512
 10
148.119854829
 20
22.7681523216
 10
152.4637213105
 20
21.9108771364
 10
156.5284044587
 20
20.7519952846
 10
160.2719631624
 20
19.3153356549
 10
163.6524563105
 20
17.6247271364
 10
165.9243342012
 20
16.2044513552
 10
167.9507019355
 20
14.6647858864
 10
169.7138656074
 20
13.0157835427
 10
171.1961313105
 20
11.2674971364
 10
172.3798051387
 20
9.4299794802
 10
173.2471931855
 20
7.5132833864
 10
173.7806015449
 20
5.5274616677
 10
173.9623363105
 20
3.4825671364
  0
LINE
  5
FC
330
1F
100
AcDbEntity
  8
0
  6
Continuous
 62
     7
370
    15
100
AcDbLine
 10
13.9623363105
 20
23.4825671364
 30
0.0
 11
138.7623363105
 21
23.4825671364
 31
0.0
  0
ARC
  5
FD
330
1F
100
AcDbEntity
  8
0
  6
Continuous
 62
     7
370
    15
100
AcDbCircle
 10
13.9623363105
 20
33.4825671364
 30
0.0
 40
10.0
100
AcDbArc
 50
90.0
 51
270.0
  0
LINE
  5
FE
330
1F
100
AcDbEntity
  8
0
  6
Continuous
 62
     7
370
    15
100
AcDbLine
 10
138.7623363105
 20
43.4825671364
 30
0.0
 11
13.9623363105
 21
43.4825671364
 31
0.0
  0
LWPOLYLINE
  5
FF
330
1F
100
AcDbEntity
  8
0
  6
Continuous
 62
     7
370
    15
100
AcDbPolyline
 90
       15
 70
   128
 43
0.0
 10
173.9623363105
 20
63.4825671364
 10
173.7806015449
 20
61.4376726052
 10
173.2471931855
 20
59.4518508864
 10
172.3798051387
 20
57.5351547927
 10
171.1961313105
 20
55.6976371364
 10
169.7138656074
 20
53.9493507302
 10
167.9507019355
 20
52.3003483864
 10
165.9243342012
 20
50.7606829177
 10
163.6524563105
 20
49.3404071364
 10
160.2719631624
 20
47.6497986179
 10
156.5284044587
 20
46.2131389883
 10
152.4637213105
 20
45.0542571364
 10
148.119854829
 20
44.1969819512
 10
143.5387461253
 20
43.6651423216
 10
138.7623363105
 20
43.4825671364
  0
LINE
  5
100
330
1F
100
AcDbEntity
  8
0
  6
Continuous
 62
     7
370
    15
100
AcDbLine
 10
37.9623363105
 20
34.9825671364
 30
0.0
 11
17.9623363105
 21
34.9825671364
 31
0.0
  0
LINE
  5
101
330
1F
100
AcDbEntity
  8
0
  6
Continuous
 62
     7
370
    15
100
AcDbLine
 10
17.9623363105
 20
34.9825671364
 30
0.0
 11
17.9623363105
 21
31.9825671364
 31
0.0
  0
LINE
  5
102
330
1F
100
AcDbEntity
  8
0
  6
Continuous
 62
     7
370
    15
100
AcDbLine
 10
17.9623363105
 20
31.9825671364
 30
0.0
 11
37.9623363105
 21
31.9825671364
 31
0.0
  0
LINE
  5
103
330
1F
100
AcDbEntity
  8
0
  6
Continuous
 62
     7
370
    15
100
AcDbLine
 10
37.9623363105
 20
31.9825671364
 30
0.0
 11
37.9623363105
 21
34.9825671364
 31
0.0
  0
LINE
  5
104
330
1F
100
AcDbEntity
  8
0
  6
Continuous
 62
     7
370
    15
100
AcDbLine
 10
117.9623363105
 20
34.9825671364
 30
0.0
 11
97.9623363105
 21
34.9825671364
 31
0.0
  0
LINE
  5
105
330
1F
100
AcDbEntity
  8
0
  6
Continuous
 62
     7
370
    15
100
AcDbLine
 10
97.9623363105
 20
34.9825671364
 30
0.0
 11
97.9623363105
 21
31.9825671364
 31
0.0
  0
LINE
  5
106
330
1F
100
AcDbEntity
  8
0
  6
Continuous
 62
     7
370
    15
100
AcDbLine
 10
97.9623363105
 20
31.9825671364
 30
0.0
 11
117.9623363105
 21
31.9825671364
 31
0.0
  0
LINE
  5
107
330
1F
100
AcDbEntity
  8
0
  6
Continuous
 62
     7
370
    15
100
AcDbLine
 10
117.9623363105
 20
31.9825671364
 30
0.0
 11
117.9623363105
 21
34.9825671364
 31
0.0
  0
LINE
  5
108
330
1F
100
AcDbEntity
  8
0
  6
Continuous
 62
     7
370
    15
100
AcDbLine
 10
408.1118665267
 20
186.0927760818
 30
0.0
 11
408.1118665267
 21
192.0927760818
 31
0.0
  0
LINE
  5
109
330
1F
100
AcDbEntity
  8
0
  6
Continuous
 62
     7
370
    15
100
AcDbLine
 10
411.1118665267
 20
186.0927760818
 30
0.0
 11
408.1118665267
 21
186.0927760818
 31
0.0
  0
LINE
  5
10A
330
1F
100
AcDbEntity
  8
0
  6
Continuous
 62
     7
370
    15
100
AcDbLine
 10
411.1118665267
 20
166.0927760818
 30
0.0
 11
411.1118665267
 21
186.0927760818
 31
0.0
  0
LINE
  5
10B
330
1F
100
AcDbEntity
  8
0
  6
Continuous
 62
     7
370
    15
100
AcDbLine
 10
408.1118665267
 20
166.0927760818
 30
0.0
 11
411.1118665267
 21
166.0927760818
 31
0.0
  0
LINE
  5
10C
330
1F
100
AcDbEntity
  8
0
  6
Continuous
 62
     7
370
    15
100
AcDbLine
 10
408.1118665267
 20
146.0927760818
 30
0.0
 11
408.1118665267
 21
166.0927760818
 31
0.0
  0
LINE
  5
10D
330
1F
100
AcDbEntity
  8
0
  6
Continuous
 62
     7
370
    15
100
AcDbLine
 10
411.1118665267
 20
146.0927760818
 30
0.0
 11
408.1118665267
 21
146.0927760818
 31
0.0
  0
LINE
  5
10E
330
1F
100
AcDbEntity
  8
0
  6
Continuous
 62
     7
370
    15
100
AcDbLine
 10
411.1118665267
 20
126.0927760818
 30
0.0
 11
411.1118665267
 21
146.0927760818
 31
0.0
  0
LINE
  5
10F
330
1F
100
AcDbEntity
  8
0
  6
Continuous
 62
     7
370
    15
100
AcDbLine
 10
408.1118665267
 20
126.0927760818
 30
0.0
 11
411.1118665267
 21
126.0927760818
 31
0.0
  0
LINE
  5
110
330
1F
100
AcDbEntity
  8
0
  6
Continuous
 62
     7
370
    15
100
AcDbLine
 10
408.1118665267
 20
106.0927760818
 30
0.0
 11
408.1118665267
 21
126.0927760818
 31
0.0
  0
LINE
  5
111
330
1F
100
AcDbEntity
  8
0
  6
Continuous
 62
     7
370
    15
100
AcDbLine
 10
411.1118665267
 20
106.0927760818
 30
0.0
 11
408.1118665267
 21
106.0927760818
 31
0.0
  0
LINE
  5
112
330
1F
100
AcDbEntity
  8
0
  6
Continuous
 62
     7
370
    15
100
AcDbLine
 10
411.1118665267
 20
86.0927760818
 30
0.0
 11
411.1118665267
 21
106.0927760818
 31
0.0
  0
LINE
  5
113
330
1F
100
AcDbEntity
  8
0
  6
Continuous
 62
     7
370
    15
100
AcDbLine
 10
408.1118665267
 20
86.0927760818
 30
0.0
 11
411.1118665267
 21
86.0927760818
 31
0.0
  0
LINE
  5
114
330
1F
100
AcDbEntity
  8
0
  6
Continuous
 62
     7
370
    15
100
AcDbLine
 10
408.1118665267
 20
76.0927760818
 30
0.0
 11
408.1118665267
 21
86.0927760818
 31
0.0
  0
LINE
  5
115
330
1F
100
AcDbEntity
  8
0
  6
Continuous
 62
     7
370
    15
100
AcDbLine
 10
399.1118665267
 20
76.0927760818
 30
0.0
 11
408.1118665267
 21
76.0927760818
 31
0.0
  0
LINE
  5
116
330
1F
100
AcDbEntity
  8
0
  6
Continuous
 62
     7
370
    15
100
AcDbLine
 10
399.1118665267
 20
79.0927760818
 30
0.0
 11
399.1118665267
 21
76.0927760818
 31
0.0
  0
LINE
  5
117
330
1F
100
AcDbEntity
  8
0
  6
Continuous
 62
     7
370
    15
100
AcDbLine
 10
391.1118665267
 20
79.0927760818
 30
0.0
 11
399.1118665267
 21
79.0927760818
 31
0.0
  0
LINE
  5
118
330
1F
100
AcDbEntity
  8
0
  6
Continuous
 62
     7
370
    15
100
AcDbLine
 10
391.1118665267
 20
76.0927760818
 30
0.0
 11
391.1118665267
 21
79.0927760818
 31
0.0
  0
LINE
  5
119
330
1F
100
AcDbEntity
  8
0
  6
Continuous
 62
     7
370
    15
100
AcDbLine
 10
383.1118665267
 20
76.0927760818
 30
0.0
 11
391.1118665267
 21
76.0927760818
 31
0.0
  0
LINE
  5
11A
330
1F
100
AcDbEntity
  8
0
  6
Continuous
 62
     7
370
    15
100
AcDbLine
 10
383.1118665267
 20
79.0927760818
 30
0.0
 11
383.1118665267
 21
76.0927760818
 31
0.0
  0
LINE
  5
11B
330
1F
100
AcDbEntity
  8
0
  6
Continuous
 62
     7
370
    15
100
AcDbLine
 10
375.1118665267
 20
79.0927760818
 30
0.0
 11
383.1118665267
 21
79.0927760818
 31
0.0
  0
LINE
  5
11C
330
1F
100
AcDbEntity
  8
0
  6
Continuous
 62
     7
370
    15
100
AcDbLine
 10
375.1118665267
 20
76.0927760818
 30
0.0
 11
375.1118665267
 21
79.0927760818
 31
0.0
  0
LINE
  5
11D
330
1F
100
AcDbEntity
  8
0
  6
Continuous
 62
     7
370
    15
100
AcDbLine
 10
367.1118665267
 20
76.0927760818
 30
0.0
 11
375.1118665267
 21
76.0927760818
 31
0.0
  0
LINE
  5
11E
330
1F
100
AcDbEntity
  8
0
  6
Continuous
 62
     7
370
    15
100
AcDbLine
 10
367.1118665267
 20
79.0927760818
 30
0.0
 11
367.1118665267
 21
76.0927760818
 31
0.0
  0
LINE
  5
11F
330
1F
100
AcDbEntity
  8
0
  6
Continuous
 62
     7
370
    15
100
AcDbLine
 10
359.1118665267
 20
79.0927760818
 30
0.0
 11
367.1118665267
 21
79.0927760818
 31
0.0
  0
LINE
  5
120
330
1F
100
AcDbEntity
  8
0
  6
Continuous
 62
     7
370
    15
100
AcDbLine
 10
359.1118665267
 20
76.0927760818
 30
0.0
 11
359.1118665267
 21
79.0927760818
 31
0.0
  0
LINE
  5
121
330
1F
100
AcDbEntity
  8
0
  6
Continuous
 62
     7
370
    15
100
AcDbLine
 10
351.1118665267
 20
76.0927760818
 30
0.0
 11
359.1118665267
 21
76.0927760818
 31
0.0
  0
LINE
  5
122
330
1F
100
AcDbEntity
  8
0
  6
Continuous
 62
     7
370
    15
100
AcDbLine
 10
351.1118665267
 20
79.0927760818
 30
0.0
 11
351.1118665267
 21
76.0927760818
 31
0.0
  0
LINE
  5
123
330
1F
100
AcDbEntity
  8
0
  6
Continuous
 62
     7
370
    15
100
AcDbLine
 10
343.1118665267
 20
79.0927760818
 30
0.0
 11
351.1118665267
 21
79.0927760818
 31
0.0
  0
LINE
  5
124
330
1F
100
AcDbEntity
  8
0
  6
Continuous
 62
     7
370
    15
100
AcDbLine
 10
343.1118665267
 20
76.0927760818
 30
0.0
 11
343.1118665267
 21
79.0927760818
 31
0.0
  0
LINE
  5
125
330
1F
100
AcDbEntity
  8
0
  6
Continuous
 62
     7
370
    15
100
AcDbLine
 10
334.1118665267
 20
76.0927760818
 30
0.0
 11
343.1118665267
 21
76.0927760818
 31
0.0
  0
LINE
  5
126
330
1F
100
AcDbEntity
  8
0
  6
Continuous
 62
     7
370
    15
100
AcDbLine
 10
334.1118665267
 20
86.0927760818
 30
0.0
 11
334.1118665267
 21
76.0927760818
 31
0.0
  0
LINE
  5
127
330
1F
100
AcDbEntity
  8
0
  6
Continuous
 62
     7
370
    15
100
AcDbLine
 10
331.1118665267
 20
86.0927760818
 30
0.0
 11
334.1118665267
 21
86.0927760818
 31
0.0
  0
LINE
  5
128
330
1F
100
AcDbEntity
  8
0
  6
Continuous
 62
     7
370
    15
100
AcDbLine
 10
331.1118665267
 20
106.0927760818
 30
0.0
 11
331.1118665267
 21
86.0927760818
 31
0.0
  0
LINE
  5
129
330
1F
100
AcDbEntity
  8
0
  6
Continuous
 62
     7
370
    15
100
AcDbLine
 10
334.1118665267
 20
106.0927760818
 30
0.0
 11
331.1118665267
 21
106.0927760818
 31
0.0
  0
LINE
  5
12A
330
1F
100
AcDbEntity
  8
0
  6
Continuous
 62
     7
370
    15
100
AcDbLine
 10
334.1118665267
 20
126.0927760818
 30
0.0
 11
334.1118665267
 21
106.0927760818
 31
0.0
  0
LINE
  5
12B
330
1F
100
AcDbEntity
  8
0
  6
Continuous
 62
     7
370
    15
100
AcDbLine
 10
331.1118665267
 20
126.0927760818
 30
0.0
 11
334.1118665267
 21
126.0927760818
 31
0.0
  0
LINE
  5
12C
330
1F
100
AcDbEntity
  8
0
  6
Continuous
 62
     7
370
    15
100
AcDbLine
 10
331.1118665267
 20
146.0927760818
 30
0.0
 11
331.1118665267
 21
126.0927760818
 31
0.0
  0
LINE
  5
12D
330
1F
100
AcDbEntity
  8
0
  6
Continuous
 62
     7
370
    15
100
AcDbLine
 10
334.1118665267
 20
146.0927760818
 30
0.0
 11
331.1118665267
 21
146.0927760818
 31
0.0
  0
LINE
  5
12E
330
1F
100
AcDbEntity
  8
0
  6
Continuous
 62
     7
370
    15
100
AcDbLine
 10
334.1118665267
 20
166.0927760818
 30
0.0
 11
334.1118665267
 21
146.0927760818
 31
0.0
  0
LINE
  5
12F
330
1F
100
AcDbEntity
  8
0
  6
Continuous
 62
     7
370
    15
100
AcDbLine
 10
331.1118665267
 20
166.0927760818
 30
0.0
 11
334.1118665267
 21
166.0927760818
 31
0.0
  0
LINE
  5
130
330
1F
100
AcDbEntity
  8
0
  6
Continuous
 62
     7
370
    15
100
AcDbLine
 10
331.1118665267
 20
186.0927760818
 30
0.0
 11
331.1118665267
 21
166.0927760818
 31
0.0
  0
LINE
  5
131
330
1F
100
AcDbEntity
  8
0
  6
Continuous
 62
     7
370
    15
100
AcDbLine
 10
334.1118665267
 20
186.0927760818
 30
0.0
 11
331.1118665267
 21
186.0927760818
 31
0.0
  0
LINE
  5
132
330
1F
100
AcDbEntity
  8
0
  6
Continuous
 62
     7
370
    15
100
AcDbLine
 10
334.1118665267
 20
192.0927760818
 30
0.0
 11
334.1118665267
 21
186.0927760818
 31
0.0
  0
LINE
  5
133
330
1F
100
AcDbEntity
  8
0
  6
Continuous
 62
     7
370
    15
100
AcDbLine
 10
408.1118665267
 20
192.0927760818
 30
0.0
 11
334.1118665267
 21
192.0927760818
 31
0.0
  0
LINE
  5
134
330
1F
100
AcDbEntity
  8
0
  6
Continuous
 62
     7
370
    15
100
AcDbLine
 10
272.4786362914
 20
341.4546059745
 30
0.0
 11
275.4786362914
 21
341.4546059745
 31
0.0
  0
LINE
  5
135
330
1F
100
AcDbEntity
  8
0
  6
Continuous
 62
     7
370
    15
100
AcDbLine
 10
272.4786362914
 20
321.4546059745
 30
0.0
 11
272.4786362914
 21
341.4546059745
 31
0.0
  0
LINE
  5
136
330
1F
100
AcDbEntity
  8
0
  6
Continuous
 62
     7
370
    15
100
AcDbLine
 10
275.4786362914
 20
321.4546059745
 30
0.0
 11
272.4786362914
 21
321.4546059745
 31
0.0
  0
LINE
  5
137
330
1F
100
AcDbEntity
  8
0
  6
Continuous
 62
     7
370
    15
100
AcDbLine
 10
275.4786362914
 20
341.4546059745
 30
0.0
 11
275.4786362914
 21
321.4546059745
 31
0.0
  0
LINE
  5
138
330
1F
100
AcDbEntity
  8
0
  6
Continuous
 62
     7
370
    15
100
AcDbLine
 10
272.4786362914
 20
261.4546059745
 30
0.0
 11
275.4786362914
 21
261.4546059745
 31
0.0
  0
LINE
  5
139
330
1F
100
AcDbEntity
  8
0
  6
Continuous
 62
     7
370
    15
100
AcDbLine
 10
272.4786362914
 20
241.4546059745
 30
0.0
 11
272.4786362914
 21
261.4546059745
 31
0.0
  0
LINE
  5
13A
330
1F
100
AcDbEntity
  8
0
  6
Continuous
 62
     7
370
    15
100
AcDbLine
 10
275.4786362914
 20
241.4546059745
 30
0.0
 11
272.4786362914
 21
241.4546059745
 31
0.0
  0
LINE
  5
13B
330
1F
100
AcDbEntity
  8
0
  6
Continuous
 62
     7
370
    15
100
AcDbLine
 10
275.4786362914
 20
261.4546059745
 30
0.0
 11
275.4786362914
 21
241.4546059745
 31
0.0
  0
LINE
  5
13C
330
1F
100
AcDbEntity
  8
0
  6
Continuous
 62
     7
370
    15
100
AcDbLine
 10
272.4786362914
 20
301.4546059745
 30
0.0
 11
275.4786362914
 21
301.4546059745
 31
0.0
  0
LINE
  5
13D
330
1F
100
AcDbEntity
  8
0
  6
Continuous
 62
     7
370
    15
100
AcDbLine
 10
272.4786362914
 20
281.4546059745
 30
0.0
 11
272.4786362914
 21
301.4546059745
 31
0.0
  0
LINE
  5
13E
330
1F
100
AcDbEntity
  8
0
  6
Continuous
 62
     7
370
    15
100
AcDbLine
 10
275.4786362914
 20
281.4546059745
 30
0.0
 11
272.4786362914
 21
281.4546059745
 31
0.0
  0
LINE
  5
13F
330
1F
100
AcDbEntity
  8
0
  6
Continuous
 62
     7
370
    15
100
AcDbLine
 10
275.4786362914
 20
301.4546059745
 30
0.0
 11
275.4786362914
 21
281.4546059745
 31
0.0
  0
LINE
  5
140
330
1F
100
AcDbEntity
  8
0
  6
Continuous
 62
     7
370
    15
100
AcDbLine
 10
198.4786362914
 20
281.4546059745
 30
0.0
 11
198.4786362914
 21
301.4546059745
 31
0.0
  0
LINE
  5
141
330
1F
100
AcDbEntity
  8
0
  6
Continuous
 62
     7
370
    15
100
AcDbLine
 10
198.4786362914
 20
301.4546059745
 30
0.0
 11
195.4786362914
 21
301.4546059745
 31
0.0
  0
LINE
  5
142
330
1F
100
AcDbEntity
  8
0
  6
Continuous
 62
     7
370
    15
100
AcDbLine
 10
195.4786362914
 20
301.4546059745
 30
0.0
 11
195.4786362914
 21
281.4546059745
 31
0.0
  0
LINE
  5
143
330
1F
100
AcDbEntity
  8
0
  6
Continuous
 62
     7
370
    15
100
AcDbLine
 10
195.4786362914
 20
281.4546059745
 30
0.0
 11
198.4786362914
 21
281.4546059745
 31
0.0
  0
LINE
  5
144
330
1F
100
AcDbEntity
  8
0
  6
Continuous
 62
     7
370
    15
100
AcDbLine
 10
198.4786362914
 20
321.4546059745
 30
0.0
 11
198.4786362914
 21
341.4546059745
 31
0.0
  0
LINE
  5
145
330
1F
100
AcDbEntity
  8
0
  6
Continuous
 62
     7
370
    15
100
AcDbLine
 10
198.4786362914
 20
341.4546059745
 30
0.0
 11
195.4786362914
 21
341.4546059745
 31
0.0
  0
LINE
  5
146
330
1F
100
AcDbEntity
  8
0
  6
Continuous
 62
     7
370
    15
100
AcDbLine
 10
195.4786362914
 20
341.4546059745
 30
0.0
 11
195.4786362914
 21
321.4546059745
 31
0.0
  0
LINE
  5
147
330
1F
100
AcDbEntity
  8
0
  6
Continuous
 62
     7
370
    15
100
AcDbLine
 10
195.4786362914
 20
321.4546059745
 30
0.0
 11
198.4786362914
 21
321.4546059745
 31
0.0
  0
CIRCLE
  5
148
330
1F
100
AcDbEntity
  8
0
  6
Continuous
 62
     7
370
    15
100
AcDbCircle
 10
235.4786362914
 20
345.4546059745
 30
0.0
 40
1.5
  0
LINE
  5
149
330
1F
100
AcDbEntity
  8
0
  6
Continuous
 62
     7
370
    15
100
AcDbLine
 10
198.4786362914
 20
241.4546059745
 30
0.0
 11
198.4786362914
 21
261.4546059745
 31
0.0
  0
LINE
  5
14A
330
1F
100
AcDbEntity
  8
0
  6
Continuous
 62
     7
370
    15
100
AcDbLine
 10
198.4786362914
 20
261.4546059745
 30
0.0
 11
195.4786362914
 21
261.4546059745
 31
0.0
  0
LINE
  5
14B
330
1F
100
AcDbEntity
  8
0
  6
Continuous
 62
     7
370
    15
100
AcDbLine
 10
195.4786362914
 20
261.4546059745
 30
0.0
 11
195.4786362914
 21
241.4546059745
 31
0.0
  0
LINE
  5
14C
330
1F
100
AcDbEntity
  8
0
  6
Continuous
 62
     7
370
    15
100
AcDbLine
 10
195.4786362914
 20
241.4546059745
 30
0.0
 11
198.4786362914
 21
241.4546059745
 31
0.0
  0
LINE
  5
14D
330
1F
100
AcDbEntity
  8
0
  6
Continuous
 62
     7
370
    15
100
AcDbLine
 10
238.9786362914
 20
354.4546059745
 30
0.0
 11
245.9786362914
 21
354.4546059745
 31
0.0
  0
LINE
  5
14E
330
1F
100
AcDbEntity
  8
0
  6
Continuous
 62
     7
370
    15
100
AcDbLine
 10
245.9786362914
 20
354.4546059745
 30
0.0
 11
245.9786362914
 21
351.4546059745
 31
0.0
  0
LINE
  5
14F
330
1F
100
AcDbEntity
  8
0
  6
Continuous
 62
     7
370
    15
100
AcDbLine
 10
245.9786362914
 20
351.4546059745
 30
0.0
 11
252.9786362914
 21
351.4546059745
 31
0.0
  0
LINE
  5
150
330
1F
100
AcDbEntity
  8
0
  6
Continuous
 62
     7
370
    15
100
AcDbLine
 10
252.9786362914
 20
351.4546059745
 30
0.0
 11
252.9786362914
 21
354.4546059745
 31
0.0
  0
LINE
  5
151
330
1F
100
AcDbEntity
  8
0
  6
Continuous
 62
     7
370
    15
100
AcDbLine
 10
252.9786362914
 20
354.4546059745
 30
0.0
 11
259.9786362914
 21
354.4546059745
 31
0.0
  0
LINE
  5
152
330
1F
100
AcDbEntity
  8
0
  6
Continuous
 62
     7
370
    15
100
AcDbLine
 10
259.9786362914
 20
354.4546059745
 30
0.0
 11
259.9786362914
 21
351.4546059745
 31
0.0
  0
LINE
  5
153
330
1F
100
AcDbEntity
  8
0
  6
Continuous
 62
     7
370
    15
100
AcDbLine
 10
259.9786362914
 20
351.4546059745
 30
0.0
 11
266.9786362914
 21
351.4546059745
 31
0.0
  0
LINE
  5
154
330
1F
100
AcDbEntity
  8
0
  6
Continuous
 62
     7
370
    15
100
AcDbLine
 10
266.9786362914
 20
351.4546059745
 30
0.0
 11
266.9786362914
 21
354.4546059745
 31
0.0
  0
LINE
  5
155
330
1F
100
AcDbEntity
  8
0
  6
Continuous
 62
     7
370
    15
100
AcDbLine
 10
266.9786362914
 20
354.4546059745
 30
0.0
 11
273.9786362914
 21
354.4546059745
 31
0.0
  0
LINE
  5
156
330
1F
100
AcDbEntity
  8
0
  6
Continuous
 62
     7
370
    15
100
AcDbLine
 10
273.9786362914
 20
354.4546059745
 30
0.0
 11
273.9786362914
 21
351.4546059745
 31
0.0
  0
LINE
  5
157
330
1F
100
AcDbEntity
  8
0
  6
Continuous
 62
     7
370
    15
100
AcDbLine
 10
273.9786362914
 20
351.4546059745
 30
0.0
 11
280.9786362914
 21
351.4546059745
 31
0.0
  0
LINE
  5
158
330
1F
100
AcDbEntity
  8
0
  6
Continuous
 62
     7
370
    15
100
AcDbLine
 10
280.9786362914
 20
351.4546059745
 30
0.0
 11
280.9786362914
 21
354.4546059745
 31
0.0
  0
LINE
  5
159
330
1F
100
AcDbEntity
  8
0
  6
Continuous
 62
     7
370
    15
100
AcDbLine
 10
280.9786362914
 20
354.4546059745
 30
0.0
 11
287.9786362914
 21
354.4546059745
 31
0.0
  0
LINE
  5
15A
330
1F
100
AcDbEntity
  8
0
  6
Continuous
 62
     7
370
    15
100
AcDbLine
 10
287.9786362914
 20
354.4546059745
 30
0.0
 11
287.9786362914
 21
351.4546059745
 31
0.0
  0
LINE
  5
15B
330
1F
100
AcDbEntity
  8
0
  6
Continuous
 62
     7
370
    15
100
AcDbLine
 10
287.9786362914
 20
351.4546059745
 30
0.0
 11
294.9786362914
 21
351.4546059745
 31
0.0
  0
LINE
  5
15C
330
1F
100
AcDbEntity
  8
0
  6
Continuous
 62
     7
370
    15
100
AcDbLine
 10
294.9786362914
 20
351.4546059745
 30
0.0
 11
294.9786362914
 21
354.4546059745
 31
0.0
  0
LINE
  5
15D
330
1F
100
AcDbEntity
  8
0
  6
Continuous
 62
     7
370
    15
100
AcDbLine
 10
294.9786362914
 20
354.4546059745
 30
0.0
 11
301.9786362914
 21
354.4546059745
 31
0.0
  0
LINE
  5
15E
330
1F
100
AcDbEntity
  8
0
  6
Continuous
 62
     7
370
    15
100
AcDbLine
 10
301.9786362914
 20
354.4546059745
 30
0.0
 11
301.9786362914
 21
351.4546059745
 31
0.0
  0
LINE
  5
15F
330
1F
100
AcDbEntity
  8
0
  6
Continuous
 62
     7
370
    15
100
AcDbLine
 10
301.9786362914
 20
351.4546059745
 30
0.0
 11
308.9786362914
 21
351.4546059745
 31
0.0
  0
LWPOLYLINE
  5
160
330
1F
100
AcDbEntity
  8
0
  6
Continuous
 62
     7
370
    15
100
AcDbPolyline
 90
       11
 70
   128
 43
0.0
 10
308.9786362914
 20
351.4546059745
 10
306.7100908921
 20
350.3862745114
 10
304.5704117154
 20
348.8634524514
 10
302.5798524747
 20
346.9198673796
 10
300.7586668834
 20
344.5892468808
 10
299.1271086551
 20
341.9053185402
 10
297.7054315031
 20
338.9018099425
 10
296.3268784316
 20
334.9975599235
 10
295.3011464111
 20
330.7514662705
 10
294.6613922246
 20
326.2187434615
 10
294.4407726551
 20
321.4546059745
  0
LINE
  5
161
330
1F
100
AcDbEntity
  8
0
  6
Continuous
 62
     7
370
    15
100
AcDbLine
 10
294.4407726551
 20
321.4546059745
 30
0.0
 11
294.4407726551
 21
201.4546059745
 31
0.0
  0
LINE
  5
162
330
1F
100
AcDbEntity
  8
0
  6
Continuous
 62
     7
370
    15
100
AcDbLine
 10
294.4407726551
 20
201.4546059745
 30
0.0
 11
292.9597044732
 21
201.4546059745
 31
0.0
  0
LINE
  5
163
330
1F
100
AcDbEntity
  8
0
  6
Continuous
 62
     7
370
    15
100
AcDbLine
 10
292.9597044732
 20
201.4546059745
 30
0.0
 11
292.9597044732
 21
201.9546059745
 31
0.0
  0
ARC
  5
164
330
1F
100
AcDbEntity
  8
0
  6
Continuous
 62
     7
370
    15
100
AcDbCircle
 10
291.4597044732
 20
201.9546059745
 30
0.0
 40
1.5
100
AcDbArc
 50
0.0
 51
90.0
  0
LINE
  5
165
330
1F
100
AcDbEntity
  8
0
  6
Continuous
 62
     7
370
    15
100
AcDbLine
 10
291.4597044732
 20
203.4546059745
 30
0.0
 11
289.9786362914
 21
203.4546059745
 31
0.0
  0
LWPOLYLINE
  5
166
330
1F
100
AcDbEntity
  8
0
  6
Continuous
 62
     7
370
    15
100
AcDbPolyline
 90
        8
 70
   128
 43
0.0
 10
289.9786362914
 20
203.4546059745
 10
289.8464988058
 20
205.564626568
 10
289.4100111907
 20
207.4656465425
 10
288.7120772888
 20
209.0814101843
 10
288.0428620798
 20
210.0601608695
 10
287.2688168047
 20
210.803390649
 10
286.4080415224
 20
211.2789291438
 10
285.4786362914
 20
211.4546059745
  0
LWPOLYLINE
  5
167
330
1F
100
AcDbEntity
  8
0
  6
Continuous
 62
     7
370
    15
100
AcDbPolyline
 90
        8
 70
   128
 43
0.0
 10
285.4786362914
 20
211.4546059745
 10
284.5492310605
 20
211.2789291438
 10
283.6884557781
 20
210.803390649
 10
282.9144105031
 20
210.0601608695
 10
282.245195294
 20
209.0814101843
 10
281.5472613922
 20
207.4656465425
 10
281.110773777
 20
205.564626568
 10
280.9786362914
 20
203.4546059745
  0
LINE
  5
168
330
1F
100
AcDbEntity
  8
0
  6
Continuous
 62
     7
370
    15
100
AcDbLine
 10
280.9786362914
 20
203.4546059745
 30
0.0
 11
279.9786362914
 21
203.4546059745
 31
0.0
  0
LWPOLYLINE
  5
169
330
1F
100
AcDbEntity
  8
0
  6
Continuous
 62
     7
370
    15
100
AcDbPolyline
 90
        8
 70
   128
 43
0.0
 10
279.9786362914
 20
203.4546059745
 10
279.8464988058
 20
205.564626568
 10
279.4100111907
 20
207.4656465425
 10
278.7120772888
 20
209.0814101843
 10
278.0428620798
 20
210.0601608695
 10
277.2688168047
 20
210.803390649
 10
276.4080415224
 20
211.2789291438
 10
275.4786362914
 20
211.4546059745
  0
LWPOLYLINE
  5
16A
330
1F
100
AcDbEntity
  8
0
  6
Continuous
 62
     7
370
    15
100
AcDbPolyline
 90
        8
 70
   128
 43
0.0
 10
275.4786362914
 20
211.4546059745
 10
274.5492310605
 20
211.2789291438
 10
273.6884557781
 20
210.803390649
 10
272.9144105031
 20
210.0601608695
 10
272.245195294
 20
209.0814101843
 10
271.5472613922
 20
207.4656465425
 10
271.110773777
 20
205.564626568
 10
270.9786362914
 20
203.4546059745
  0
LINE
  5
16B
330
1F
100
AcDbEntity
  8
0
  6
Continuous
 62
     7
370
    15
100
AcDbLine
 10
270.9786362914
 20
203.4546059745
 30
0.0
 11
269.9786362914
 21
203.4546059745
 31
0.0
  0
LWPOLYLINE
  5
16C
330
1F
100
AcDbEntity
  8
0
  6
Continuous
 62
     7
370
    15
100
AcDbPolyline
 90
        8
 70
   128
 43
0.0
 10
269.9786362914
 20
203.4546059745
 10
269.8464988058
 20
205.564626568
 10
269.4100111907
 20
207.4656465425
 10
268.7120772888
 20
209.0814101843
 10
268.0428620798
 20
210.0601608695
 10
267.2688168047
 20
210.803390649
 10
266.4080415224
 20
211.2789291438
 10
265.4786362914
 20
211.4546059745
  0
LWPOLYLINE
  5
16D
330
1F
100
AcDbEntity
  8
0
  6
Continuous
 62
     7
370
    15
100
AcDbPolyline
 90
        8
 70
   128
 43
0.0
 10
265.4786362914
 20
211.4546059745
 10
264.5492310605
 20
211.2789291438
 10
263.6884557781
 20
210.803390649
 10
262.9144105031
 20
210.0601608695
 10
262.245195294
 20
209.0814101843
 10
261.5472613922
 20
207.4656465425
 10
261.110773777
 20
205.564626568
 10
260.9786362914
 20
203.4546059745
  0
LINE
  5
16E
330
1F
100
AcDbEntity
  8
0
  6
Continuous
 62
     7
370
    15
100
AcDbLine
 10
260.9786362914
 20
203.4546059745
 30
0.0
 11
259.9786362914
 21
203.4546059745
 31
0.0
  0
LWPOLYLINE
  5
16F
330
1F
100
AcDbEntity
  8
0
  6
Continuous
 62
     7
370
    15
100
AcDbPolyline
 90
        8
 70
   128
 43
0.0
 10
259.9786362914
 20
203.4546059745
 10
259.8464988058
 20
205.564626568
 10
259.4100111907
 20
207.4656465425
 10
258.7120772888
 20
209.0814101843
 10
258.0428620798
 20
210.0601608695
 10
257.2688168047
 20
210.803390649
 10
256.4080415224
 20
211.2789291438
 10
255.4786362914
 20
211.4546059745
  0
LWPOLYLINE
  5
170
330
1F
100
AcDbEntity
  8
0
  6
Continuous
 62
     7
370
    15
100
AcDbPolyline
 90
        8
 70
   128
 43
0.0
 10
255.4786362914
 20
211.4546059745
 10
254.5492310605
 20
211.2789291438
 10
253.6884557781
 20
210.803390649
 10
252.9144105031
 20
210.0601608695
 10
252.245195294
 20
209.0814101843
 10
251.5472613922
 20
207.4656465425
 10
251.110773777
 20
205.564626568
 10
250.9786362914
 20
203.4546059745
  0
LINE
  5
171
330
1F
100
AcDbEntity
  8
0
  6
Continuous
 62
     7
370
    15
100
AcDbLine
 10
250.9786362914
 20
203.4546059745
 30
0.0
 11
249.9786362914
 21
203.4546059745
 31
0.0
  0
LWPOLYLINE
  5
172
330
1F
100
AcDbEntity
  8
0
  6
Continuous
 62
     7
370
    15
100
AcDbPolyline
 90
        8
 70
   128
 43
0.0
 10
249.9786362914
 20
203.4546059745
 10
249.8464988058
 20
205.564626568
 10
249.4100111907
 20
207.4656465425
 10
248.7120772888
 20
209.0814101843
 10
248.0428620798
 20
210.0601608695
 10
247.2688168047
 20
210.803390649
 10
246.4080415224
 20
211.2789291438
 10
245.4786362914
 20
211.4546059745
  0
LWPOLYLINE
  5
173
330
1F
100
AcDbEntity
  8
0
  6
Continuous
 62
     7
370
    15
100
AcDbPolyline
 90
        8
 70
   128
 43
0.0
 10
245.4786362914
 20
211.4546059745
 10
244.5492310605
 20
211.2789291438
 10
243.6884557781
 20
210.803390649
 10
242.9144105031
 20
210.0601608695
 10
242.245195294
 20
209.0814101843
 10
241.5472613922
 20
207.4656465425
 10
241.110773777
 20
205.564626568
 10
240.9786362914
 20
203.4546059745
  0
LINE
  5
174
330
1F
100
AcDbEntity
  8
0
  6
Continuous
 62
     7
370
    15
100
AcDbLine
 10
240.9786362914
 20
203.4546059745
 30
0.0
 11
239.9786362914
 21
203.4546059745
 31
0.0
  0
LWPOLYLINE
  5
175
330
1F
100
AcDbEntity
  8
0
  6
Continuous
 62
     7
370
    15
100
AcDbPolyline
 90
        8
 70
   128
 43
0.0
 10
239.9786362914
 20
203.4546059745
 10
239.8464988058
 20
205.564626568
 10
239.4100111907
 20
207.4656465425
 10
238.7120772888
 20
209.0814101843
 10
238.0428620798
 20
210.0601608695
 10
237.2688168047
 20
210.803390649
 10
236.4080415224
 20
211.2789291438
 10
235.4786362914
 20
211.4546059745
  0
LWPOLYLINE
  5
176
330
1F
100
AcDbEntity
  8
0
  6
Continuous
 62
     7
370
    15
100
AcDbPolyline
 90
        8
 70
   128
 43
0.0
 10
230.9786362914
 20
203.4546059745
 10
231.110773777
 20
205.564626568
 10
231.5472613922
 20
207.4656465425
 10
232.245195294
 20
209.0814101843
 10
232.9144105031
 20
210.0601608695
 10
233.6884557781
 20
210.803390649
 10
234.5492310605
 20
211.2789291438
 10
235.4786362914
 20
211.4546059745
  0
LINE
  5
177
330
1F
100
AcDbEntity
  8
0
  6
Continuous
 62
     7
370
    15
100
AcDbLine
 10
229.9786362914
 20
203.4546059745
 30
0.0
 11
230.9786362914
 21
203.4546059745
 31
0.0
  0
LWPOLYLINE
  5
178
330
1F
100
AcDbEntity
  8
0
  6
Continuous
 62
     7
370
    15
100
AcDbPolyline
 90
        8
 70
   128
 43
0.0
 10
225.4786362914
 20
211.4546059745
 10
226.4080415224
 20
211.2789291438
 10
227.2688168047
 20
210.803390649
 10
228.0428620798
 20
210.0601608695
 10
228.7120772888
 20
209.0814101843
 10
229.4100111907
 20
207.4656465425
 10
229.8464988058
 20
205.564626568
 10
229.9786362914
 20
203.4546059745
  0
LWPOLYLINE
  5
179
330
1F
100
AcDbEntity
  8
0
  6
Continuous
 62
     7
370
    15
100
AcDbPolyline
 90
        8
 70
   128
 43
0.0
 10
220.9786362914
 20
203.4546059745
 10
221.110773777
 20
205.564626568
 10
221.5472613922
 20
207.4656465425
 10
222.245195294
 20
209.0814101843
 10
222.9144105031
 20
210.0601608695
 10
223.6884557781
 20
210.803390649
 10
224.5492310605
 20
211.2789291438
 10
225.4786362914
 20
211.4546059745
  0
LINE
  5
17A
330
1F
100
AcDbEntity
  8
0
  6
Continuous
 62
     7
370
    15
100
AcDbLine
 10
219.9786362914
 20
203.4546059745
 30
0.0
 11
220.9786362914
 21
203.4546059745
 31
0.0
  0
LWPOLYLINE
  5
17B
330
1F
100
AcDbEntity
  8
0
  6
Continuous
 62
     7
370
    15
100
AcDbPolyline
 90
        8
 70
   128
 43
0.0
 10
215.4786362914
 20
211.4546059745
 10
216.4080415224
 20
211.2789291438
 10
217.2688168047
 20
210.803390649
 10
218.0428620798
 20
210.0601608695
 10
218.7120772888
 20
209.0814101843
 10
219.4100111907
 20
207.4656465425
 10
219.8464988058
 20
205.564626568
 10
219.9786362914
 20
203.4546059745
  0
LWPOLYLINE
  5
17C
330
1F
100
AcDbEntity
  8
0
  6
Continuous
 62
     7
370
    15
100
AcDbPolyline
 90
        8
 70
   128
 43
0.0
 10
210.9786362914
 20
203.4546059745
 10
211.110773777
 20
205.564626568
 10
211.5472613922
 20
207.4656465425
 10
212.245195294
 20
209.0814101843
 10
212.9144105031
 20
210.0601608695
 10
213.6884557781
 20
210.803390649
 10
214.5492310605
 20
211.2789291438
 10
215.4786362914
 20
211.4546059745
  0
LINE
  5
17D
330
1F
100
AcDbEntity
  8
0
  6
Continuous
 62
     7
370
    15
100
AcDbLine
 10
209.9786362914
 20
203.4546059745
 30
0.0
 11
210.9786362914
 21
203.4546059745
 31
0.0
  0
LWPOLYLINE
  5
17E
330
1F
100
AcDbEntity
  8
0
  6
Continuous
 62
     7
370
    15
100
AcDbPolyline
 90
        8
 70
   128
 43
0.0
 10
205.4786362914
 20
211.4546059745
 10
206.4080415224
 20
211.2789291438
 10
207.2688168047
 20
210.803390649
 10
208.0428620798
 20
210.0601608695
 10
208.7120772888
 20
209.0814101843
 10
209.4100111907
 20
207.4656465425
 10
209.8464988058
 20
205.564626568
 10
209.9786362914
 20
203.4546059745
  0
LWPOLYLINE
  5
17F
330
1F
100
AcDbEntity
  8
0
  6
Continuous
 62
     7
370
    15
100
AcDbPolyline
 90
        8
 70
   128
 43
0.0
 10
200.9786362914
 20
203.4546059745
 10
201.110773777
 20
205.564626568
 10
201.5472613922
 20
207.4656465425
 10
202.245195294
 20
209.0814101843
 10
202.9144105031
 20
210.0601608695
 10
203.6884557781
 20
210.803390649
 10
204.5492310605
 20
211.2789291438
 10
205.4786362914
 20
211.4546059745
  0
LINE
  5
180
330
1F
100
AcDbEntity
  8
0
  6
Continuous
 62
     7
370
    15
100
AcDbLine
 10
199.9786362914
 20
203.4546059745
 30
0.0
 11
200.9786362914
 21
203.4546059745
 31
0.0
  0
LWPOLYLINE
  5
181
330
1F
100
AcDbEntity
  8
0
  6
Continuous
 62
     7
370
    15
100
AcDbPolyline
 90
        8
 70
   128
 43
0.0
 10
195.4786362914
 20
211.4546059745
 10
196.4080415224
 20
211.2789291438
 10
197.2688168047
 20
210.803390649
 10
198.0428620798
 20
210.0601608695
 10
198.7120772888
 20
209.0814101843
 10
199.4100111907
 20
207.4656465425
 10
199.8464988058
 20
205.564626568
 10
199.9786362914
 20
203.4546059745
  0
LWPOLYLINE
  5
182
330
1F
100
AcDbEntity
  8
0
  6
Continuous
 62
     7
370
    15
100
AcDbPolyline
 90
        8
 70
   128
 43
0.0
 10
190.9786362914
 20
203.4546059745
 10
191.110773777
 20
205.564626568
 10
191.5472613922
 20
207.4656465425
 10
192.245195294
 20
209.0814101843
 10
192.9144105031
 20
210.0601608695
 10
193.6884557781
 20
210.803390649
 10
194.5492310605
 20
211.2789291438
 10
195.4786362914
 20
211.4546059745
  0
LINE
  5
183
330
1F
100
AcDbEntity
  8
0
  6
Continuous
 62
     7
370
    15
100
AcDbLine
 10
189.9786362914
 20
203.4546059745
 30
0.0
 11
190.9786362914
 21
203.4546059745
 31
0.0
  0
LWPOLYLINE
  5
184
330
1F
100
AcDbEntity
  8
0
  6
Continuous
 62
     7
370
    15
100
AcDbPolyline
 90
        8
 70
   128
 43
0.0
 10
185.4786362914
 20
211.4546059745
 10
186.4080415224
 20
211.2789291438
 10
187.2688168047
 20
210.803390649
 10
188.0428620798
 20
210.0601608695
 10
188.7120772888
 20
209.0814101843
 10
189.4100111907
 20
207.4656465425
 10
189.8464988058
 20
205.564626568
 10
189.9786362914
 20
203.4546059745
  0
LWPOLYLINE
  5
185
330
1F
100
AcDbEntity
  8
0
  6
Continuous
 62
     7
370
    15
100
AcDbPolyline
 90
        8
 70
   128
 43
0.0
 10
180.9786362914
 20
203.4546059745
 10
181.110773777
 20
205.564626568
 10
181.5472613922
 20
207.4656465425
 10
182.245195294
 20
209.0814101843
 10
182.9144105031
 20
210.0601608695
 10
183.6884557781
 20
210.803390649
 10
184.5492310605
 20
211.2789291438
 10
185.4786362914
 20
211.4546059745
  0
LINE
  5
186
330
1F
100
AcDbEntity
  8
0
  6
Continuous
 62
     7
370
    15
100
AcDbLine
 10
179.4975681096
 20
203.4546059745
 30
0.0
 11
180.9786362914
 21
203.4546059745
 31
0.0
  0
ARC
  5
187
330
1F
100
AcDbEntity
  8
0
  6
Continuous
 62
     7
370
    15
100
AcDbCircle
 10
179.4975681096
 20
201.9546059745
 30
0.0
 40
1.5
100
AcDbArc
 50
90.0
 51
180.0
  0
LINE
  5
188
330
1F
100
AcDbEntity
  8
0
  6
Continuous
 62
     7
370
    15
100
AcDbLine
 10
177.9975681096
 20
201.4546059745
 30
0.0
 11
177.9975681096
 21
201.9546059745
 31
0.0
  0
LINE
  5
189
330
1F
100
AcDbEntity
  8
0
  6
Continuous
 62
     7
370
    15
100
AcDbLine
 10
176.5164999278
 20
201.4546059745
 30
0.0
 11
177.9975681096
 21
201.4546059745
 31
0.0
  0
LINE
  5
18A
330
1F
100
AcDbEntity
  8
0
  6
Continuous
 62
     7
370
    15
100
AcDbLine
 10
176.5164999278
 20
321.4546059745
 30
0.0
 11
176.5164999278
 21
201.4546059745
 31
0.0
  0
LWPOLYLINE
  5
18B
330
1F
100
AcDbEntity
  8
0
  6
Continuous
 62
     7
370
    15
100
AcDbPolyline
 90
       11
 70
   128
 43
0.0
 10
161.9786362914
 20
351.4546059745
 10
164.2471816907
 20
350.3862745114
 10
166.3868608674
 20
348.8634524514
 10
168.3774201081
 20
346.9198673796
 10
170.1986056994
 20
344.5892468808
 10
171.8301639278
 20
341.9053185402
 10
173.2518410798
 20
338.9018099425
 10
174.6303941513
 20
334.9975599235
 10
175.6561261718
 20
330.7514662705
 10
176.2958803583
 20
326.2187434615
 10
176.5164999278
 20
321.4546059745
  0
LINE
  5
18C
330
1F
100
AcDbEntity
  8
0
  6
Continuous
 62
     7
370
    15
100
AcDbLine
 10
168.9786362914
 20
351.4546059745
 30
0.0
 11
161.9786362914
 21
351.4546059745
 31
0.0
  0
LINE
  5
18D
330
1F
100
AcDbEntity
  8
0
  6
Continuous
 62
     7
370
    15
100
AcDbLine
 10
168.9786362914
 20
354.4546059745
 30
0.0
 11
168.9786362914
 21
351.4546059745
 31
0.0
  0
LINE
  5
18E
330
1F
100
AcDbEntity
  8
0
  6
Continuous
 62
     7
370
    15
100
AcDbLine
 10
175.9786362914
 20
354.4546059745
 30
0.0
 11
168.9786362914
 21
354.4546059745
 31
0.0
  0
LINE
  5
18F
330
1F
100
AcDbEntity
  8
0
  6
Continuous
 62
     7
370
    15
100
AcDbLine
 10
175.9786362914
 20
351.4546059745
 30
0.0
 11
175.9786362914
 21
354.4546059745
 31
0.0
  0
LINE
  5
190
330
1F
100
AcDbEntity
  8
0
  6
Continuous
 62
     7
370
    15
100
AcDbLine
 10
182.9786362914
 20
351.4546059745
 30
0.0
 11
175.9786362914
 21
351.4546059745
 31
0.0
  0
LINE
  5
191
330
1F
100
AcDbEntity
  8
0
  6
Continuous
 62
     7
370
    15
100
AcDbLine
 10
182.9786362914
 20
354.4546059745
 30
0.0
 11
182.9786362914
 21
351.4546059745
 31
0.0
  0
LINE
  5
192
330
1F
100
AcDbEntity
  8
0
  6
Continuous
 62
     7
370
    15
100
AcDbLine
 10
189.9786362914
 20
354.4546059745
 30
0.0
 11
182.9786362914
 21
354.4546059745
 31
0.0
  0
LINE
  5
193
330
1F
100
AcDbEntity
  8
0
  6
Continuous
 62
     7
370
    15
100
AcDbLine
 10
189.9786362914
 20
351.4546059745
 30
0.0
 11
189.9786362914
 21
354.4546059745
 31
0.0
  0
LINE
  5
194
330
1F
100
AcDbEntity
  8
0
  6
Continuous
 62
     7
370
    15
100
AcDbLine
 10
196.9786362914
 20
351.4546059745
 30
0.0
 11
189.9786362914
 21
351.4546059745
 31
0.0
  0
LINE
  5
195
330
1F
100
AcDbEntity
  8
0
  6
Continuous
 62
     7
370
    15
100
AcDbLine
 10
196.9786362914
 20
354.4546059745
 30
0.0
 11
196.9786362914
 21
351.4546059745
 31
0.0
  0
LINE
  5
196
330
1F
100
AcDbEntity
  8
0
  6
Continuous
 62
     7
370
    15
100
AcDbLine
 10
203.9786362914
 20
354.4546059745
 30
0.0
 11
196.9786362914
 21
354.4546059745
 31
0.0
  0
LINE
  5
197
330
1F
100
AcDbEntity
  8
0
  6
Continuous
 62
     7
370
    15
100
AcDbLine
 10
203.9786362914
 20
351.4546059745
 30
0.0
 11
203.9786362914
 21
354.4546059745
 31
0.0
  0
LINE
  5
198
330
1F
100
AcDbEntity
  8
0
  6
Continuous
 62
     7
370
    15
100
AcDbLine
 10
210.9786362914
 20
351.4546059745
 30
0.0
 11
203.9786362914
 21
351.4546059745
 31
0.0
  0
LINE
  5
199
330
1F
100
AcDbEntity
  8
0
  6
Continuous
 62
     7
370
    15
100
AcDbLine
 10
210.9786362914
 20
354.4546059745
 30
0.0
 11
210.9786362914
 21
351.4546059745
 31
0.0
  0
LINE
  5
19A
330
1F
100
AcDbEntity
  8
0
  6
Continuous
 62
     7
370
    15
100
AcDbLine
 10
217.9786362914
 20
354.4546059745
 30
0.0
 11
210.9786362914
 21
354.4546059745
 31
0.0
  0
LINE
  5
19B
330
1F
100
AcDbEntity
  8
0
  6
Continuous
 62
     7
370
    15
100
AcDbLine
 10
217.9786362914
 20
351.4546059745
 30
0.0
 11
217.9786362914
 21
354.4546059745
 31
0.0
  0
LINE
  5
19C
330
1F
100
AcDbEntity
  8
0
  6
Continuous
 62
     7
370
    15
100
AcDbLine
 10
224.9786362914
 20
351.4546059745
 30
0.0
 11
217.9786362914
 21
351.4546059745
 31
0.0
  0
LINE
  5
19D
330
1F
100
AcDbEntity
  8
0
  6
Continuous
 62
     7
370
    15
100
AcDbLine
 10
224.9786362914
 20
354.4546059745
 30
0.0
 11
224.9786362914
 21
351.4546059745
 31
0.0
  0
LINE
  5
19E
330
1F
100
AcDbEntity
  8
0
  6
Continuous
 62
     7
370
    15
100
AcDbLine
 10
231.9786362914
 20
354.4546059745
 30
0.0
 11
224.9786362914
 21
354.4546059745
 31
0.0
  0
LINE
  5
19F
330
1F
100
AcDbEntity
  8
0
  6
Continuous
 62
     7
370
    15
100
AcDbLine
 10
231.9786362914
 20
351.4546059745
 30
0.0
 11
231.9786362914
 21
354.4546059745
 31
0.0
  0
LINE
  5
1A0
330
1F
100
AcDbEntity
  8
0
  6
Continuous
 62
     7
370
    15
100
AcDbLine
 10
238.9786362914
 20
351.4546059745
 30
0.0
 11
231.9786362914
 21
351.4546059745
 31
0.0
  0
LINE
  5
1A1
330
1F
100
AcDbEntity
  8
0
  6
Continuous
 62
     7
370
    15
100
AcDbLine
 10
238.9786362914
 20
351.4546059745
 30
0.0
 11
238.9786362914
 21
354.4546059745
 31
0.0
  0
LINE
  5
1A2
330
1F
100
AcDbEntity
  8
0
  6
Continuous
 62
     7
370
    15
100
AcDbLine
 10
28.5908964772
 20
309.2023438768
 30
0.0
 11
28.5908964772
 21
289.2023438768
 31
0.0
  0
ARC
  5
1A3
330
1F
100
AcDbEntity
  8
0
  6
Continuous
 62
     7
370
    15
100
AcDbCircle
 10
46.620209279
 20
289.2316564688
 30
0.0
 40
18.02933663047325
100
AcDbArc
 50
180.0931530973
 51
269.9064376486
  0
LINE
  5
1A4
330
1F
100
AcDbEntity
  8
0
  6
Continuous
 62
     7
370
    15
100
AcDbLine
 10
46.5907679067
 20
271.2023438768
 30
0.0
 11
66.5907679067
 21
271.2023438768
 31
0.0
  0
ARC
  5
1A5
330
1F
100
AcDbEntity
  8
0
  6
Continuous
 62
     7
370
    15
100
AcDbCircle
 10
66.5612544184
 20
289.2317285843
 30
0.0
 40
18.029408863716
100
AcDbArc
 50
270.0937911546
 51
359.9066180995
  0
LINE
  5
1A6
330
1F
100
AcDbEntity
  8
0
  6
Continuous
 62
     7
370
    15
100
AcDbLine
 10
84.5906393362
 20
289.2023438768
 30
0.0
 11
84.5906393362
 21
309.2023438768
 31
0.0
  0
LWPOLYLINE
  5
1A7
330
1F
100
AcDbEntity
  8
0
  6
Continuous
 62
     7
370
    15
100
AcDbPolyline
 90
       12
 70
   128
 43
0.0
 10
84.5906393362
 20
309.2023438768
 10
84.300281076
 20
315.8529117359
 10
83.4483119247
 20
322.3079496729
 10
82.0634274485
 20
328.5338486662
 10
80.1743232137
 20
334.4969996941
 10
77.8096947867
 20
340.1637937349
 10
74.9982377338
 20
345.500621767
 10
71.9639589956
 20
350.2000694942
 10
68.5820205722
 20
354.548136004
 10
64.8764745353
 20
358.5166508613
 10
60.8713729563
 20
362.0774436306
 10
56.5907679067
 20
365.2023438768
  0
LWPOLYLINE
  5
1A8
330
1F
100
AcDbEntity
  8
0
  6
Continuous
 62
     7
370
    15
100
AcDbPolyline
 90
       12
 70
   128
 43
0.0
 10
56.5907679067
 20
365.2023438768
 10
52.0593447553
 20
361.8737628307
 10
47.8394711316
 20
358.0567732451
 10
43.9598426017
 20
353.7849841417
 10
40.4491547321
 20
349.0920045423
 10
37.336103089
 20
344.0114434684
 10
34.6493832387
 20
338.5769099418
 10
32.5324575283
 20
333.1589080922
 10
30.8440939253
 20
327.4842801257
 10
29.6083445015
 20
321.5811964775
 10
28.8492613283
 20
315.4778275827
 10
28.5908964772
 20
309.2023438768
  0
LINE
  5
1A9
330
1F
100
AcDbEntity
  8
0
  6
Continuous
 62
     7
370
    15
100
AcDbLine
 10
86.5907679067
 20
263.2023438768
 30
0.0
 11
86.5907679067
 21
266.2023438768
 31
0.0
  0
LINE
  5
1AA
330
1F
100
AcDbEntity
  8
0
  6
Continuous
 62
     7
370
    15
100
AcDbLine
 10
86.5907679067
 20
266.2023438768
 30
0.0
 11
66.5907679067
 21
266.2023438768
 31
0.0
  0
LINE
  5
1AB
330
1F
100
AcDbEntity
  8
0
  6
Continuous
 62
     7
370
    15
100
AcDbLine
 10
66.5907679067
 20
266.2023438768
 30
0.0
 11
66.5907679067
 21
263.2023438768
 31
0.0
  0
LINE
  5
1AC
330
1F
100
AcDbEntity
  8
0
  6
Continuous
 62
     7
370
    15
100
AcDbLine
 10
66.5907679067
 20
263.2023438768
 30
0.0
 11
86.5907679067
 21
263.2023438768
 31
0.0
  0
LINE
  5
1AD
330
1F
100
AcDbEntity
  8
0
  6
Continuous
 62
     7
370
    15
100
AcDbLine
 10
55.0907679067
 20
221.2023438768
 30
0.0
 11
55.0907679067
 21
214.2023438768
 31
0.0
  0
LINE
  5
1AE
330
1F
100
AcDbEntity
  8
0
  6
Continuous
 62
     7
370
    15
100
AcDbLine
 10
55.0907679067
 20
214.2023438768
 30
0.0
 11
58.0907679067
 21
214.2023438768
 31
0.0
  0
LINE
  5
1AF
330
1F
100
AcDbEntity
  8
0
  6
Continuous
 62
     7
370
    15
100
AcDbLine
 10
58.0907679067
 20
214.2023438768
 30
0.0
 11
58.0907679067
 21
221.2023438768
 31
0.0
  0
LINE
  5
1B0
330
1F
100
AcDbEntity
  8
0
  6
Continuous
 62
     7
370
    15
100
AcDbLine
 10
58.0907679067
 20
221.2023438768
 30
0.0
 11
55.0907679067
 21
221.2023438768
 31
0.0
  0
LINE
  5
1B1
330
1F
100
AcDbEntity
  8
0
  6
Continuous
 62
     7
370
    15
100
AcDbLine
 10
55.0907679067
 20
249.2023438768
 30
0.0
 11
55.0907679067
 21
242.2023438768
 31
0.0
  0
LINE
  5
1B2
330
1F
100
AcDbEntity
  8
0
  6
Continuous
 62
     7
370
    15
100
AcDbLine
 10
55.0907679067
 20
242.2023438768
 30
0.0
 11
58.0907679067
 21
242.2023438768
 31
0.0
  0
LINE
  5
1B3
330
1F
100
AcDbEntity
  8
0
  6
Continuous
 62
     7
370
    15
100
AcDbLine
 10
58.0907679067
 20
242.2023438768
 30
0.0
 11
58.0907679067
 21
249.2023438768
 31
0.0
  0
LINE
  5
1B4
330
1F
100
AcDbEntity
  8
0
  6
Continuous
 62
     7
370
    15
100
AcDbLine
 10
58.0907679067
 20
249.2023438768
 30
0.0
 11
55.0907679067
 21
249.2023438768
 31
0.0
  0
LINE
  5
1B5
330
1F
100
AcDbEntity
  8
0
  6
Continuous
 62
     7
370
    15
100
AcDbLine
 10
131.53200264
 20
274.5891810946
 30
0.0
 11
135.8009268495
 21
294.1282774425
 31
0.0
  0
LINE
  5
1B6
330
1F
100
AcDbEntity
  8
0
  6
Continuous
 62
     7
370
    15
100
AcDbLine
 10
128.6011381878
 20
275.229519726
 30
0.0
 11
131.53200264
 21
274.5891810946
 31
0.0
  0
LINE
  5
1B7
330
1F
100
AcDbEntity
  8
0
  6
Continuous
 62
     7
370
    15
100
AcDbLine
 10
124.3322139783
 20
255.6904233781
 30
0.0
 11
128.6011381878
 21
275.229519726
 31
0.0
  0
LINE
  5
1B8
330
1F
100
AcDbEntity
  8
0
  6
Continuous
 62
     7
370
    15
100
AcDbLine
 10
127.2630784305
 20
255.0500847466
 30
0.0
 11
124.3322139783
 21
255.6904233781
 31
0.0
  0
LINE
  5
1B9
330
1F
100
AcDbEntity
  8
0
  6
Continuous
 62
     7
370
    15
100
AcDbLine
 10
122.9941542209
 20
235.5109883987
 30
0.0
 11
127.2630784305
 21
255.0500847466
 31
0.0
  0
LINE
  5
1BA
330
1F
100
AcDbEntity
  8
0
  6
Continuous
 62
     7
370
    15
100
AcDbLine
 10
120.0632897688
 20
236.1513270301
 30
0.0
 11
122.9941542209
 21
235.5109883987
 31
0.0
  0
LINE
  5
1BB
330
1F
100
AcDbEntity
  8
0
  6
Continuous
 62
     7
370
    15
100
AcDbLine
 10
115.7943655592
 20
216.6122306822
 30
0.0
 11
120.0632897688
 21
236.1513270301
 31
0.0
  0
LINE
  5
1BC
330
1F
100
AcDbEntity
  8
0
  6
Continuous
 62
     7
370
    15
100
AcDbLine
 10
118.7252300114
 20
215.9718920508
 30
0.0
 11
115.7943655592
 21
216.6122306822
 31
0.0
  0
LINE
  5
1BD
330
1F
100
AcDbEntity
  8
0
  6
Continuous
 62
     7
370
    15
100
AcDbLine
 10
116.5907679067
 20
206.2023438768
 30
0.0
 11
118.7252300114
 21
215.9718920508
 31
0.0
  0
LINE
  5
1BE
330
1F
100
AcDbEntity
  8
0
  6
Continuous
 62
     7
370
    15
100
AcDbLine
 10
106.5907679067
 20
206.2023438768
 30
0.0
 11
116.5907679067
 21
206.2023438768
 31
0.0
  0
LINE
  5
1BF
330
1F
100
AcDbEntity
  8
0
  6
Continuous
 62
     7
370
    15
100
AcDbLine
 10
106.5907679067
 20
209.2023438768
 30
0.0
 11
106.5907679067
 21
206.2023438768
 31
0.0
  0
LINE
  5
1C0
330
1F
100
AcDbEntity
  8
0
  6
Continuous
 62
     7
370
    15
100
AcDbLine
 10
86.5907679067
 20
209.2023438768
 30
0.0
 11
106.5907679067
 21
209.2023438768
 31
0.0
  0
LINE
  5
1C1
330
1F
100
AcDbEntity
  8
0
  6
Continuous
 62
     7
370
    15
100
AcDbLine
 10
86.5907679067
 20
206.2023438768
 30
0.0
 11
86.5907679067
 21
209.2023438768
 31
0.0
  0
LINE
  5
1C2
330
1F
100
AcDbEntity
  8
0
  6
Continuous
 62
     7
370
    15
100
AcDbLine
 10
66.5907679067
 20
206.2023438768
 30
0.0
 11
86.5907679067
 21
206.2023438768
 31
0.0
  0
LINE
  5
1C3
330
1F
100
AcDbEntity
  8
0
  6
Continuous
 62
     7
370
    15
100
AcDbLine
 10
66.5907679067
 20
209.2023438768
 30
0.0
 11
66.5907679067
 21
206.2023438768
 31
0.0
  0
LINE
  5
1C4
330
1F
100
AcDbEntity
  8
0
  6
Continuous
 62
     7
370
    15
100
AcDbLine
 10
46.5907679067
 20
209.2023438768
 30
0.0
 11
66.5907679067
 21
209.2023438768
 31
0.0
  0
LINE
  5
1C5
330
1F
100
AcDbEntity
  8
0
  6
Continuous
 62
     7
370
    15
100
AcDbLine
 10
46.5907679067
 20
206.2023438768
 30
0.0
 11
46.5907679067
 21
209.2023438768
 31
0.0
  0
LINE
  5
1C6
330
1F
100
AcDbEntity
  8
0
  6
Continuous
 62
     7
370
    15
100
AcDbLine
 10
26.5907679067
 20
206.2023438768
 30
0.0
 11
46.5907679067
 21
206.2023438768
 31
0.0
  0
LINE
  5
1C7
330
1F
100
AcDbEntity
  8
0
  6
Continuous
 62
     7
370
    15
100
AcDbLine
 10
26.5907679067
 20
209.2023438768
 30
0.0
 11
26.5907679067
 21
206.2023438768
 31
0.0
  0
LINE
  5
1C8
330
1F
100
AcDbEntity
  8
0
  6
Continuous
 62
     7
370
    15
100
AcDbLine
 10
6.5907679067
 20
209.2023438768
 30
0.0
 11
26.5907679067
 21
209.2023438768
 31
0.0
  0
LINE
  5
1C9
330
1F
100
AcDbEntity
  8
0
  6
Continuous
 62
     7
370
    15
100
AcDbLine
 10
6.5907679067
 20
206.2023438768
 30
0.0
 11
6.5907679067
 21
209.2023438768
 31
0.0
  0
LINE
  5
1CA
330
1F
100
AcDbEntity
  8
0
  6
Continuous
 62
     7
370
    15
100
AcDbLine
 10
-3.4092320933
 20
206.2023438768
 30
0.0
 11
6.5907679067
 21
206.2023438768
 31
0.0
  0
LINE
  5
1CB
330
1F
100
AcDbEntity
  8
0
  6
Continuous
 62
     7
370
    15
100
AcDbLine
 10
-5.5436941981
 20
215.9718920508
 30
0.0
 11
-3.4092320933
 21
206.2023438768
 31
0.0
  0
LINE
  5
1CC
330
1F
100
AcDbEntity
  8
0
  6
Continuous
 62
     7
370
    15
100
AcDbLine
 10
-2.6128297459
 20
216.6122306822
 30
0.0
 11
-5.5436941981
 21
215.9718920508
 31
0.0
  0
LINE
  5
1CD
330
1F
100
AcDbEntity
  8
0
  6
Continuous
 62
     7
370
    15
100
AcDbLine
 10
-6.8817539554
 20
236.1513270301
 30
0.0
 11
-2.6128297459
 21
216.6122306822
 31
0.0
  0
LINE
  5
1CE
330
1F
100
AcDbEntity
  8
0
  6
Continuous
 62
     7
370
    15
100
AcDbLine
 10
-9.8126184076
 20
235.5109883987
 30
0.0
 11
-6.8817539554
 21
236.1513270301
 31
0.0
  0
LINE
  5
1CF
330
1F
100
AcDbEntity
  8
0
  6
Continuous
 62
     7
370
    15
100
AcDbLine
 10
-14.0815426171
 20
255.0500847466
 30
0.0
 11
-9.8126184076
 21
235.5109883987
 31
0.0
  0
LINE
  5
1D0
330
1F
100
AcDbEntity
  8
0
  6
Continuous
 62
     7
370
    15
100
AcDbLine
 10
-11.1506781649
 20
255.6904233781
 30
0.0
 11
-14.0815426171
 21
255.0500847466
 31
0.0
  0
LINE
  5
1D1
330
1F
100
AcDbEntity
  8
0
  6
Continuous
 62
     7
370
    15
100
AcDbLine
 10
-15.4196023745
 20
275.229519726
 30
0.0
 11
-11.1506781649
 21
255.6904233781
 31
0.0
  0
LINE
  5
1D2
330
1F
100
AcDbEntity
  8
0
  6
Continuous
 62
     7
370
    15
100
AcDbLine
 10
-18.3504668267
 20
274.5891810946
 30
0.0
 11
-15.4196023745
 21
275.229519726
 31
0.0
  0
LINE
  5
1D3
330
1F
100
AcDbEntity
  8
0
  6
Continuous
 62
     7
370
    15
100
AcDbLine
 10
-22.6193910362
 20
294.1282774425
 30
0.0
 11
-18.3504668267
 21
274.5891810946
 31
0.0
  0
LINE
  5
1D4
330
1F
100
AcDbEntity
  8
0
  6
Continuous
 62
     7
370
    15
100
AcDbLine
 10
-19.688526584
 20
294.7686160739
 30
0.0
 11
-22.6193910362
 21
294.1282774425
 31
0.0
  0
LINE
  5
1D5
330
1F
100
AcDbEntity
  8
0
  6
Continuous
 62
     7
370
    15
100
AcDbLine
 10
-23.9574507935
 20
314.3077124218
 30
0.0
 11
-19.688526584
 21
294.7686160739
 31
0.0
  0
LINE
  5
1D6
330
1F
100
AcDbEntity
  8
0
  6
Continuous
 62
     7
370
    15
100
AcDbLine
 10
-26.8883152457
 20
313.6673737904
 30
0.0
 11
-23.9574507935
 21
314.3077124218
 31
0.0
  0
LINE
  5
1D7
330
1F
100
AcDbEntity
  8
0
  6
Continuous
 62
     7
370
    15
100
AcDbLine
 10
-28.2620458357
 20
319.955012792
 30
0.0
 11
-26.8883152457
 21
313.6673737904
 31
0.0
  0
LINE
  5
1D8
330
1F
100
AcDbEntity
  8
0
  6
Continuous
 62
     7
370
    15
100
AcDbLine
 10
-21.1909780239
 20
327.0260806038
 30
0.0
 11
-28.2620458357
 21
319.955012792
 31
0.0
  0
LINE
  5
1D9
330
1F
100
AcDbEntity
  8
0
  6
Continuous
 62
     7
370
    15
100
AcDbLine
 10
-23.3122983674
 20
329.1474009474
 30
0.0
 11
-21.1909780239
 21
327.0260806038
 31
0.0
  0
LINE
  5
1DA
330
1F
100
AcDbEntity
  8
0
  6
Continuous
 62
     7
370
    15
100
AcDbLine
 10
-9.1701627437
 20
343.2895365711
 30
0.0
 11
-23.3122983674
 21
329.1474009474
 31
0.0
  0
LINE
  5
1DB
330
1F
100
AcDbEntity
  8
0
  6
Continuous
 62
     7
370
    15
100
AcDbLine
 10
-7.0488424001
 20
341.1682162276
 30
0.0
 11
-9.1701627437
 21
343.2895365711
 31
0.0
  0
LINE
  5
1DC
330
1F
100
AcDbEntity
  8
0
  6
Continuous
 62
     7
370
    15
100
AcDbLine
 10
7.0932932236
 20
355.3103518513
 30
0.0
 11
-7.0488424001
 21
341.1682162276
 31
0.0
  0
LINE
  5
1DD
330
1F
100
AcDbEntity
  8
0
  6
Continuous
 62
     7
370
    15
100
AcDbLine
 10
4.97197288
 20
357.4316721949
 30
0.0
 11
7.0932932236
 21
355.3103518513
 31
0.0
  0
LINE
  5
1DE
330
1F
100
AcDbEntity
  8
0
  6
Continuous
 62
     7
370
    15
100
AcDbLine
 10
19.1141085038
 20
371.5738078186
 30
0.0
 11
4.97197288
 21
357.4316721949
 31
0.0
  0
LINE
  5
1DF
330
1F
100
AcDbEntity
  8
0
  6
Continuous
 62
     7
370
    15
100
AcDbLine
 10
21.2354288473
 20
369.452487475
 30
0.0
 11
19.1141085038
 21
371.5738078186
 31
0.0
  0
LINE
  5
1E0
330
1F
100
AcDbEntity
  8
0
  6
Continuous
 62
     7
370
    15
100
AcDbLine
 10
35.3775644711
 20
383.5946230988
 30
0.0
 11
21.2354288473
 21
369.452487475
 31
0.0
  0
LINE
  5
1E1
330
1F
100
AcDbEntity
  8
0
  6
Continuous
 62
     7
370
    15
100
AcDbLine
 10
33.2562441275
 20
385.7159434423
 30
0.0
 11
35.3775644711
 21
383.5946230988
 31
0.0
  0
LINE
  5
1E2
330
1F
100
AcDbEntity
  8
0
  6
Continuous
 62
     7
370
    15
100
AcDbLine
 10
47.3983797512
 20
399.8580790661
 30
0.0
 11
33.2562441275
 21
385.7159434423
 31
0.0
  0
LINE
  5
1E3
330
1F
100
AcDbEntity
  8
0
  6
Continuous
 62
     7
370
    15
100
AcDbLine
 10
49.5197000948
 20
397.7367587225
 30
0.0
 11
47.3983797512
 21
399.8580790661
 31
0.0
  0
LINE
  5
1E4
330
1F
100
AcDbEntity
  8
0
  6
Continuous
 62
     7
370
    15
100
AcDbLine
 10
56.5907679067
 20
404.8078265344
 30
0.0
 11
49.5197000948
 21
397.7367587225
 31
0.0
  0
LINE
  5
1E5
330
1F
100
AcDbEntity
  8
0
  6
Continuous
 62
     7
370
    15
100
AcDbLine
 10
63.6618357185
 20
397.7367587225
 30
0.0
 11
56.5907679067
 21
404.8078265344
 31
0.0
  0
LINE
  5
1E6
330
1F
100
AcDbEntity
  8
0
  6
Continuous
 62
     7
370
    15
100
AcDbLine
 10
65.7831560621
 20
399.8580790661
 30
0.0
 11
63.6618357185
 21
397.7367587225
 31
0.0
  0
LINE
  5
1E7
330
1F
100
AcDbEntity
  8
0
  6
Continuous
 62
     7
370
    15
100
AcDbLine
 10
79.9252916858
 20
385.7159434423
 30
0.0
 11
65.7831560621
 21
399.8580790661
 31
0.0
  0
LINE
  5
1E8
330
1F
100
AcDbEntity
  8
0
  6
Continuous
 62
     7
370
    15
100
AcDbLine
 10
77.8039713423
 20
383.5946230988
 30
0.0
 11
79.9252916858
 21
385.7159434423
 31
0.0
  0
LINE
  5
1E9
330
1F
100
AcDbEntity
  8
0
  6
Continuous
 62
     7
370
    15
100
AcDbLine
 10
91.946106966
 20
369.452487475
 30
0.0
 11
77.8039713423
 21
383.5946230988
 31
0.0
  0
LINE
  5
1EA
330
1F
100
AcDbEntity
  8
0
  6
Continuous
 62
     7
370
    15
100
AcDbLine
 10
94.0674273096
 20
371.5738078186
 30
0.0
 11
91.946106966
 21
369.452487475
 31
0.0
  0
LINE
  5
1EB
330
1F
100
AcDbEntity
  8
0
  6
Continuous
 62
     7
370
    15
100
AcDbLine
 10
108.2095629333
 20
357.4316721949
 30
0.0
 11
94.0674273096
 21
371.5738078186
 31
0.0
  0
LINE
  5
1EC
330
1F
100
AcDbEntity
  8
0
  6
Continuous
 62
     7
370
    15
100
AcDbLine
 10
106.0882425897
 20
355.3103518513
 30
0.0
 11
108.2095629333
 21
357.4316721949
 31
0.0
  0
LINE
  5
1ED
330
1F
100
AcDbEntity
  8
0
  6
Continuous
 62
     7
370
    15
100
AcDbLine
 10
120.2303782135
 20
341.1682162276
 30
0.0
 11
106.0882425897
 21
355.3103518513
 31
0.0
  0
LINE
  5
1EE
330
1F
100
AcDbEntity
  8
0
  6
Continuous
 62
     7
370
    15
100
AcDbLine
 10
122.351698557
 20
343.2895365711
 30
0.0
 11
120.2303782135
 21
341.1682162276
 31
0.0
  0
LINE
  5
1EF
330
1F
100
AcDbEntity
  8
0
  6
Continuous
 62
     7
370
    15
100
AcDbLine
 10
136.4938341807
 20
329.1474009474
 30
0.0
 11
122.351698557
 21
343.2895365711
 31
0.0
  0
LINE
  5
1F0
330
1F
100
AcDbEntity
  8
0
  6
Continuous
 62
     7
370
    15
100
AcDbLine
 10
134.3725138372
 20
327.0260806038
 30
0.0
 11
136.4938341807
 21
329.1474009474
 31
0.0
  0
LINE
  5
1F1
330
1F
100
AcDbEntity
  8
0
  6
Continuous
 62
     7
370
    15
100
AcDbLine
 10
141.443581649
 20
319.955012792
 30
0.0
 11
134.3725138372
 21
327.0260806038
 31
0.0
  0
LINE
  5
1F2
330
1F
100
AcDbEntity
  8
0
  6
Continuous
 62
     7
370
    15
100
AcDbLine
 10
140.069851059
 20
313.6673737904
 30
0.0
 11
141.443581649
 21
319.955012792
 31
0.0
  0
LINE
  5
1F3
330
1F
100
AcDbEntity
  8
0
  6
Continuous
 62
     7
370
    15
100
AcDbLine
 10
137.1389866068
 20
314.3077124218
 30
0.0
 11
140.069851059
 21
313.6673737904
 31
0.0
  0
LINE
  5
1F4
330
1F
100
AcDbEntity
  8
0
  6
Continuous
 62
     7
370
    15
100
AcDbLine
 10
132.8700623973
 20
294.7686160739
 30
0.0
 11
137.1389866068
 21
314.3077124218
 31
0.0
  0
LINE
  5
1F5
330
1F
100
AcDbEntity
  8
0
  6
Continuous
 62
     7
370
    15
100
AcDbLine
 10
135.8009268495
 20
294.1282774425
 30
0.0
 11
132.8700623973
 21
294.7686160739
 31
0.0
  0
LINE
  5
1F6
330
1F
100
AcDbEntity
  8
0
  6
Continuous
 62
     7
370
    15
100
AcDbLine
 10
55.0907679067
 20
235.2023438768
 30
0.0
 11
55.0907679067
 21
228.2023438768
 31
0.0
  0
LINE
  5
1F7
330
1F
100
AcDbEntity
  8
0
  6
Continuous
 62
     7
370
    15
100
AcDbLine
 10
55.0907679067
 20
228.2023438768
 30
0.0
 11
58.0907679067
 21
228.2023438768
 31
0.0
  0
LINE
  5
1F8
330
1F
100
AcDbEntity
  8
0
  6
Continuous
 62
     7
370
    15
100
AcDbLine
 10
58.0907679067
 20
228.2023438768
 30
0.0
 11
58.0907679067
 21
235.2023438768
 31
0.0
  0
LINE
  5
1F9
330
1F
100
AcDbEntity
  8
0
  6
Continuous
 62
     7
370
    15
100
AcDbLine
 10
58.0907679067
 20
235.2023438768
 30
0.0
 11
55.0907679067
 21
235.2023438768
 31
0.0
  0
LINE
  5
1FA
330
1F
100
AcDbEntity
  8
0
  6
Continuous
 62
     7
370
    15
100
AcDbLine
 10
55.0907679067
 20
256.2023438768
 30
0.0
 11
58.0907679067
 21
256.2023438768
 31
0.0
  0
LINE
  5
1FB
330
1F
100
AcDbEntity
  8
0
  6
Continuous
 62
     7
370
    15
100
AcDbLine
 10
58.0907679067
 20
256.2023438768
 30
0.0
 11
58.0907679067
 21
266.2023438768
 31
0.0
  0
LINE
  5
1FC
330
1F
100
AcDbEntity
  8
0
  6
Continuous
 62
     7
370
    15
100
AcDbLine
 10
58.0907679067
 20
266.2023438768
 30
0.0
 11
55.0907679067
 21
266.2023438768
 31
0.0
  0
LINE
  5
1FD
330
1F
100
AcDbEntity
  8
0
  6
Continuous
 62
     7
370
    15
100
AcDbLine
 10
55.0907679067
 20
266.2023438768
 30
0.0
 11
55.0907679067
 21
256.2023438768
 31
0.0
  0
LINE
  5
1FE
330
1F
100
AcDbEntity
  8
0
  6
Continuous
 62
     7
370
    15
100
AcDbLine
 10
46.5907679067
 20
263.2023438768
 30
0.0
 11
46.5907679067
 21
266.2023438768
 31
0.0
  0
LINE
  5
1FF
330
1F
100
AcDbEntity
  8
0
  6
Continuous
 62
     7
370
    15
100
AcDbLine
 10
46.5907679067
 20
266.2023438768
 30
0.0
 11
26.5907679067
 21
266.2023438768
 31
0.0
  0
LINE
  5
200
330
1F
100
AcDbEntity
  8
0
  6
Continuous
 62
     7
370
    15
100
AcDbLine
 10
26.5907679067
 20
266.2023438768
 30
0.0
 11
26.5907679067
 21
263.2023438768
 31
0.0
  0
LINE
  5
201
330
1F
100
AcDbEntity
  8
0
  6
Continuous
 62
     7
370
    15
100
AcDbLine
 10
26.5907679067
 20
263.2023438768
 30
0.0
 11
46.5907679067
 21
263.2023438768
 31
0.0
  0
LINE
  5
202
330
1F
100
AcDbEntity
  8
0
  6
Continuous
 62
     7
370
    15
100
AcDbLine
 10
480.8853765845
 20
266.4301851001
 30
0.0
 11
485.1543007941
 21
285.969281448
 31
0.0
  0
LINE
  5
203
330
1F
100
AcDbEntity
  8
0
  6
Continuous
 62
     7
370
    15
100
AcDbLine
 10
477.9545121324
 20
267.0705237315
 30
0.0
 11
480.8853765845
 21
266.4301851001
 31
0.0
  0
LINE
  5
204
330
1F
100
AcDbEntity
  8
0
  6
Continuous
 62
     7
370
    15
100
AcDbLine
 10
473.6855879228
 20
247.5314273836
 30
0.0
 11
477.9545121324
 21
267.0705237315
 31
0.0
  0
LINE
  5
205
330
1F
100
AcDbEntity
  8
0
  6
Continuous
 62
     7
370
    15
100
AcDbLine
 10
476.616452375
 20
246.8910887522
 30
0.0
 11
473.6855879228
 21
247.5314273836
 31
0.0
  0
LINE
  5
206
330
1F
100
AcDbEntity
  8
0
  6
Continuous
 62
     7
370
    15
100
AcDbLine
 10
472.3475281655
 20
227.3519924043
 30
0.0
 11
476.616452375
 21
246.8910887522
 31
0.0
  0
LINE
  5
207
330
1F
100
AcDbEntity
  8
0
  6
Continuous
 62
     7
370
    15
100
AcDbLine
 10
469.4166637133
 20
227.9923310357
 30
0.0
 11
472.3475281655
 21
227.3519924043
 31
0.0
  0
LINE
  5
208
330
1F
100
AcDbEntity
  8
0
  6
Continuous
 62
     7
370
    15
100
AcDbLine
 10
465.1477395038
 20
208.4532346878
 30
0.0
 11
469.4166637133
 21
227.9923310357
 31
0.0
  0
LINE
  5
209
330
1F
100
AcDbEntity
  8
0
  6
Continuous
 62
     7
370
    15
100
AcDbLine
 10
468.078603956
 20
207.8128960563
 30
0.0
 11
465.1477395038
 21
208.4532346878
 31
0.0
  0
LINE
  5
20A
330
1F
100
AcDbEntity
  8
0
  6
Continuous
 62
     7
370
    15
100
AcDbLine
 10
465.9441418512
 20
198.0433478824
 30
0.0
 11
468.078603956
 21
207.8128960563
 31
0.0
  0
LINE
  5
20B
330
1F
100
AcDbEntity
  8
0
  6
Continuous
 62
     7
370
    15
100
AcDbLine
 10
455.9441418512
 20
198.0433478824
 30
0.0
 11
465.9441418512
 21
198.0433478824
 31
0.0
  0
LINE
  5
20C
330
1F
100
AcDbEntity
  8
0
  6
Continuous
 62
     7
370
    15
100
AcDbLine
 10
455.9441418512
 20
201.0433478824
 30
0.0
 11
455.9441418512
 21
198.0433478824
 31
0.0
  0
LINE
  5
20D
330
1F
100
AcDbEntity
  8
0
  6
Continuous
 62
     7
370
    15
100
AcDbLine
 10
435.9441418512
 20
201.0433478824
 30
0.0
 11
455.9441418512
 21
201.0433478824
 31
0.0
  0
LINE
  5
20E
330
1F
100
AcDbEntity
  8
0
  6
Continuous
 62
     7
370
    15
100
AcDbLine
 10
435.9441418512
 20
198.0433478824
 30
0.0
 11
435.9441418512
 21
201.0433478824
 31
0.0
  0
LINE
  5
20F
330
1F
100
AcDbEntity
  8
0
  6
Continuous
 62
     7
370
    15
100
AcDbLine
 10
415.9441418512
 20
198.0433478824
 30
0.0
 11
435.9441418512
 21
198.0433478824
 31
0.0
  0
LINE
  5
210
330
1F
100
AcDbEntity
  8
0
  6
Continuous
 62
     7
370
    15
100
AcDbLine
 10
415.9441418512
 20
201.0433478824
 30
0.0
 11
415.9441418512
 21
198.0433478824
 31
0.0
  0
LINE
  5
211
330
1F
100
AcDbEntity
  8
0
  6
Continuous
 62
     7
370
    15
100
AcDbLine
 10
395.9441418512
 20
201.0433478824
 30
0.0
 11
415.9441418512
 21
201.0433478824
 31
0.0
  0
LINE
  5
212
330
1F
100
AcDbEntity
  8
0
  6
Continuous
 62
     7
370
    15
100
AcDbLine
 10
395.9441418512
 20
198.0433478824
 30
0.0
 11
395.9441418512
 21
201.0433478824
 31
0.0
  0
LINE
  5
213
330
1F
100
AcDbEntity
  8
0
  6
Continuous
 62
     7
370
    15
100
AcDbLine
 10
375.9441418512
 20
198.0433478824
 30
0.0
 11
395.9441418512
 21
198.0433478824
 31
0.0
  0
LINE
  5
214
330
1F
100
AcDbEntity
  8
0
  6
Continuous
 62
     7
370
    15
100
AcDbLine
 10
375.9441418512
 20
201.0433478824
 30
0.0
 11
375.9441418512
 21
198.0433478824
 31
0.0
  0
LINE
  5
215
330
1F
100
AcDbEntity
  8
0
  6
Continuous
 62
     7
370
    15
100
AcDbLine
 10
355.9441418512
 20
201.0433478824
 30
0.0
 11
375.9441418512
 21
201.0433478824
 31
0.0
  0
LINE
  5
216
330
1F
100
AcDbEntity
  8
0
  6
Continuous
 62
     7
370
    15
100
AcDbLine
 10
355.9441418512
 20
198.0433478824
 30
0.0
 11
355.9441418512
 21
201.0433478824
 31
0.0
  0
LINE
  5
217
330
1F
100
AcDbEntity
  8
0
  6
Continuous
 62
     7
370
    15
100
AcDbLine
 10
345.9441418512
 20
198.0433478824
 30
0.0
 11
355.9441418512
 21
198.0433478824
 31
0.0
  0
LINE
  5
218
330
1F
100
AcDbEntity
  8
0
  6
Continuous
 62
     7
370
    15
100
AcDbLine
 10
343.8096797465
 20
207.8128960563
 30
0.0
 11
345.9441418512
 21
198.0433478824
 31
0.0
  0
LINE
  5
219
330
1F
100
AcDbEntity
  8
0
  6
Continuous
 62
     7
370
    15
100
AcDbLine
 10
346.7405441986
 20
208.4532346878
 30
0.0
 11
343.8096797465
 21
207.8128960563
 31
0.0
  0
LINE
  5
21A
330
1F
100
AcDbEntity
  8
0
  6
Continuous
 62
     7
370
    15
100
AcDbLine
 10
342.4716199891
 20
227.9923310357
 30
0.0
 11
346.7405441986
 21
208.4532346878
 31
0.0
  0
LINE
  5
21B
330
1F
100
AcDbEntity
  8
0
  6
Continuous
 62
     7
370
    15
100
AcDbLine
 10
339.5407555369
 20
227.3519924043
 30
0.0
 11
342.4716199891
 21
227.9923310357
 31
0.0
  0
LINE
  5
21C
330
1F
100
AcDbEntity
  8
0
  6
Continuous
 62
     7
370
    15
100
AcDbLine
 10
335.2718313274
 20
246.8910887522
 30
0.0
 11
339.5407555369
 21
227.3519924043
 31
0.0
  0
LINE
  5
21D
330
1F
100
AcDbEntity
  8
0
  6
Continuous
 62
     7
370
    15
100
AcDbLine
 10
338.2026957796
 20
247.5314273836
 30
0.0
 11
335.2718313274
 21
246.8910887522
 31
0.0
  0
LINE
  5
21E
330
1F
100
AcDbEntity
  8
0
  6
Continuous
 62
     7
370
    15
100
AcDbLine
 10
333.9337715701
 20
267.0705237315
 30
0.0
 11
338.2026957796
 21
247.5314273836
 31
0.0
  0
LINE
  5
21F
330
1F
100
AcDbEntity
  8
0
  6
Continuous
 62
     7
370
    15
100
AcDbLine
 10
331.0029071179
 20
266.4301851001
 30
0.0
 11
333.9337715701
 21
267.0705237315
 31
0.0
  0
LINE
  5
220
330
1F
100
AcDbEntity
  8
0
  6
Continuous
 62
     7
370
    15
100
AcDbLine
 10
326.7339829084
 20
285.969281448
 30
0.0
 11
331.0029071179
 21
266.4301851001
 31
0.0
  0
LINE
  5
221
330
1F
100
AcDbEntity
  8
0
  6
Continuous
 62
     7
370
    15
100
AcDbLine
 10
329.6648473606
 20
286.6096200794
 30
0.0
 11
326.7339829084
 21
285.969281448
 31
0.0
  0
LINE
  5
222
330
1F
100
AcDbEntity
  8
0
  6
Continuous
 62
     7
370
    15
100
AcDbLine
 10
325.395923151
 20
306.1487164274
 30
0.0
 11
329.6648473606
 21
286.6096200794
 31
0.0
  0
LINE
  5
223
330
1F
100
AcDbEntity
  8
0
  6
Continuous
 62
     7
370
    15
100
AcDbLine
 10
322.4650586989
 20
305.5083777959
 30
0.0
 11
325.395923151
 21
306.1487164274
 31
0.0
  0
LINE
  5
224
330
1F
100
AcDbEntity
  8
0
  6
Continuous
 62
     7
370
    15
100
AcDbLine
 10
321.0913281088
 20
311.7960167975
 30
0.0
 11
322.4650586989
 21
305.5083777959
 31
0.0
  0
LINE
  5
225
330
1F
100
AcDbEntity
  8
0
  6
Continuous
 62
     7
370
    15
100
AcDbLine
 10
328.1623959207
 20
318.8670846094
 30
0.0
 11
321.0913281088
 21
311.7960167975
 31
0.0
  0
LINE
  5
226
330
1F
100
AcDbEntity
  8
0
  6
Continuous
 62
     7
370
    15
100
AcDbLine
 10
326.0410755771
 20
320.9884049529
 30
0.0
 11
328.1623959207
 21
318.8670846094
 31
0.0
  0
LINE
  5
227
330
1F
100
AcDbEntity
  8
0
  6
Continuous
 62
     7
370
    15
100
AcDbLine
 10
340.1832112009
 20
335.1305405767
 30
0.0
 11
326.0410755771
 21
320.9884049529
 31
0.0
  0
LINE
  5
228
330
1F
100
AcDbEntity
  8
0
  6
Continuous
 62
     7
370
    15
100
AcDbLine
 10
342.3045315444
 20
333.0092202331
 30
0.0
 11
340.1832112009
 21
335.1305405767
 31
0.0
  0
LINE
  5
229
330
1F
100
AcDbEntity
  8
0
  6
Continuous
 62
     7
370
    15
100
AcDbLine
 10
356.4466671682
 20
347.1513558568
 30
0.0
 11
342.3045315444
 21
333.0092202331
 31
0.0
  0
LINE
  5
22A
330
1F
100
AcDbEntity
  8
0
  6
Continuous
 62
     7
370
    15
100
AcDbLine
 10
354.3253468246
 20
349.2726762004
 30
0.0
 11
356.4466671682
 21
347.1513558568
 31
0.0
  0
LINE
  5
22B
330
1F
100
AcDbEntity
  8
0
  6
Continuous
 62
     7
370
    15
100
AcDbLine
 10
368.4674824483
 20
363.4148118241
 30
0.0
 11
354.3253468246
 21
349.2726762004
 31
0.0
  0
LINE
  5
22C
330
1F
100
AcDbEntity
  8
0
  6
Continuous
 62
     7
370
    15
100
AcDbLine
 10
370.5888027919
 20
361.2934914806
 30
0.0
 11
368.4674824483
 21
363.4148118241
 31
0.0
  0
LINE
  5
22D
330
1F
100
AcDbEntity
  8
0
  6
Continuous
 62
     7
370
    15
100
AcDbLine
 10
384.7309384156
 20
375.4356271043
 30
0.0
 11
370.5888027919
 21
361.2934914806
 31
0.0
  0
LINE
  5
22E
330
1F
100
AcDbEntity
  8
0
  6
Continuous
 62
     7
370
    15
100
AcDbLine
 10
382.6096180721
 20
377.5569474479
 30
0.0
 11
384.7309384156
 21
375.4356271043
 31
0.0
  0
LINE
  5
22F
330
1F
100
AcDbEntity
  8
0
  6
Continuous
 62
     7
370
    15
100
AcDbLine
 10
396.7517536958
 20
391.6990830716
 30
0.0
 11
382.6096180721
 21
377.5569474479
 31
0.0
  0
LINE
  5
230
330
1F
100
AcDbEntity
  8
0
  6
Continuous
 62
     7
370
    15
100
AcDbLine
 10
398.8730740394
 20
389.577762728
 30
0.0
 11
396.7517536958
 21
391.6990830716
 31
0.0
  0
LINE
  5
231
330
1F
100
AcDbEntity
  8
0
  6
Continuous
 62
     7
370
    15
100
AcDbLine
 10
405.9441418512
 20
396.6488305399
 30
0.0
 11
398.8730740394
 21
389.577762728
 31
0.0
  0
LINE
  5
232
330
1F
100
AcDbEntity
  8
0
  6
Continuous
 62
     7
370
    15
100
AcDbLine
 10
413.0152096631
 20
389.577762728
 30
0.0
 11
405.9441418512
 21
396.6488305399
 31
0.0
  0
LINE
  5
233
330
1F
100
AcDbEntity
  8
0
  6
Continuous
 62
     7
370
    15
100
AcDbLine
 10
415.1365300066
 20
391.6990830716
 30
0.0
 11
413.0152096631
 21
389.577762728
 31
0.0
  0
LINE
  5
234
330
1F
100
AcDbEntity
  8
0
  6
Continuous
 62
     7
370
    15
100
AcDbLine
 10
429.2786656304
 20
377.5569474479
 30
0.0
 11
415.1365300066
 21
391.6990830716
 31
0.0
  0
LINE
  5
235
330
1F
100
AcDbEntity
  8
0
  6
Continuous
 62
     7
370
    15
100
AcDbLine
 10
427.1573452868
 20
375.4356271043
 30
0.0
 11
429.2786656304
 21
377.5569474479
 31
0.0
  0
LINE
  5
236
330
1F
100
AcDbEntity
  8
0
  6
Continuous
 62
     7
370
    15
100
AcDbLine
 10
441.2994809105
 20
361.2934914806
 30
0.0
 11
427.1573452868
 21
375.4356271043
 31
0.0
  0
LINE
  5
237
330
1F
100
AcDbEntity
  8
0
  6
Continuous
 62
     7
370
    15
100
AcDbLine
 10
443.4208012541
 20
363.4148118241
 30
0.0
 11
441.2994809105
 21
361.2934914806
 31
0.0
  0
LINE
  5
238
330
1F
100
AcDbEntity
  8
0
  6
Continuous
 62
     7
370
    15
100
AcDbLine
 10
457.5629368778
 20
349.2726762004
 30
0.0
 11
443.4208012541
 21
363.4148118241
 31
0.0
  0
LINE
  5
239
330
1F
100
AcDbEntity
  8
0
  6
Continuous
 62
     7
370
    15
100
AcDbLine
 10
455.4416165343
 20
347.1513558568
 30
0.0
 11
457.5629368778
 21
349.2726762004
 31
0.0
  0
LINE
  5
23A
330
1F
100
AcDbEntity
  8
0
  6
Continuous
 62
     7
370
    15
100
AcDbLine
 10
469.583752158
 20
333.0092202331
 30
0.0
 11
455.4416165343
 21
347.1513558568
 31
0.0
  0
LINE
  5
23B
330
1F
100
AcDbEntity
  8
0
  6
Continuous
 62
     7
370
    15
100
AcDbLine
 10
471.7050725016
 20
335.1305405767
 30
0.0
 11
469.583752158
 21
333.0092202331
 31
0.0
  0
LINE
  5
23C
330
1F
100
AcDbEntity
  8
0
  6
Continuous
 62
     7
370
    15
100
AcDbLine
 10
485.8472081253
 20
320.9884049529
 30
0.0
 11
471.7050725016
 21
335.1305405767
 31
0.0
  0
LINE
  5
23D
330
1F
100
AcDbEntity
  8
0
  6
Continuous
 62
     7
370
    15
100
AcDbLine
 10
483.7258877817
 20
318.8670846094
 30
0.0
 11
485.8472081253
 21
320.9884049529
 31
0.0
  0
LINE
  5
23E
330
1F
100
AcDbEntity
  8
0
  6
Continuous
 62
     7
370
    15
100
AcDbLine
 10
490.7969555936
 20
311.7960167975
 30
0.0
 11
483.7258877817
 21
318.8670846094
 31
0.0
  0
LINE
  5
23F
330
1F
100
AcDbEntity
  8
0
  6
Continuous
 62
     7
370
    15
100
AcDbLine
 10
489.4232250036
 20
305.5083777959
 30
0.0
 11
490.7969555936
 21
311.7960167975
 31
0.0
  0
LINE
  5
240
330
1F
100
AcDbEntity
  8
0
  6
Continuous
 62
     7
370
    15
100
AcDbLine
 10
486.4923605514
 20
306.1487164274
 30
0.0
 11
489.4232250036
 21
305.5083777959
 31
0.0
  0
LINE
  5
241
330
1F
100
AcDbEntity
  8
0
  6
Continuous
 62
     7
370
    15
100
AcDbLine
 10
482.2234363419
 20
286.6096200794
 30
0.0
 11
486.4923605514
 21
306.1487164274
 31
0.0
  0
LINE
  5
242
330
1F
100
AcDbEntity
  8
0
  6
Continuous
 62
     7
370
    15
100
AcDbLine
 10
485.1543007941
 20
285.969281448
 30
0.0
 11
482.2234363419
 21
286.6096200794
 31
0.0
  0
LINE
  5
243
330
1F
100
AcDbEntity
  8
0
  6
Continuous
 62
     7
370
    15
100
AcDbLine
 10
-42.1452563648
 20
301.8755670616
 30
0.0
 11
-42.1452563648
 21
307.8755670616
 31
0.0
  0
LINE
  5
244
330
1F
100
AcDbEntity
  8
0
  6
Continuous
 62
     7
370
    15
100
AcDbLine
 10
-39.1452563648
 20
301.8755670616
 30
0.0
 11
-42.1452563648
 21
301.8755670616
 31
0.0
  0
LINE
  5
245
330
1F
100
AcDbEntity
  8
0
  6
Continuous
 62
     7
370
    15
100
AcDbLine
 10
-39.1452563648
 20
281.8755670616
 30
0.0
 11
-39.1452563648
 21
301.8755670616
 31
0.0
  0
LINE
  5
246
330
1F
100
AcDbEntity
  8
0
  6
Continuous
 62
     7
370
    15
100
AcDbLine
 10
-42.1452563648
 20
281.8755670616
 30
0.0
 11
-39.1452563648
 21
281.8755670616
 31
0.0
  0
LINE
  5
247
330
1F
100
AcDbEntity
  8
0
  6
Continuous
 62
     7
370
    15
100
AcDbLine
 10
-42.1452563648
 20
261.8755670616
 30
0.0
 11
-42.1452563648
 21
281.8755670616
 31
0.0
  0
LINE
  5
248
330
1F
100
AcDbEntity
  8
0
  6
Continuous
 62
     7
370
    15
100
AcDbLine
 10
-39.1452563648
 20
261.8755670616
 30
0.0
 11
-42.1452563648
 21
261.8755670616
 31
0.0
  0
LINE
  5
249
330
1F
100
AcDbEntity
  8
0
  6
Continuous
 62
     7
370
    15
100
AcDbLine
 10
-39.1452563648
 20
241.8755670616
 30
0.0
 11
-39.1452563648
 21
261.8755670616
 31
0.0
  0
LINE
  5
24A
330
1F
100
AcDbEntity
  8
0
  6
Continuous
 62
     7
370
    15
100
AcDbLine
 10
-42.1452563648
 20
241.8755670616
 30
0.0
 11
-39.1452563648
 21
241.8755670616
 31
0.0
  0
LINE
  5
24B
330
1F
100
AcDbEntity
  8
0
  6
Continuous
 62
     7
370
    15
100
AcDbLine
 10
-42.1452563648
 20
221.8755670616
 30
0.0
 11
-42.1452563648
 21
241.8755670616
 31
0.0
  0
LINE
  5
24C
330
1F
100
AcDbEntity
  8
0
  6
Continuous
 62
     7
370
    15
100
AcDbLine
 10
-39.1452563648
 20
221.8755670616
 30
0.0
 11
-42.1452563648
 21
221.8755670616
 31
0.0
  0
LINE
  5
24D
330
1F
100
AcDbEntity
  8
0
  6
Continuous
 62
     7
370
    15
100
AcDbLine
 10
-39.1452563648
 20
201.8755670616
 30
0.0
 11
-39.1452563648
 21
221.8755670616
 31
0.0
  0
LINE
  5
24E
330
1F
100
AcDbEntity
  8
0
  6
Continuous
 62
     7
370
    15
100
AcDbLine
 10
-42.1452563648
 20
201.8755670616
 30
0.0
 11
-39.1452563648
 21
201.8755670616
 31
0.0
  0
LINE
  5
24F
330
1F
100
AcDbEntity
  8
0
  6
Continuous
 62
     7
370
    15
100
AcDbLine
 10
-42.1452563648
 20
191.8755670616
 30
0.0
 11
-42.1452563648
 21
201.8755670616
 31
0.0
  0
LINE
  5
250
330
1F
100
AcDbEntity
  8
0
  6
Continuous
 62
     7
370
    15
100
AcDbLine
 10
-51.1452563648
 20
191.8755670616
 30
0.0
 11
-42.1452563648
 21
191.8755670616
 31
0.0
  0
LINE
  5
251
330
1F
100
AcDbEntity
  8
0
  6
Continuous
 62
     7
370
    15
100
AcDbLine
 10
-51.1452563648
 20
194.8755670616
 30
0.0
 11
-51.1452563648
 21
191.8755670616
 31
0.0
  0
LINE
  5
252
330
1F
100
AcDbEntity
  8
0
  6
Continuous
 62
     7
370
    15
100
AcDbLine
 10
-59.1452563648
 20
194.8755670616
 30
0.0
 11
-51.1452563648
 21
194.8755670616
 31
0.0
  0
LINE
  5
253
330
1F
100
AcDbEntity
  8
0
  6
Continuous
 62
     7
370
    15
100
AcDbLine
 10
-59.1452563648
 20
191.8755670616
 30
0.0
 11
-59.1452563648
 21
194.8755670616
 31
0.0
  0
LINE
  5
254
330
1F
100
AcDbEntity
  8
0
  6
Continuous
 62
     7
370
    15
100
AcDbLine
 10
-67.1452563648
 20
191.8755670616
 30
0.0
 11
-59.1452563648
 21
191.8755670616
 31
0.0
  0
LINE
  5
255
330
1F
100
AcDbEntity
  8
0
  6
Continuous
 62
     7
370
    15
100
AcDbLine
 10
-67.1452563648
 20
194.8755670616
 30
0.0
 11
-67.1452563648
 21
191.8755670616
 31
0.0
  0
LINE
  5
256
330
1F
100
AcDbEntity
  8
0
  6
Continuous
 62
     7
370
    15
100
AcDbLine
 10
-75.1452563648
 20
194.8755670616
 30
0.0
 11
-67.1452563648
 21
194.8755670616
 31
0.0
  0
LINE
  5
257
330
1F
100
AcDbEntity
  8
0
  6
Continuous
 62
     7
370
    15
100
AcDbLine
 10
-75.1452563648
 20
191.8755670616
 30
0.0
 11
-75.1452563648
 21
194.8755670616
 31
0.0
  0
LINE
  5
258
330
1F
100
AcDbEntity
  8
0
  6
Continuous
 62
     7
370
    15
100
AcDbLine
 10
-83.1452563648
 20
191.8755670616
 30
0.0
 11
-75.1452563648
 21
191.8755670616
 31
0.0
  0
LINE
  5
259
330
1F
100
AcDbEntity
  8
0
  6
Continuous
 62
     7
370
    15
100
AcDbLine
 10
-83.1452563648
 20
194.8755670616
 30
0.0
 11
-83.1452563648
 21
191.8755670616
 31
0.0
  0
LINE
  5
25A
330
1F
100
AcDbEntity
  8
0
  6
Continuous
 62
     7
370
    15
100
AcDbLine
 10
-91.1452563648
 20
194.8755670616
 30
0.0
 11
-83.1452563648
 21
194.8755670616
 31
0.0
  0
LINE
  5
25B
330
1F
100
AcDbEntity
  8
0
  6
Continuous
 62
     7
370
    15
100
AcDbLine
 10
-91.1452563648
 20
191.8755670616
 30
0.0
 11
-91.1452563648
 21
194.8755670616
 31
0.0
  0
LINE
  5
25C
330
1F
100
AcDbEntity
  8
0
  6
Continuous
 62
     7
370
    15
100
AcDbLine
 10
-99.1452563648
 20
191.8755670616
 30
0.0
 11
-91.1452563648
 21
191.8755670616
 31
0.0
  0
LINE
  5
25D
330
1F
100
AcDbEntity
  8
0
  6
Continuous
 62
     7
370
    15
100
AcDbLine
 10
-99.1452563648
 20
194.8755670616
 30
0.0
 11
-99.1452563648
 21
191.8755670616
 31
0.0
  0
LINE
  5
25E
330
1F
100
AcDbEntity
  8
0
  6
Continuous
 62
     7
370
    15
100
AcDbLine
 10
-107.1452563648
 20
194.8755670616
 30
0.0
 11
-99.1452563648
 21
194.8755670616
 31
0.0
  0
LINE
  5
25F
330
1F
100
AcDbEntity
  8
0
  6
Continuous
 62
     7
370
    15
100
AcDbLine
 10
-107.1452563648
 20
191.8755670616
 30
0.0
 11
-107.1452563648
 21
194.8755670616
 31
0.0
  0
LINE
  5
260
330
1F
100
AcDbEntity
  8
0
  6
Continuous
 62
     7
370
    15
100
AcDbLine
 10
-116.1452563648
 20
191.8755670616
 30
0.0
 11
-107.1452563648
 21
191.8755670616
 31
0.0
  0
LINE
  5
261
330
1F
100
AcDbEntity
  8
0
  6
Continuous
 62
     7
370
    15
100
AcDbLine
 10
-116.1452563648
 20
201.8755670616
 30
0.0
 11
-116.1452563648
 21
191.8755670616
 31
0.0
  0
LINE
  5
262
330
1F
100
AcDbEntity
  8
0
  6
Continuous
 62
     7
370
    15
100
AcDbLine
 10
-119.1452563648
 20
201.8755670616
 30
0.0
 11
-116.1452563648
 21
201.8755670616
 31
0.0
  0
LINE
  5
263
330
1F
100
AcDbEntity
  8
0
  6
Continuous
 62
     7
370
    15
100
AcDbLine
 10
-119.1452563648
 20
221.8755670616
 30
0.0
 11
-119.1452563648
 21
201.8755670616
 31
0.0
  0
LINE
  5
264
330
1F
100
AcDbEntity
  8
0
  6
Continuous
 62
     7
370
    15
100
AcDbLine
 10
-116.1452563648
 20
221.8755670616
 30
0.0
 11
-119.1452563648
 21
221.8755670616
 31
0.0
  0
LINE
  5
265
330
1F
100
AcDbEntity
  8
0
  6
Continuous
 62
     7
370
    15
100
AcDbLine
 10
-116.1452563648
 20
241.8755670616
 30
0.0
 11
-116.1452563648
 21
221.8755670616
 31
0.0
  0
LINE
  5
266
330
1F
100
AcDbEntity
  8
0
  6
Continuous
 62
     7
370
    15
100
AcDbLine
 10
-119.1452563648
 20
241.8755670616
 30
0.0
 11
-116.1452563648
 21
241.8755670616
 31
0.0
  0
LINE
  5
267
330
1F
100
AcDbEntity
  8
0
  6
Continuous
 62
     7
370
    15
100
AcDbLine
 10
-119.1452563648
 20
261.8755670616
 30
0.0
 11
-119.1452563648
 21
241.8755670616
 31
0.0
  0
LINE
  5
268
330
1F
100
AcDbEntity
  8
0
  6
Continuous
 62
     7
370
    15
100
AcDbLine
 10
-116.1452563648
 20
261.8755670616
 30
0.0
 11
-119.1452563648
 21
261.8755670616
 31
0.0
  0
LINE
  5
269
330
1F
100
AcDbEntity
  8
0
  6
Continuous
 62
     7
370
    15
100
AcDbLine
 10
-116.1452563648
 20
281.8755670616
 30
0.0
 11
-116.1452563648
 21
261.8755670616
 31
0.0
  0
LINE
  5
26A
330
1F
100
AcDbEntity
  8
0
  6
Continuous
 62
     7
370
    15
100
AcDbLine
 10
-119.1452563648
 20
281.8755670616
 30
0.0
 11
-116.1452563648
 21
281.8755670616
 31
0.0
  0
LINE
  5
26B
330
1F
100
AcDbEntity
  8
0
  6
Continuous
 62
     7
370
    15
100
AcDbLine
 10
-119.1452563648
 20
301.8755670616
 30
0.0
 11
-119.1452563648
 21
281.8755670616
 31
0.0
  0
LINE
  5
26C
330
1F
100
AcDbEntity
  8
0
  6
Continuous
 62
     7
370
    15
100
AcDbLine
 10
-116.1452563648
 20
301.8755670616
 30
0.0
 11
-119.1452563648
 21
301.8755670616
 31
0.0
  0
LINE
  5
26D
330
1F
100
AcDbEntity
  8
0
  6
Continuous
 62
     7
370
    15
100
AcDbLine
 10
-116.1452563648
 20
307.8755670616
 30
0.0
 11
-116.1452563648
 21
301.8755670616
 31
0.0
  0
LINE
  5
26E
330
1F
100
AcDbEntity
  8
0
  6
Continuous
 62
     7
370
    15
100
AcDbLine
 10
-42.1452563648
 20
307.8755670616
 30
0.0
 11
-116.1452563648
 21
307.8755670616
 31
0.0
  0
LINE
  5
26F
330
1F
100
AcDbEntity
  8
0
  6
Continuous
 62
     7
370
    15
100
AcDbLine
 10
153.1383183332
 20
398.1777760643
 30
0.0
 11
153.1383183332
 21
372.1777760643
 31
0.0
  0
LWPOLYLINE
  5
270
330
1F
100
AcDbEntity
  8
0
  6
Continuous
 62
     7
370
    15
100
AcDbPolyline
 90
       20
 70
   128
 43
0.0
 10
153.1383183332
 20
372.1777760643
 10
155.1412157764
 20
374.8240684107
 10
157.4653257605
 20
377.2824664081
 10
160.0826417712
 20
379.5601930073
 10
162.965157294
 20
381.6644711589
 10
166.0848658148
 20
383.6025238139
 10
169.4137608191
 20
385.381573923
 10
172.9238357926
 20
387.0088444368
 10
177.9945762397
 20
389.0117817131
 10
183.2821042527
 20
390.7601934341
 10
188.7136138344
 20
392.2728564504
 10
194.2162989876
 20
393.5685476126
 10
199.1302302276
 20
394.557368212
 10
203.9910398313
 20
395.4015539594
 10
208.7469059282
 20
396.1144698459
 10
213.3460066475
 20
396.7094808631
 10
217.7365201183
 20
397.1999520022
 10
221.8666244701
 20
397.5992482545
 10
225.684497832
 20
397.9207346115
 10
229.1383183332
 20
398.1777760643
  0
LINE
  5
271
330
1F
100
AcDbEntity
  8
0
  6
Continuous
 62
     7
370
    15
100
AcDbLine
 10
229.1383183332
 20
398.1777760643
 30
0.0
 11
153.1383183332
 21
398.1777760643
 31
0.0
  0
LINE
  5
272
330
1F
100
AcDbEntity
  8
0
  6
Continuous
 62
     7
370
    15
100
AcDbLine
 10
162.1383183332
 20
405.1777760643
 30
0.0
 11
146.1383183332
 21
405.1777760643
 31
0.0
  0
LINE
  5
273
330
1F
100
AcDbEntity
  8
0
  6
Continuous
 62
     7
370
    15
100
AcDbLine
 10
162.1383183332
 20
408.1777760643
 30
0.0
 11
162.1383183332
 21
405.1777760643
 31
0.0
  0
LINE
  5
274
330
1F
100
AcDbEntity
  8
0
  6
Continuous
 62
     7
370
    15
100
AcDbLine
 10
182.1383183332
 20
408.1777760643
 30
0.0
 11
162.1383183332
 21
408.1777760643
 31
0.0
  0
LINE
  5
275
330
1F
100
AcDbEntity
  8
0
  6
Continuous
 62
     7
370
    15
100
AcDbLine
 10
182.1383183332
 20
405.1777760643
 30
0.0
 11
182.1383183332
 21
408.1777760643
 31
0.0
  0
LINE
  5
276
330
1F
100
AcDbEntity
  8
0
  6
Continuous
 62
     7
370
    15
100
AcDbLine
 10
202.1383183332
 20
405.1777760643
 30
0.0
 11
182.1383183332
 21
405.1777760643
 31
0.0
  0
LINE
  5
277
330
1F
100
AcDbEntity
  8
0
  6
Continuous
 62
     7
370
    15
100
AcDbLine
 10
202.1383183332
 20
408.1777760643
 30
0.0
 11
202.1383183332
 21
405.1777760643
 31
0.0
  0
LINE
  5
278
330
1F
100
AcDbEntity
  8
0
  6
Continuous
 62
     7
370
    15
100
AcDbLine
 10
222.1383183332
 20
408.1777760643
 30
0.0
 11
202.1383183332
 21
408.1777760643
 31
0.0
  0
LINE
  5
279
330
1F
100
AcDbEntity
  8
0
  6
Continuous
 62
     7
370
    15
100
AcDbLine
 10
222.1383183332
 20
405.1777760643
 30
0.0
 11
222.1383183332
 21
408.1777760643
 31
0.0
  0
LINE
  5
27A
330
1F
100
AcDbEntity
  8
0
  6
Continuous
 62
     7
370
    15
100
AcDbLine
 10
242.1383183332
 20
405.1777760643
 30
0.0
 11
222.1383183332
 21
405.1777760643
 31
0.0
  0
LINE
  5
27B
330
1F
100
AcDbEntity
  8
0
  6
Continuous
 62
     7
370
    15
100
AcDbLine
 10
242.1383183332
 20
408.1777760643
 30
0.0
 11
242.1383183332
 21
405.1777760643
 31
0.0
  0
LINE
  5
27C
330
1F
100
AcDbEntity
  8
0
  6
Continuous
 62
     7
370
    15
100
AcDbLine
 10
262.1383183332
 20
408.1777760643
 30
0.0
 11
242.1383183332
 21
408.1777760643
 31
0.0
  0
LINE
  5
27D
330
1F
100
AcDbEntity
  8
0
  6
Continuous
 62
     7
370
    15
100
AcDbLine
 10
262.1383183332
 20
405.1777760643
 30
0.0
 11
262.1383183332
 21
408.1777760643
 31
0.0
  0
LINE
  5
27E
330
1F
100
AcDbEntity
  8
0
  6
Continuous
 62
     7
370
    15
100
AcDbLine
 10
282.1383183332
 20
405.1777760643
 30
0.0
 11
262.1383183332
 21
405.1777760643
 31
0.0
  0
LINE
  5
27F
330
1F
100
AcDbEntity
  8
0
  6
Continuous
 62
     7
370
    15
100
AcDbLine
 10
282.1383183332
 20
408.1777760643
 30
0.0
 11
282.1383183332
 21
405.1777760643
 31
0.0
  0
LINE
  5
280
330
1F
100
AcDbEntity
  8
0
  6
Continuous
 62
     7
370
    15
100
AcDbLine
 10
302.1383183332
 20
408.1777760643
 30
0.0
 11
282.1383183332
 21
408.1777760643
 31
0.0
  0
LINE
  5
281
330
1F
100
AcDbEntity
  8
0
  6
Continuous
 62
     7
370
    15
100
AcDbLine
 10
302.1383183332
 20
405.1777760643
 30
0.0
 11
302.1383183332
 21
408.1777760643
 31
0.0
  0
LINE
  5
282
330
1F
100
AcDbEntity
  8
0
  6
Continuous
 62
     7
370
    15
100
AcDbLine
 10
316.1383183332
 20
405.1777760643
 30
0.0
 11
302.1383183332
 21
405.1777760643
 31
0.0
  0
ARC
  5
283
330
1F
100
AcDbEntity
  8
0
  6
Continuous
 62
     7
370
    15
100
AcDbCircle
 10
316.1383183332
 20
401.1777760643
 30
0.0
 40
4.000000000000007
100
AcDbArc
 50
270.3250645613
 51
90.0
  0
LWPOLYLINE
  5
284
330
1F
100
AcDbEntity
  8
0
  6
Continuous
 62
     7
370
    15
100
AcDbPolyline
 90
       28
 70
   128
 43
0.0
 10
156.1382378635
 20
356.2061431465
 10
156.3350576029
 20
358.2689329981
 10
156.9423509244
 20
360.3069874533
 10
157.9500633211
 20
362.3177321529
 10
159.348140286
 20
364.2985927378
 10
161.1265273124
 20
366.2469948488
 10
163.2751698931
 20
368.1603641269
 10
165.7840135215
 20
370.0361262129
 10
168.6430036905
 20
371.8717067476
 10
172.3262739829
 20
373.9170087886
 10
176.4387376385
 20
375.9026236
 10
180.9653861806
 20
377.8247084067
 10
185.8912111323
 20
379.6794204335
 10
191.201204017
 20
381.4629169053
 10
196.8803563578
 20
383.1713550469
 10
202.913659678
 20
384.8008920832
 10
210.0728766531
 20
386.5275575431
 10
217.6364281542
 20
388.1450302569
 10
225.583228352
 20
389.6479114022
 10
233.8921914173
 20
391.0308021566
 10
242.5422315208
 20
392.2883036975
 10
251.5122628332
 20
393.4150172026
 10
260.7811995253
 20
394.4055438495
 10
271.297099663
 20
395.3313838454
 10
282.1210962179
 20
396.078719335
 10
293.2251239514
 20
396.6403644857
 10
304.5811176247
 20
397.009133465
 10
316.161011999
 20
397.1778404401
  0
ARC
  5
285
330
1F
100
AcDbEntity
  8
0
  6
Continuous
 62
     7
370
    15
100
AcDbCircle
 10
151.1383183332
 20
356.1777760643
 30
0.0
 40
5.00000000000001
100
AcDbArc
 50
180.0
 51
0.3250645613
  0
LINE
  5
286
330
1F
100
AcDbEntity
  8
0
  6
Continuous
 62
     7
370
    15
100
AcDbLine
 10
143.1383183332
 20
356.1777760643
 30
0.0
 11
146.1383183332
 21
356.1777760643
 31
0.0
  0
LINE
  5
287
330
1F
100
AcDbEntity
  8
0
  6
Continuous
 62
     7
370
    15
100
AcDbLine
 10
143.1383183332
 20
363.1777760643
 30
0.0
 11
143.1383183332
 21
356.1777760643
 31
0.0
  0
LINE
  5
288
330
1F
100
AcDbEntity
  8
0
  6
Continuous
 62
     7
370
    15
100
AcDbLine
 10
146.1383183332
 20
363.1777760643
 30
0.0
 11
143.1383183332
 21
363.1777760643
 31
0.0
  0
LINE
  5
289
330
1F
100
AcDbEntity
  8
0
  6
Continuous
 62
     7
370
    15
100
AcDbLine
 10
146.1383183332
 20
370.1777760643
 30
0.0
 11
146.1383183332
 21
363.1777760643
 31
0.0
  0
LINE
  5
28A
330
1F
100
AcDbEntity
  8
0
  6
Continuous
 62
     7
370
    15
100
AcDbLine
 10
143.1383183332
 20
370.1777760643
 30
0.0
 11
146.1383183332
 21
370.1777760643
 31
0.0
  0
LINE
  5
28B
330
1F
100
AcDbEntity
  8
0
  6
Continuous
 62
     7
370
    15
100
AcDbLine
 10
143.1383183332
 20
377.1777760643
 30
0.0
 11
143.1383183332
 21
370.1777760643
 31
0.0
  0
LINE
  5
28C
330
1F
100
AcDbEntity
  8
0
  6
Continuous
 62
     7
370
    15
100
AcDbLine
 10
146.1383183332
 20
377.1777760643
 30
0.0
 11
143.1383183332
 21
377.1777760643
 31
0.0
  0
LINE
  5
28D
330
1F
100
AcDbEntity
  8
0
  6
Continuous
 62
     7
370
    15
100
AcDbLine
 10
146.1383183332
 20
384.1777760643
 30
0.0
 11
146.1383183332
 21
377.1777760643
 31
0.0
  0
LINE
  5
28E
330
1F
100
AcDbEntity
  8
0
  6
Continuous
 62
     7
370
    15
100
AcDbLine
 10
143.1383183332
 20
384.1777760643
 30
0.0
 11
146.1383183332
 21
384.1777760643
 31
0.0
  0
LINE
  5
28F
330
1F
100
AcDbEntity
  8
0
  6
Continuous
 62
     7
370
    15
100
AcDbLine
 10
143.1383183332
 20
391.1777760643
 30
0.0
 11
143.1383183332
 21
384.1777760643
 31
0.0
  0
LINE
  5
290
330
1F
100
AcDbEntity
  8
0
  6
Continuous
 62
     7
370
    15
100
AcDbLine
 10
146.1383183332
 20
391.1777760643
 30
0.0
 11
143.1383183332
 21
391.1777760643
 31
0.0
  0
LINE
  5
291
330
1F
100
AcDbEntity
  8
0
  6
Continuous
 62
     7
370
    15
100
AcDbLine
 10
146.1383183332
 20
398.1777760643
 30
0.0
 11
146.1383183332
 21
391.1777760643
 31
0.0
  0
LINE
  5
292
330
1F
100
AcDbEntity
  8
0
  6
Continuous
 62
     7
370
    15
100
AcDbLine
 10
143.1383183332
 20
398.1777760643
 30
0.0
 11
146.1383183332
 21
398.1777760643
 31
0.0
  0
LINE
  5
293
330
1F
100
AcDbEntity
  8
0
  6
Continuous
 62
     7
370
    15
100
AcDbLine
 10
143.1383183332
 20
408.1777760643
 30
0.0
 11
143.1383183332
 21
398.1777760643
 31
0.0
  0
LINE
  5
294
330
1F
100
AcDbEntity
  8
0
  6
Continuous
 62
     7
370
    15
100
AcDbLine
 10
146.1383183332
 20
408.1777760643
 30
0.0
 11
143.1383183332
 21
408.1777760643
 31
0.0
  0
LINE
  5
295
330
1F
100
AcDbEntity
  8
0
  6
Continuous
 62
     7
370
    15
100
AcDbLine
 10
146.1383183332
 20
405.1777760643
 30
0.0
 11
146.1383183332
 21
408.1777760643
 31
0.0
  0
ENDSEC
  0
SECTION
  2
OBJECTS
  0
DICTIONARY
  5
C
330
0
100
AcDbDictionary
281
     1
  3
ACAD_GROUP
350
D
  3
ACAD_LAYOUT
350
1A
  3
ACAD_MLEADERSTYLE
350
298
  3
ACAD_MLINESTYLE
350
17
  3
ACAD_PLOTSETTINGS
350
19
  3
ACAD_PLOTSTYLENAME
350
E
  3
ACAD_VISUALSTYLE
350
2A
  3
AcDbVariableDictionary
350
296
  0
DICTIONARY
  5
D
102
{ACAD_REACTORS
330
C
102
}
330
C
100
AcDbDictionary
281
     1
  0
DICTIONARY
  5
1A
102
{ACAD_REACTORS
330
C
102
}
330
C
100
AcDbDictionary
281
     1
  3
Layout1
350
1E
  3
Layout2
350
26
  3
Model
350
22
  0
DICTIONARY
  5
298
102
{ACAD_REACTORS
330
C
102
}
330
C
100
AcDbDictionary
281
     1
  0
DICTIONARY
  5
17
102
{ACAD_REACTORS
330
C
102
}
330
C
100
AcDbDictionary
281
     1
  3
Standard
350
18
  0
DICTIONARY
  5
19
102
{ACAD_REACTORS
330
C
102
}
330
C
100
AcDbDictionary
281
     1
  0
ACDBDICTIONARYWDFLT
  5
E
102
{ACAD_REACTORS
330
C
102
}
330
C
100
AcDbDictionary
281
     1
  3
Normal
350
F
100
AcDbDictionaryWithDefault
340
F
  0
DICTIONARY
  5
2A
102
{ACAD_REACTORS
330
C
102
}
330
C
100
AcDbDictionary
281
     1
  3
2dWireframe
350
2F
  3
3D Hidden
350
31
  3
3dWireframe
350
30
  3
Basic
350
32
  3
Brighten
350
36
  3
ColorChange
350
3A
  3
Conceptual
350
34
  3
Dim
350
35
  3
Facepattern
350
39
  3
Flat
350
2B
  3
FlatWithEdges
350
2C
  3
Gouraud
350
2D
  3
GouraudWithEdges
350
2E
  3
Linepattern
350
38
  3
Realistic
350
33
  3
Thicken
350
37
  0
DICTIONARY
  5
296
102
{ACAD_REACTORS
330
C
102
}
330
C
100
AcDbDictionary
281
     1
  3
DIMASSOC
350
29B
  3
HIDETEXT
350
29C
  3
PSOLHEIGHT
350
29A
  3
PSOLWIDTH
350
299
  0
LAYOUT
  5
1E
102
{ACAD_REACTORS
330
1A
102
}
330
1A
100
AcDbPlotSettings
  1

  2
none_device
  4

  6

 40
0.0
 41
0.0
 42
0.0
 43
0.0
 44
0.0
 45
0.0
 46
0.0
 47
0.0
 48
0.0
 49
0.0
140
0.0
141
0.0
142
1.0
143
1.0
 70
   688
 72
     0
 73
     0
 74
     5
  7

 75
    16
147
1.0
148
0.0
149
0.0
100
AcDbLayout
  1
Layout1
 70
     1
 71
     1
 10
0.0
 20
0.0
 11
420.0
 21
297.0
 12
0.0
 22
0.0
 32
0.0
 14
1.0000000000E+20
 24
1.0000000000E+20
 34
1.0000000000E+20
 15
-1.0000000000E+20
 25
-1.0000000000E+20
 35
-1.0000000000E+20
146
0.0
 13
0.0
 23
0.0
 33
0.0
 16
1.0
 26
0.0
 36
0.0
 17
0.0
 27
1.0
 37
0.0
 76
     0
330
1B
  0
LAYOUT
  5
26
102
{ACAD_REACTORS
330
1A
102
}
330
1A
100
AcDbPlotSettings
  1

  2
none_device
  4

  6

 40
0.0
 41
0.0
 42
0.0
 43
0.0
 44
0.0
 45
0.0
 46
0.0
 47
0.0
 48
0.0
 49
0.0
140
0.0
141
0.0
142
1.0
143
1.0
 70
   688
 72
     0
 73
     0
 74
     5
  7

 75
    16
147
1.0
148
0.0
149
0.0
100
AcDbLayout
  1
Layout2
 70
     1
 71
     2
 10
0.0
 20
0.0
 11
0.0
 21
0.0
 12
0.0
 22
0.0
 32
0.0
 14
0.0
 24
0.0
 34
0.0
 15
0.0
 25
0.0
 35
0.0
146
0.0
 13
0.0
 23
0.0
 33
0.0
 16
1.0
 26
0.0
 36
0.0
 17
0.0
 27
1.0
 37
0.0
 76
     0
330
23
  0
LAYOUT
  5
22
102
{ACAD_REACTORS
330
1A
102
}
330
1A
100
AcDbPlotSettings
  1

  2
none_device
  4

  6

 40
0.0
 41
0.0
 42
0.0
 43
0.0
 44
0.0
 45
0.0
 46
0.0
 47
0.0
 48
0.0
 49
0.0
140
0.0
141
0.0
142
1.0
143
1.0
 70
  1712
 72
     0
 73
     0
 74
     0
  7

 75
     0
147
1.0
148
0.0
149
0.0
100
AcDbLayout
  1
Model
 70
     1
 71
     0
 10
0.0
 20
0.0
 11
300.0
 21
200.0
 12
0.0
 22
0.0
 32
0.0
 14
0.0
 24
0.0
 34
0.0
 15
300.0
 25
200.0
 35
0.0
146
0.0
 13
0.0
 23
0.0
 33
0.0
 16
1.0
 26
0.0
 36
0.0
 17
0.0
 27
1.0
 37
0.0
 76
     0
330
1F
331
29
  0
MLINESTYLE
  5
18
102
{ACAD_REACTORS
330
17
102
}
330
17
100
AcDbMlineStyle
  2
Standard
 70
     0
  3

 62
   256
 51
90.0
 52
90.0
 71
     2
 49
0.5
 62
   256
  6
BYLAYER
 49
-0.5
 62
   256
  6
BYLAYER
  0
ACDBPLACEHOLDER
  5
F
102
{ACAD_REACTORS
330
E
102
}
330
E
  0
VISUALSTYLE
  5
2F
102
{ACAD_REACTORS
330
2A
102
}
330
2A
100
AcDbVisualStyle
  2
2dWireframe
 70
     4
 71
     0
 72
     2
 73
     0
 90
        0
 40
-0.6
 41
-30.0
 62
     5
 63
     7
 74
     1
 91
        4
 64
     7
 65
   257
 75
     1
175
     1
 42
1.0
 92
        0
 66
   257
 43
1.0
 76
     1
 77
     6
 78
     2
 67
     7
 79
     5
170
     0
171
     0
290
     0
174
     0
 93
        1
 44
0.0
173
     0
291
     0
 45
0.0
1001
ACAD
1000
AcDbSavedByObjectVersion
1070
     0
  0
VISUALSTYLE
  5
31
102
{ACAD_REACTORS
330
2A
102
}
330
2A
100
AcDbVisualStyle
  2
3D Hidden
 70
     6
 71
     1
 72
     2
 73
     2
 90
        0
 40
-0.6
 41
-30.0
 62
     5
 63
     7
 74
     2
 91
        2
 64
     7
 65
   257
 75
     2
175
     1
 42
40.0
 92
        0
 66
   257
 43
1.0
 76
     1
 77
     6
 78
     2
 67
     7
 79
     3
170
     0
171
     0
290
     0
174
     0
 93
        1
 44
0.0
173
     0
291
     0
 45
0.0
1001
ACAD
1000
AcDbSavedByObjectVersion
1070
     0
  0
VISUALSTYLE
  5
30
102
{ACAD_REACTORS
330
2A
102
}
330
2A
100
AcDbVisualStyle
  2
3dWireframe
 70
     5
 71
     0
 72
     2
 73
     0
 90
        0
 40
-0.6
 41
-30.0
 62
     5
 63
     7
 74
     1
 91
        4
 64
     7
 65
   257
 75
     1
175
     1
 42
1.0
 92
        0
 66
   257
 43
1.0
 76
     1
 77
     6
 78
     2
 67
     7
 79
     5
170
     0
171
     0
290
     0
174
     0
 93
        1
 44
0.0
173
     0
291
     0
 45
0.0
1001
ACAD
1000
AcDbSavedByObjectVersion
1070
     0
  0
VISUALSTYLE
  5
32
102
{ACAD_REACTORS
330
2A
102
}
330
2A
100
AcDbVisualStyle
  2
Basic
 70
     7
 71
     1
 72
     0
 73
     1
 90
        0
 40
-0.6
 41
-30.0
 62
     5
 63
     7
 74
     0
 91
        4
 64
     7
 65
   257
 75
     1
175
     1
 42
1.0
 92
        8
 66
     7
 43
1.0
 76
     1
 77
     6
 78
     2
 67
     7
 79
     5
170
     0
171
     0
290
     0
174
     0
 93
        1
 44
0.0
173
     0
291
     1
 45
0.0
1001
ACAD
1000
AcDbSavedByObjectVersion
1070
     0
  0
VISUALSTYLE
  5
36
102
{ACAD_REACTORS
330
2A
102
}
330
2A
100
AcDbVisualStyle
  2
Brighten
 70
    12
 71
     2
 72
     2
 73
     0
 90
        0
 40
-0.6
 41
-30.0
 62
     5
 63
     7
 74
     1
 91
        4
 64
     7
 65
   257
 75
     1
175
     1
 42
1.0
 92
        8
 66
     7
 43
1.0
 76
     1
 77
     6
 78
     2
 67
     7
 79
     5
170
     0
171
     0
290
     0
174
     0
 93
        1
 44
50.0
173
     0
291
     1
 45
0.0
1001
ACAD
1000
AcDbSavedByObjectVersion
1070
     0
  0
VISUALSTYLE
  5
3A
102
{ACAD_REACTORS
330
2A
102
}
330
2A
100
AcDbVisualStyle
  2
ColorChange
 70
    16
 71
     2
 72
     2
 73
     3
 90
        0
 40
-0.6
 41
-30.0
 62
     5
 63
     8
 74
     1
 91
        4
 64
     7
 65
   257
 75
     1
175
     1
 42
1.0
 92
        8
 66
     8
 43
1.0
 76
     1
 77
     6
 78
     2
 67
     7
 79
     5
170
     0
171
     0
290
     0
174
     0
 93
        1
 44
0.0
173
     0
291
     1
 45
0.0
1001
ACAD
1000
AcDbSavedByObjectVersion
1070
     0
  0
VISUALSTYLE
  5
34
102
{ACAD_REACTORS
330
2A
102
}
330
2A
100
AcDbVisualStyle
  2
Conceptual
 70
     9
 71
     3
 72
     2
 73
     0
 90
        0
 40
-0.6
 41
-30.0
 62
     5
 63
     7
 74
     2
 91
        2
 64
     7
 65
   257
 75
     1
175
     1
 42
40.0
 92
        8
 66
     7
 43
1.0
 76
     1
 77
     6
 78
     2
 67
     7
 79
     3
170
     0
171
     0
290
     0
174
     0
 93
        1
 44
0.0
173
     0
291
     0
 45
0.0
1001
ACAD
1000
AcDbSavedByObjectVersion
1070
     0
  0
VISUALSTYLE
  5
35
102
{ACAD_REACTORS
330
2A
102
}
330
2A
100
AcDbVisualStyle
  2
Dim
 70
    11
 71
     2
 72
     2
 73
     0
 90
        0
 40
-0.6
 41
-30.0
 62
     5
 63
     7
 74
     1
 91
        4
 64
     7
 65
   257
 75
     1
175
     1
 42
1.0
 92
        8
 66
     7
 43
1.0
 76
     1
 77
     6
 78
     2
 67
     7
 79
     5
170
     0
171
     0
290
     0
174
     0
 93
        1
 44
-50.0
173
     0
291
     1
 45
0.0
1001
ACAD
1000
AcDbSavedByObjectVersion
1070
     0
  0
VISUALSTYLE
  5
39
102
{ACAD_REACTORS
330
2A
102
}
330
2A
100
AcDbVisualStyle
  2
Facepattern
 70
    15
 71
     2
 72
     2
 73
     0
 90
        0
 40
-0.6
 41
-30.0
 62
     5
 63
     7
 74
     1
 91
        4
 64
     7
 65
   257
 75
     1
175
     1
 42
1.0
 92
        8
 66
     7
 43
1.0
 76
     1
 77
     6
 78
     2
 67
     7
 79
     5
170
     0
171
     0
290
     0
174
     0
 93
        1
 44
0.0
173
     0
291
     1
 45
0.0
1001
ACAD
1000
AcDbSavedByObjectVersion
1070
     0
  0
VISUALSTYLE
  5
2B
102
{ACAD_REACTORS
330
2A
102
}
330
2A
100
AcDbVisualStyle
  2
Flat
 70
     0
 71
     2
 72
     1
 73
     1
 90
        2
 40
-0.6
 41
30.0
 62
     5
 63
     7
 74
     0
 91
        4
 64
     7
 65
   257
 75
     1
175
     1
 42
1.0
 92
        8
 66
     7
 43
1.0
 76
     1
 77
     6
 78
     2
 67
     7
 79
     5
170
     0
171
     0
290
     0
174
     0
 93
       13
 44
0.0
173
     0
291
     1
 45
0.0
1001
ACAD
1000
AcDbSavedByObjectVersion
1070
     0
  0
VISUALSTYLE
  5
2C
102
{ACAD_REACTORS
330
2A
102
}
330
2A
100
AcDbVisualStyle
  2
FlatWithEdges
 70
     1
 71
     2
 72
     1
 73
     1
 90
        2
 40
-0.6
 41
30.0
 62
     5
 63
     7
 74
     1
 91
        4
 64
     7
 65
   257
 75
     1
175
     1
 42
1.0
 92
        0
 66
   257
 43
1.0
 76
     1
 77
     6
 78
     2
 67
     7
 79
     5
170
     0
171
     0
290
     0
174
     0
 93
       13
 44
0.0
173
     0
291
     1
 45
0.0
1001
ACAD
1000
AcDbSavedByObjectVersion
1070
     0
  0
VISUALSTYLE
  5
2D
102
{ACAD_REACTORS
330
2A
102
}
330
2A
100
AcDbVisualStyle
  2
Gouraud
 70
     2
 71
     2
 72
     2
 73
     1
 90
        2
 40
-0.6
 41
30.0
 62
     5
 63
     7
 74
     0
 91
        4
 64
     7
 65
   257
 75
     1
175
     1
 42
1.0
 92
        0
 66
     7
 43
1.0
 76
     1
 77
     6
 78
     2
 67
     7
 79
     5
170
     0
171
     0
290
     0
174
     0
 93
       13
 44
0.0
173
     0
291
     1
 45
0.0
1001
ACAD
1000
AcDbSavedByObjectVersion
1070
     0
  0
VISUALSTYLE
  5
2E
102
{ACAD_REACTORS
330
2A
102
}
330
2A
100
AcDbVisualStyle
  2
GouraudWithEdges
 70
     3
 71
     2
 72
     2
 73
     1
 90
        2
 40
-0.6
 41
30.0
 62
     5
 63
     7
 74
     1
 91
        4
 64
     7
 65
   257
 75
     1
175
     1
 42
1.0
 92
        0
 66
   257
 43
1.0
 76
     1
 77
     6
 78
     2
 67
     7
 79
     5
170
     0
171
     0
290
     0
174
     0
 93
       13
 44
0.0
173
     0
291
     1
 45
0.0
1001
ACAD
1000
AcDbSavedByObjectVersion
1070
     0
  0
VISUALSTYLE
  5
38
102
{ACAD_REACTORS
330
2A
102
}
330
2A
100
AcDbVisualStyle
  2
Linepattern
 70
    14
 71
     2
 72
     2
 73
     0
 90
        0
 40
-0.6
 41
-30.0
 62
     5
 63
     7
 74
     1
 91
        4
 64
     7
 65
   257
 75
     7
175
     7
 42
1.0
 92
        8
 66
     7
 43
1.0
 76
     1
 77
     6
 78
     2
 67
     7
 79
     5
170
     0
171
     0
290
     0
174
     0
 93
        1
 44
0.0
173
     0
291
     1
 45
0.0
1001
ACAD
1000
AcDbSavedByObjectVersion
1070
     0
  0
VISUALSTYLE
  5
33
102
{ACAD_REACTORS
330
2A
102
}
330
2A
100
AcDbVisualStyle
  2
Realistic
 70
     8
 71
     2
 72
     2
 73
     0
 90
        0
 40
-0.6
 41
-30.0
 62
     5
 63
     7
 74
     1
 91
        0
 64
     7
 65
   257
 75
     1
175
     1
 42
1.0
 92
        8
 66
     8
 43
1.0
 76
     1
 77
     6
 78
     2
 67
     7
 79
     5
170
     0
171
     0
290
     0
174
     0
 93
       13
 44
0.0
173
     0
291
     0
 45
0.0
1001
ACAD
1000
AcDbSavedByObjectVersion
1070
     0
  0
VISUALSTYLE
  5
37
102
{ACAD_REACTORS
330
2A
102
}
330
2A
100
AcDbVisualStyle
  2
Thicken
 70
    13
 71
     2
 72
     2
 73
     0
 90
        0
 40
-0.6
 41
-30.0
 62
     5
 63
     7
 74
     1
 91
        4
 64
     7
 65
   257
 75
     1
175
     1
 42
1.0
 92
       12
 66
     7
 43
1.0
 76
     1
 77
     6
 78
     2
 67
     7
 79
     5
170
     0
171
     0
290
     0
174
     0
 93
        1
 44
0.0
173
     0
291
     1
 45
0.0
1001
ACAD
1000
AcDbSavedByObjectVersion
1070
     0
  0
DICTIONARYVAR
  5
29B
102
{ACAD_REACTORS
330
296
102
}
330
296
100
DictionaryVariables
280
     0
  1
2
  0
DICTIONARYVAR
  5
29C
102
{ACAD_REACTORS
330
296
102
}
330
296
100
DictionaryVariables
280
     0
  1
1
  0
DICTIONARYVAR
  5
29A
102
{ACAD_REACTORS
330
296
102
}
330
296
100
DictionaryVariables
280
     0
  1
80.000000
  0
DICTIONARYVAR
  5
299
102
{ACAD_REACTORS
330
296
102
}
330
296
100
DictionaryVariables
280
     0
  1
5.000000
  0
ENDSEC
  0
EOF
