999
The file was created in CADSoftTools software
999
ABViewer 14; 
  0
SECTION
  2
HEADER
  9
$ACADVER
  1
AC1018
  9
$DWGCODEPAGE
  3
ANSI_1251
  9
$CLAYER
  8
0
  9
$CELTYPE
  6
BYLAYER
  9
$CELTSCALE
 40
1
  9
$CELWEIGHT
370
-1
  9
$DIMALT
 70
0
  9
$DIMALTF
 40
1
  9
$DIMPOST
  1

  9
$DIMAPOST
  1

  9
$DIMSCALE
 40
1
  9
$DIMASZ
 40
0.18
  9
$DIMCLRD
 70
0
  9
$DIMCLRE
 70
0
  9
$DIMCLRT
 70
0
  9
$DIMEXE
 40
0.18
  9
$DIMEXO
 40
0.0625
  9
$DIMGAP
 40
0.0625
  9
$DIMLFAC
 40
1
  9
$DIMDEC
 70
4
  9
$DIMTAD
 70
0
  9
$DIMCEN
 40
0.09
  9
$DIMTIH
 70
1
  9
$DIMTIX
 70
0
  9
$DIMTOH
 70
1
  9
$DIMSE1
 70
0
  9
$DIMSE2
 70
0
  9
$DIMSD1
 70
0
  9
$DIMSD2
 70
0
  9
$DIMLWD
 70
-1
  9
$DIMLWE
 70
-1
  9
$DIMSAH
 70
0
  9
$DIMBLK
  1

  9
$DIMBLK1
  1

  9
$DIMBLK2
  1

  9
$DIMLDRBLK
  1

  9
$DIMSTYLE
  2
STANDARD
  9
$DIMTP
 40
0
  9
$DIMTM
 40
0
  9
$DIMTXT
 40
0.18
  9
$DIMLUNIT
 70
2
  9
$DIMDSEP
 70
46
  9
$DIMTXSTY
  7
STANDARD
  9
$TEXTSIZE
 40
0.2
  9
$TEXTSTYLE
  7
STANDARD
  9
$HANDSEED
  5
0000000000000F46
  9
$FILLETRAD
 40
0.5
  9
$INSUNITS
 70
4
  9
$LIMMIN
 10
-427.309865682152
 20
0.0179194542295136
  9
$LIMMAX
 10
701.79741981923
 20
1467.82706336445
  9
$FILLMODE
 70
1
  9
$LTSCALE
 40
1
  9
$MEASUREMENT
 70
0
  9
$ATTMODE
 70
1
  9
$PDMODE
 70
0
  9
$PDSIZE
 40
0
  9
$TILEMODE
 70
1
  9
$UCSORG
 10
0
 20
0
 30
0
  9
$UCSXDIR
 10
1
 20
0
 30
0
  9
$UCSYDIR
 10
0
 20
1
 30
0
  9
$INSBASE
 10
0
 20
0
 30
0
  9
$XCLIPFRAME
290
1
  9
$DIMASSOC
280
2
  9
$TDCREATE
 40
2459669.81407172
  9
$TDINDWG
 40
0.000145150462962963
  9
$TDUPDATE
 40
2459669.81421687
  0
ENDSEC
  0
SECTION
  2
CLASSES
  0
CLASS
  1
IMAGE
  2
AcDbRasterImage
  3
ISM
 90
2175
 91
1
280
0
281
1
  0
CLASS
  1
IMAGEDEF
  2
AcDbRasterImageDef
  3
ISM
 90
0
 91
1
280
0
281
0
  0
CLASS
  1
WIPEOUT
  2
AcDbWipeout
  3
"WipeOut"
 90
2175
 91
1
280
0
281
1
  0
CLASS
  1
WIPEOUTVARIABLES
  2
AcDbWipeoutVariables
  3
"WipeOut"
 90
0
 91
1
280
0
281
0
  0
CLASS
  1
MPOLYGON
  2
AcDbMPolygon
  3
"AcMPolygonObj15"
 90
3071
 91
1
280
0
281
1
  0
ENDSEC
  0
SECTION
  2
TABLES
  0
TABLE
  2
APPID
  5
7ED
100
AcDbSymbolTable
  0
APPID
  5
7C1
100
AcDbSymbolTableRecord
100
AcDbRegAppTableRecord
  2
ACAD
 70
0
  0
APPID
  5
7D8
100
AcDbSymbolTableRecord
100
AcDbRegAppTableRecord
  2
CSTINVENTORY
 70
0
  0
APPID
  5
7EE
100
AcDbSymbolTableRecord
100
AcDbRegAppTableRecord
  2
AcDbAttr
 70
0
  0
APPID
  5
7EF
100
AcDbSymbolTableRecord
100
AcDbRegAppTableRecord
  2
PE_URL
 70
0
  0
ENDTAB
  0
TABLE
  2
BLOCK_RECORD
  5
7F0
100
AcDbSymbolTable
  0
BLOCK_RECORD
  5
7C3
100
AcDbSymbolTableRecord
100
AcDbBlockTableRecord
  2
*MODEL_SPACE
  0
BLOCK_RECORD
  5
7F1
100
AcDbSymbolTableRecord
100
AcDbBlockTableRecord
  2
*PAPER_SPACE
  0
BLOCK_RECORD
  5
7C2
100
AcDbSymbolTableRecord
100
AcDbBlockTableRecord
  2
*U0
  0
BLOCK_RECORD
  5
7D0
100
AcDbSymbolTableRecord
100
AcDbBlockTableRecord
  2
_CLOSEDFILLED
  0
BLOCK_RECORD
  5
7E4
100
AcDbSymbolTableRecord
100
AcDbBlockTableRecord
  2
ABViewer_RedLine
  0
ENDTAB
  0
TABLE
  2
STYLE
  5
7D4
100
AcDbSymbolTable
  0
STYLE
  5
7C4
100
AcDbSymbolTableRecord
100
AcDbTextStyleTableRecord
  2
STANDARD
 70
0
 40
0
 41
1
 50
0
 71
0
 42
0.200000002980232
  3
txt
  4

1001
ACAD
1000

1071
0
  0
ENDTAB
  0
TABLE
  2
LTYPE
  5
7D2
100
AcDbSymbolTable
  0
LTYPE
  5
7C5
100
AcDbSymbolTableRecord
100
AcDbLinetypeTableRecord
  2
CONTINUOUS
 70
0
  3

 72
65
 73
0
 40
0
  0
LTYPE
  5
7CA
100
AcDbSymbolTableRecord
100
AcDbLinetypeTableRecord
  2
BYLAYER
 70
0
  3

 72
65
 73
0
 40
0
  0
LTYPE
  5
7CB
100
AcDbSymbolTableRecord
100
AcDbLinetypeTableRecord
  2
BYBLOCK
 70
0
  3

 72
65
 73
0
 40
0
  0
LTYPE
  5
7E5
100
AcDbSymbolTableRecord
100
AcDbLinetypeTableRecord
  2
CENTER
 70
0
  3
_ _ 
 72
65
 73
4
 40
2
 49
1.25
 74
0
 49
-0.25
 74
0
 49
0.25
 74
0
 49
-0.25
 74
0
  0
LTYPE
  5
7E6
100
AcDbSymbolTableRecord
100
AcDbLinetypeTableRecord
  2
ISO dash
 70
0
  3
_ 
 72
65
 73
2
 40
1.5
 49
1.2
 74
0
 49
-0.3
 74
0
  0
LTYPE
  5
7E7
100
AcDbSymbolTableRecord
100
AcDbLinetypeTableRecord
  2
ISO dot
 70
0
  3
. 
 72
65
 73
2
 40
0.3
 49
0
 74
0
 49
-0.3
 74
0
  0
LTYPE
  5
7E8
100
AcDbSymbolTableRecord
100
AcDbLinetypeTableRecord
  2
ISO dash dot
 70
0
  3
_ . 
 72
65
 73
4
 40
1.8
 49
1.2
 74
0
 49
-0.3
 74
0
 49
0
 74
0
 49
-0.3
 74
0
  0
LTYPE
  5
7E9
100
AcDbSymbolTableRecord
100
AcDbLinetypeTableRecord
  2
ISO dash double-dot
 70
0
  3
_ . . 
 72
65
 73
6
 40
2.1
 49
1.2
 74
0
 49
-0.3
 74
0
 49
0
 74
0
 49
-0.3
 74
0
 49
0
 74
0
 49
-0.3
 74
0
  0
LTYPE
  5
7EA
100
AcDbSymbolTableRecord
100
AcDbLinetypeTableRecord
  2
ISO dash triple-dot
 70
0
  3
_ . . . 
 72
65
 73
8
 40
2.4
 49
1.2
 74
0
 49
-0.3
 74
0
 49
0
 74
0
 49
-0.3
 74
0
 49
0
 74
0
 49
-0.3
 74
0
 49
0
 74
0
 49
-0.3
 74
0
  0
LTYPE
  5
7EB
100
AcDbSymbolTableRecord
100
AcDbLinetypeTableRecord
  2
ISO dash long gaps
 70
0
  3
_ 
 72
65
 73
2
 40
3
 49
1.2
 74
0
 49
-1.8
 74
0
  0
ENDTAB
  0
TABLE
  2
LAYER
  5
7D3
100
AcDbSymbolTable
  0
LAYER
  5
7C6
100
AcDbSymbolTableRecord
100
AcDbLayerTableRecord
  2
0
 70
0
 62
7
  6
CONTINUOUS
290
1
370
-3
390
0
  0
LAYER
  5
7C7
100
AcDbSymbolTableRecord
100
AcDbLayerTableRecord
  2
LAYER_01
 70
0
 62
7
  6
CONTINUOUS
290
1
370
-3
390
0
  0
ENDTAB
  0
TABLE
  2
VPORT
  5
7F2
100
AcDbSymbolTable
  0
VPORT
  5
7F4
100
AcDbSymbolTableRecord
100
AcDbViewportTableRecord
  2
*ACTIVE
 70
0
 10
0
 20
0
 11
1
 21
1
 12
128.639961510411
 22
717.626334196549
 32
0
 13
0
 23
0
 14
1
 24
1
 15
1
 25
1
 16
0
 26
0
 36
1
 17
0
 27
0
 37
0
 40
1871.45665200914
 41
0.980411361410382
 42
50
 43
0
 44
0
 50
0
 51
0
 71
0
 72
100
 73
1
 74
1
 75
0
 76
0
 77
0
 78
0
  0
ENDTAB
  0
TABLE
  2
VIEW
  5
7F5
100
AcDbSymbolTable
  0
ENDTAB
  0
TABLE
  2
UCS
  5
7F6
100
AcDbSymbolTable
  0
ENDTAB
  0
TABLE
  2
DIMSTYLE
  5
7D5
100
AcDbSymbolTable
 70
1
100
AcDbDimStyleTable
 71
0
  0
DIMSTYLE
105
7CC
100
AcDbSymbolTableRecord
100
AcDbDimStyleTableRecord
  2
STANDARD
 70
0
  3

 40
1
 41
0.18
 42
0.0625
 44
0.18
 47
0
 48
0
 73
1
 74
1
 75
0
 76
0
 77
0
140
0.18
141
0.09
144
1
147
0.0625
173
0
174
0
176
0
177
0
178
0
277
2
278
46
281
0
282
0
271
4
340
7C4
371
-1
372
-1
  0
ENDTAB
  0
ENDSEC
  0
SECTION
  2
BLOCKS
  0
BLOCK
  5
7F7
100
AcDbEntity
  8
0
100
AcDbBlockBegin
  2
*MODEL_SPACE
 70
0
 10
0
 20
0
  0
ENDBLK
  5
7F8
100
AcDbEntity
  8
0
100
AcDbBlockEnd
  0
BLOCK
  5
7F9
100
AcDbEntity
  8
0
100
AcDbBlockBegin
  2
*PAPER_SPACE
 70
0
 10
0
 20
0
  0
ENDBLK
  5
7FA
100
AcDbEntity
  8
0
100
AcDbBlockEnd
  0
BLOCK
  5
24
100
AcDbEntity
  8
0
100
AcDbBlockBegin
  2
*U0
 70
0
 10
0
 20
0
 30
0
  3
*U0
  1

  0
ENDBLK
  5
7FB
100
AcDbEntity
  8
0
100
AcDbBlockEnd
  0
BLOCK
  5
7CF
100
AcDbEntity
  8
0
100
AcDbBlockBegin
  2
_CLOSEDFILLED
 70
0
 10
0
 20
0
 30
0
  3
_CLOSEDFILLED
  1

  0
SOLID
  5
7CD
100
AcDbEntity
  8
0
100
AcDbTrace
370
-2
 62
0
 10
-1
 20
0.166666666666667
 30
0
 11
0
 21
0
 31
0
 12
-1
 22
0.166666666666667
 32
0
 13
-1
 23
-0.166666666666667
 33
0
  0
LINE
  5
7CE
100
AcDbEntity
  8
0
100
AcDbLine
370
-2
 62
0
 10
-1
 20
0
 30
0
 11
-2
 21
0
 31
0
  0
ENDBLK
  5
7FC
100
AcDbEntity
  8
0
100
AcDbBlockEnd
  0
BLOCK
  5
7E3
100
AcDbEntity
  8
0
100
AcDbBlockBegin
  2
ABViewer_RedLine
 70
0
 10
0
 20
0
 30
0
  3
ABViewer_RedLine
  1

  0
ENDBLK
  5
7FD
100
AcDbEntity
  8
0
100
AcDbBlockEnd
  0
ENDSEC
  0
SECTION
  2
ENTITIES
  0
CIRCLE
  5
6B
100
AcDbEntity
  8
LAYER_01
100
AcDbCircle
370
-1
  6
BYLAYER
 10
-157.584271863785
 20
573.677169816983
 30
0
 40
6.78787304840467
  0
CIRCLE
  5
6C
100
AcDbEntity
  8
LAYER_01
100
AcDbCircle
370
-1
  6
BYLAYER
 10
-292.575536049294
 20
953.856648543518
 30
0
 40
6.78787304840467
  0
POLYLINE
  5
6D
100
AcDbEntity
  8
LAYER_01
100
AcDb3dPolyline
370
-1
  6
BYLAYER
 66
1
 10
0
 20
0
 30
0
 70
0
 40
0
 41
0
  0
VERTEX
  5
7FE
100
AcDbEntity
  8
LAYER_01
100
AcDbVertex
  6
BYLAYER
100
AcDb3dPolylineVertex
 10
34.2592978844315
 20
768.39280679163
 30
8.70012953243049E-15
 70
0
  0
VERTEX
  5
7FF
100
AcDbEntity
  8
LAYER_01
100
AcDbVertex
  6
BYLAYER
100
AcDb3dPolylineVertex
 10
35.1041161147339
 20
767.356832186571
 30
8.71248748281148E-15
 70
0
  0
VERTEX
  5
800
100
AcDbEntity
  8
LAYER_01
100
AcDbVertex
  6
BYLAYER
100
AcDb3dPolylineVertex
 10
35.9076826790946
 20
766.30709457991
 30
8.7137065907863E-15
 70
0
  0
VERTEX
  5
801
100
AcDbEntity
  8
LAYER_01
100
AcDbVertex
  6
BYLAYER
100
AcDb3dPolylineVertex
 10
36.6701217937651
 20
765.245684421442
 30
8.70415586894287E-15
 70
0
  0
VERTEX
  5
802
100
AcDbEntity
  8
LAYER_01
100
AcDbVertex
  6
BYLAYER
100
AcDb3dPolylineVertex
 10
37.3916784576116
 20
764.174634183206
 30
8.6842208538057E-15
 70
0
  0
VERTEX
  5
803
100
AcDbEntity
  8
LAYER_01
100
AcDbVertex
  6
BYLAYER
100
AcDb3dPolylineVertex
 10
37.9091044834259
 20
763.361573813834
 30
8.68457623692072E-15
 70
0
  0
VERTEX
  5
804
100
AcDbEntity
  8
LAYER_01
100
AcDbVertex
  6
BYLAYER
100
AcDb3dPolylineVertex
 10
38.4126713731254
 20
762.529711491335
 30
8.68503868006513E-15
 70
0
  0
VERTEX
  5
805
100
AcDbEntity
  8
LAYER_01
100
AcDbVertex
  6
BYLAYER
100
AcDb3dPolylineVertex
 10
38.9015629465456
 20
761.679274906423
 30
8.68561065299399E-15
 70
0
  0
VERTEX
  5
806
100
AcDbEntity
  8
LAYER_01
100
AcDbVertex
  6
BYLAYER
100
AcDb3dPolylineVertex
 10
39.3749600942359
 20
760.81053285233
 30
8.68629451859288E-15
 70
0
  0
VERTEX
  5
807
100
AcDbEntity
  8
LAYER_01
100
AcDbVertex
  6
BYLAYER
100
AcDb3dPolylineVertex
 10
39.8320430945175
 20
759.92379623258
 30
8.68709252111424E-15
 70
0
  0
VERTEX
  5
808
100
AcDbEntity
  8
LAYER_01
100
AcDbVertex
  6
BYLAYER
100
AcDb3dPolylineVertex
 10
40.2719940546619
 20
759.019418931417
 30
8.68800677433338E-15
 70
0
  0
VERTEX
  5
809
100
AcDbEntity
  8
LAYER_01
100
AcDbVertex
  6
BYLAYER
100
AcDb3dPolylineVertex
 10
40.6939994681525
 20
758.097798533013
 30
8.68903924969451E-15
 70
0
  0
VERTEX
  5
80A
100
AcDbEntity
  8
LAYER_01
100
AcDbVertex
  6
BYLAYER
100
AcDb3dPolylineVertex
 10
41.0972528784458
 20
757.159376875973
 30
8.69019176452241E-15
 70
0
  0
VERTEX
  5
80B
100
AcDbEntity
  8
LAYER_01
100
AcDbVertex
  6
BYLAYER
100
AcDb3dPolylineVertex
 10
41.480957638094
 20
756.204640430115
 30
8.69146597037959E-15
 70
0
  0
VERTEX
  5
80C
100
AcDbEntity
  8
LAYER_01
100
AcDbVertex
  6
BYLAYER
100
AcDb3dPolylineVertex
 10
41.8443297505458
 20
755.234120483271
 30
8.6928633416529E-15
 70
0
  0
VERTEX
  5
80D
100
AcDbEntity
  8
LAYER_01
100
AcDbVertex
  6
BYLAYER
100
AcDb3dPolylineVertex
 10
42.1866007804273
 20
754.24839312669
 30
8.69438516445648E-15
 70
0
  0
VERTEX
  5
80E
100
AcDbEntity
  8
LAYER_01
100
AcDbVertex
  6
BYLAYER
100
AcDb3dPolylineVertex
 10
42.5070208166477
 20
753.248079028755
 30
8.69603252594082E-15
 70
0
  0
VERTEX
  5
80F
100
AcDbEntity
  8
LAYER_01
100
AcDbVertex
  6
BYLAYER
100
AcDb3dPolylineVertex
 10
42.8048614712953
 20
752.233842987971
 30
8.69780630409884E-15
 70
0
  0
VERTEX
  5
810
100
AcDbEntity
  8
LAYER_01
100
AcDbVertex
  6
BYLAYER
100
AcDb3dPolylineVertex
 10
43.0794188960203
 20
751.206393257645
 30
8.69970715816098E-15
 70
0
  0
VERTEX
  5
811
100
AcDbEntity
  8
LAYER_01
100
AcDbVertex
  6
BYLAYER
100
AcDb3dPolylineVertex
 10
43.3300167964578
 20
750.166480636332
 30
8.7017355196707E-15
 70
0
  0
VERTEX
  5
812
100
AcDbEntity
  8
LAYER_01
100
AcDbVertex
  6
BYLAYER
100
AcDb3dPolylineVertex
 10
43.5560094242668
 20
749.114897319903
 30
8.70389158433052E-15
 70
0
  0
VERTEX
  5
813
100
AcDbEntity
  8
LAYER_01
100
AcDbVertex
  6
BYLAYER
100
AcDb3dPolylineVertex
 10
43.7567845255574
 20
748.052475513042
 30
8.70617530470599E-15
 70
0
  0
VERTEX
  5
814
100
AcDbEntity
  8
LAYER_01
100
AcDbVertex
  6
BYLAYER
100
AcDb3dPolylineVertex
 10
43.9317662238838
 20
746.980085800093
 30
8.70858638387162E-15
 70
0
  0
VERTEX
  5
815
100
AcDbEntity
  8
LAYER_01
100
AcDbVertex
  6
BYLAYER
100
AcDb3dPolylineVertex
 10
44.0804178156116
 20
745.898635277328
 30
8.71112427007743E-15
 70
0
  0
VERTEX
  5
816
100
AcDbEntity
  8
LAYER_01
100
AcDbVertex
  6
BYLAYER
100
AcDb3dPolylineVertex
 10
44.2022444553396
 20
744.809065451005
 30
8.71378815250927E-15
 70
0
  0
VERTEX
  5
817
100
AcDbEntity
  8
LAYER_01
100
AcDbVertex
  6
BYLAYER
100
AcDb3dPolylineVertex
 10
44.2967957091894
 20
743.712349907919
 30
8.7165769582084E-15
 70
0
  0
VERTEX
  5
818
100
AcDbEntity
  8
LAYER_01
100
AcDbVertex
  6
BYLAYER
100
AcDb3dPolylineVertex
 10
44.3636679541755
 20
742.60949176746
 30
8.71948935020794E-15
 70
0
  0
VERTEX
  5
819
100
AcDbEntity
  8
LAYER_01
100
AcDbVertex
  6
BYLAYER
100
AcDb3dPolylineVertex
 10
44.4025066025431
 20
741.501520926568
 30
8.72252372693413E-15
 70
0
  0
VERTEX
  5
81A
100
AcDbEntity
  8
LAYER_01
100
AcDbVertex
  6
BYLAYER
100
AcDb3dPolylineVertex
 10
44.4130081309178
 20
740.389491111223
 30
8.72567822291055E-15
 70
0
  0
VERTEX
  5
81B
100
AcDbEntity
  8
LAYER_01
100
AcDbVertex
  6
BYLAYER
100
AcDb3dPolylineVertex
 10
44.394921895333
 20
739.274476750344
 30
8.72895071079203E-15
 70
0
  0
VERTEX
  5
81C
100
AcDbEntity
  8
LAYER_01
100
AcDbVertex
  6
BYLAYER
100
AcDb3dPolylineVertex
 10
44.3480517146978
 20
738.157569690003
 30
8.73233880474353E-15
 70
0
  0
VERTEX
  5
81D
100
AcDbEntity
  8
LAYER_01
100
AcDbVertex
  6
BYLAYER
100
AcDb3dPolylineVertex
 10
44.2722572070093
 20
737.039875767838
 30
8.73583986516715E-15
 70
0
  0
VERTEX
  5
81E
100
AcDbEntity
  8
LAYER_01
100
AcDbVertex
  6
BYLAYER
100
AcDb3dPolylineVertex
 10
44.1674548645951
 20
735.922511269235
 30
8.73945100476748E-15
 70
0
  0
VERTEX
  5
81F
100
AcDbEntity
  8
LAYER_01
100
AcDbVertex
  6
BYLAYER
100
AcDb3dPolylineVertex
 10
44.0336188568561
 20
734.806599288381
 30
8.7431690959333E-15
 70
0
  0
VERTEX
  5
820
100
AcDbEntity
  8
LAYER_01
100
AcDbVertex
  6
BYLAYER
100
AcDb3dPolylineVertex
 10
43.8707815513509
 20
733.69326601857
 30
8.74699077940057E-15
 70
0
  0
VERTEX
  5
821
100
AcDbEntity
  8
LAYER_01
100
AcDbVertex
  6
BYLAYER
100
AcDb3dPolylineVertex
 10
43.6790337465845
 20
732.58363699709
 30
8.75091247414929E-15
 70
0
  0
VERTEX
  5
822
100
AcDbEntity
  8
LAYER_01
100
AcDbVertex
  6
BYLAYER
100
AcDb3dPolylineVertex
 10
43.4585246124941
 20
731.478833330762
 30
8.75493038847472E-15
 70
0
  0
VERTEX
  5
823
100
AcDbEntity
  8
LAYER_01
100
AcDbVertex
  6
BYLAYER
100
AcDb3dPolylineVertex
 10
43.2094613373387
 20
730.379967928578
 30
8.75904053216196E-15
 70
0
  0
VERTEX
  5
824
100
AcDbEntity
  8
LAYER_01
100
AcDbVertex
  6
BYLAYER
100
AcDb3dPolylineVertex
 10
42.932108482442
 20
729.288141767931
 30
8.76323872968213E-15
 70
0
  0
VERTEX
  5
825
100
AcDbEntity
  8
LAYER_01
100
AcDbVertex
  6
BYLAYER
100
AcDb3dPolylineVertex
 10
42.6267870489814
 20
728.204440220748
 30
8.76752063431869E-15
 70
0
  0
VERTEX
  5
826
100
AcDbEntity
  8
LAYER_01
100
AcDbVertex
  6
BYLAYER
100
AcDb3dPolylineVertex
 10
42.2938732637088
 20
727.129929465209
 30
8.77188174312352E-15
 70
0
  0
VERTEX
  5
827
100
AcDbEntity
  8
LAYER_01
100
AcDbVertex
  6
BYLAYER
100
AcDb3dPolylineVertex
 10
41.9337970930981
 20
726.065653007918
 30
8.77631741259525E-15
 70
0
  0
VERTEX
  5
828
100
AcDbEntity
  8
LAYER_01
100
AcDbVertex
  6
BYLAYER
100
AcDb3dPolylineVertex
 10
41.5470404978958
 20
725.012628340198
 30
8.78082287496576E-15
 70
0
  0
VERTEX
  5
829
100
AcDbEntity
  8
LAYER_01
100
AcDbVertex
  6
BYLAYER
100
AcDb3dPolylineVertex
 10
41.1341354423706
 20
723.971843750763
 30
8.78539325497634E-15
 70
0
  0
VERTEX
  5
82A
100
AcDbEntity
  8
LAYER_01
100
AcDbVertex
  6
BYLAYER
100
AcDb3dPolylineVertex
 10
40.6956616746868
 20
722.944255315326
 30
8.79002358702159E-15
 70
0
  0
VERTEX
  5
82B
100
AcDbEntity
  8
LAYER_01
100
AcDbVertex
  6
BYLAYER
100
AcDb3dPolylineVertex
 10
40.2322442967225
 20
721.930784081786
 30
8.79470883253729E-15
 70
0
  0
VERTEX
  5
82C
100
AcDbEntity
  8
LAYER_01
100
AcDbVertex
  6
BYLAYER
100
AcDb3dPolylineVertex
 10
39.7445511433129
 20
720.932313467543
 30
8.79944389750825E-15
 70
0
  0
VERTEX
  5
82D
100
AcDbEntity
  8
LAYER_01
100
AcDbVertex
  6
BYLAYER
100
AcDb3dPolylineVertex
 10
39.2332899922792
 20
719.949686883248
 30
8.80422364997338E-15
 70
0
  0
VERTEX
  5
82E
100
AcDbEntity
  8
LAYER_01
100
AcDbVertex
  6
BYLAYER
100
AcDb3dPolylineVertex
 10
38.6992056277079
 20
718.983705594893
 30
8.80904293740768E-15
 70
0
  0
VERTEX
  5
82F
100
AcDbEntity
  8
LAYER_01
100
AcDbVertex
  6
BYLAYER
100
AcDb3dPolylineVertex
 10
38.1430767797606
 20
718.035126833702
 30
8.81389660386485E-15
 70
0
  0
VERTEX
  5
830
100
AcDbEntity
  8
LAYER_01
100
AcDbVertex
  6
BYLAYER
100
AcDb3dPolylineVertex
 10
37.565712964806
 20
717.104662160821
 30
8.81877950676955E-15
 70
0
  0
VERTEX
  5
831
100
AcDbEntity
  8
LAYER_01
100
AcDbVertex
  6
BYLAYER
100
AcDb3dPolylineVertex
 10
36.9679512498954
 20
716.192976091234
 30
8.82368653325436E-15
 70
0
  0
VERTEX
  5
832
100
AcDbEntity
  8
LAYER_01
100
AcDbVertex
  6
BYLAYER
100
AcDb3dPolylineVertex
 10
36.3506529655415
 20
715.300684978932
 30
8.82861261594418E-15
 70
0
  0
VERTEX
  5
833
100
AcDbEntity
  8
LAYER_01
100
AcDbVertex
  6
BYLAYER
100
AcDb3dPolylineVertex
 10
35.7147003904256
 20
714.428356162917
 30
8.83355274809868E-15
 70
0
  0
VERTEX
  5
834
100
AcDbEntity
  8
LAYER_01
100
AcDbVertex
  6
BYLAYER
100
AcDb3dPolylineVertex
 10
35.060993431068
 20
713.576507371318
 30
8.83850199803252E-15
 70
0
  0
VERTEX
  5
835
100
AcDbEntity
  8
LAYER_01
100
AcDbVertex
  6
BYLAYER
100
AcDb3dPolylineVertex
 10
34.3904463186683
 20
712.745606378737
 30
8.84345552274235E-15
 70
0
  0
VERTEX
  5
836
100
AcDbEntity
  8
LAYER_01
100
AcDbVertex
  6
BYLAYER
100
AcDb3dPolylineVertex
 10
33.7039843442752
 20
711.936070909899
 30
8.84840858067958E-15
 70
0
  0
VERTEX
  5
837
100
AcDbEntity
  8
LAYER_01
100
AcDbVertex
  6
BYLAYER
100
AcDb3dPolylineVertex
 10
33.0025406522183
 20
711.148268780802
 30
8.85335654361776E-15
 70
0
  0
VERTEX
  5
838
100
AcDbEntity
  8
LAYER_01
100
AcDbVertex
  6
BYLAYER
100
AcDb3dPolylineVertex
 10
32.2870531103324
 20
710.382518266946
 30
8.85829490757371E-15
 70
0
  0
VERTEX
  5
839
100
AcDbEntity
  8
LAYER_01
100
AcDbVertex
  6
BYLAYER
100
AcDb3dPolylineVertex
 10
31.5584612739823
 20
709.639088686691
 30
8.86321930275168E-15
 70
0
  0
VERTEX
  5
83A
100
AcDbEntity
  8
LAYER_01
100
AcDbVertex
  6
BYLAYER
100
AcDb3dPolylineVertex
 10
30.8177034592556
 20
708.91820118659
 30
8.86812550248932E-15
 70
0
  0
VERTEX
  5
83B
100
AcDbEntity
  8
LAYER_01
100
AcDbVertex
  6
BYLAYER
100
AcDb3dPolylineVertex
 10
30.065713938987
 20
708.220029714447
 30
8.87300943119426E-15
 70
0
  0
VERTEX
  5
83C
100
AcDbEntity
  8
LAYER_01
100
AcDbVertex
  6
BYLAYER
100
AcDb3dPolylineVertex
 10
29.3034202735123
 20
707.544702165079
 30
8.87786717126891E-15
 70
0
  0
VERTEX
  5
83D
100
AcDbEntity
  8
LAYER_01
100
AcDbVertex
  6
BYLAYER
100
AcDb3dPolylineVertex
 10
28.5317407862752
 20
706.892301683085
 30
8.88269496902972E-15
 70
0
  0
VERTEX
  5
83E
100
AcDbEntity
  8
LAYER_01
100
AcDbVertex
  6
BYLAYER
100
AcDb3dPolylineVertex
 10
27.7515821926294
 20
706.262868106566
 30
8.88748923963522E-15
 70
0
  0
VERTEX
  5
83F
100
AcDbEntity
  8
LAYER_01
100
AcDbVertex
  6
BYLAYER
100
AcDb3dPolylineVertex
 10
26.9638373884301
 20
705.656399535486
 30
8.89224657104438E-15
 70
0
  0
VERTEX
  5
840
100
AcDbEntity
  8
LAYER_01
100
AcDbVertex
  6
BYLAYER
100
AcDb3dPolylineVertex
 10
26.1693834033073
 20
705.072854008351
 30
8.89696372703345E-15
 70
0
  0
VERTEX
  5
841
100
AcDbEntity
  8
LAYER_01
100
AcDbVertex
  6
BYLAYER
100
AcDb3dPolylineVertex
 10
25.3690795218754
 20
704.512151271045
 30
8.90163764930536E-15
 70
0
  0
VERTEX
  5
842
100
AcDbEntity
  8
LAYER_01
100
AcDbVertex
  6
BYLAYER
100
AcDb3dPolylineVertex
 10
24.5637655745818
 20
703.974174621906
 30
8.90626545873073E-15
 70
0
  0
VERTEX
  5
843
100
AcDbEntity
  8
LAYER_01
100
AcDbVertex
  6
BYLAYER
100
AcDb3dPolylineVertex
 10
23.7467657870171
 20
703.454116618726
 30
8.91205854706271E-15
 70
0
  0
VERTEX
  5
844
100
AcDbEntity
  8
LAYER_01
100
AcDbVertex
  6
BYLAYER
100
AcDb3dPolylineVertex
 10
22.9109888474976
 20
702.947806131962
 30
8.91782506104729E-15
 70
0
  0
VERTEX
  5
845
100
AcDbEntity
  8
LAYER_01
100
AcDbVertex
  6
BYLAYER
100
AcDb3dPolylineVertex
 10
22.0566665623813
 20
702.456058759211
 30
8.9235592053579E-15
 70
0
  0
VERTEX
  5
846
100
AcDbEntity
  8
LAYER_01
100
AcDbVertex
  6
BYLAYER
100
AcDb3dPolylineVertex
 10
21.1840719354208
 20
701.97969320606
 30
8.9292550362088E-15
 70
0
  0
VERTEX
  5
847
100
AcDbEntity
  8
LAYER_01
100
AcDbVertex
  6
BYLAYER
100
AcDb3dPolylineVertex
 10
20.2935201671428
 20
701.519528978104
 30
8.9349064725656E-15
 70
0
  0
VERTEX
  5
848
100
AcDbEntity
  8
LAYER_01
100
AcDbVertex
  6
BYLAYER
100
AcDb3dPolylineVertex
 10
19.3853695160471
 20
701.076383948473
 30
8.9405073085626E-15
 70
0
  0
VERTEX
  5
849
100
AcDbEntity
  8
LAYER_01
100
AcDbVertex
  6
BYLAYER
100
AcDb3dPolylineVertex
 10
18.4600220077757
 20
700.65107180883
 30
8.94605122712097E-15
 70
0
  0
VERTEX
  5
84A
100
AcDbEntity
  8
LAYER_01
100
AcDbVertex
  6
BYLAYER
100
AcDb3dPolylineVertex
 10
17.5179239787582
 20
700.244399413333
 30
8.95153181475091E-15
 70
0
  0
VERTEX
  5
84B
100
AcDbEntity
  8
LAYER_01
100
AcDbVertex
  6
BYLAYER
100
AcDb3dPolylineVertex
 10
16.5595664413666
 20
699.857164026629
 30
8.95694257750978E-15
 70
0
  0
VERTEX
  5
84C
100
AcDbEntity
  8
LAYER_01
100
AcDbVertex
  6
BYLAYER
100
AcDb3dPolylineVertex
 10
15.5854852583274
 20
699.490150488479
 30
8.96227695807626E-15
 70
0
  0
VERTEX
  5
84D
100
AcDbEntity
  8
LAYER_01
100
AcDbVertex
  6
BYLAYER
100
AcDb3dPolylineVertex
 10
14.5962611150403
 20
699.144128309136
 30
8.96752835388846E-15
 70
0
  0
VERTEX
  5
84E
100
AcDbEntity
  8
LAYER_01
100
AcDbVertex
  6
BYLAYER
100
AcDb3dPolylineVertex
 10
13.592519279546
 20
698.819848711048
 30
8.97269013628113E-15
 70
0
  0
VERTEX
  5
84F
100
AcDbEntity
  8
LAYER_01
100
AcDbVertex
  6
BYLAYER
100
AcDb3dPolylineVertex
 10
12.5749291411657
 20
698.51804163385
 30
8.97775567054487E-15
 70
0
  0
VERTEX
  5
850
100
AcDbEntity
  8
LAYER_01
100
AcDbVertex
  6
BYLAYER
100
AcDb3dPolylineVertex
 10
11.5442035203071
 20
698.239412720889
 30
8.98271833681759E-15
 70
0
  0
VERTEX
  5
851
100
AcDbEntity
  8
LAYER_01
100
AcDbVertex
  6
BYLAYER
100
AcDb3dPolylineVertex
 10
10.5010977435713
 20
697.984640306638
 30
8.98757155170594E-15
 70
0
  0
VERTEX
  5
852
100
AcDbEntity
  8
LAYER_01
100
AcDbVertex
  6
BYLAYER
100
AcDb3dPolylineVertex
 10
9.44640848010919
 20
697.754372425392
 30
8.99230879052308E-15
 70
0
  0
VERTEX
  5
853
100
AcDbEntity
  8
LAYER_01
100
AcDbVertex
  6
BYLAYER
100
AcDb3dPolylineVertex
 10
8.38097233713314
 20
697.549223862406
 30
8.99692361001756E-15
 70
0
  0
VERTEX
  5
854
100
AcDbEntity
  8
LAYER_01
100
AcDbVertex
  6
BYLAYER
100
AcDb3dPolylineVertex
 10
7.30566421458175
 20
697.36977326926
 30
9.0014096714582E-15
 70
0
  0
VERTEX
  5
855
100
AcDbEntity
  8
LAYER_01
100
AcDbVertex
  6
BYLAYER
100
AcDb3dPolylineVertex
 10
6.22139542113176
 20
697.216560365604
 30
9.00576076393007E-15
 70
0
  0
VERTEX
  5
856
100
AcDbEntity
  8
LAYER_01
100
AcDbVertex
  6
BYLAYER
100
AcDb3dPolylineVertex
 10
5.12911155603024
 20
697.090083249583
 30
9.00997082768935E-15
 70
0
  0
VERTEX
  5
857
100
AcDbEntity
  8
LAYER_01
100
AcDbVertex
  6
BYLAYER
100
AcDb3dPolylineVertex
 10
4.02979016354969
 20
696.990795839114
 30
9.01403397741758E-15
 70
0
  0
VERTEX
  5
858
100
AcDbEntity
  8
LAYER_01
100
AcDbVertex
  6
BYLAYER
100
AcDb3dPolylineVertex
 10
2.92443816921845
 20
696.919105465796
 30
9.0179445252116E-15
 70
0
  0
VERTEX
  5
859
100
AcDbEntity
  8
LAYER_01
100
AcDbVertex
  6
BYLAYER
100
AcDb3dPolylineVertex
 10
1.81408910931343
 20
696.875370642584
 30
9.02169700314156E-15
 70
0
  0
VERTEX
  5
85A
100
AcDbEntity
  8
LAYER_01
100
AcDbVertex
  6
BYLAYER
100
AcDb3dPolylineVertex
 10
0.699800167387078
 20
696.859899025393
 30
9.02528618520866E-15
 70
0
  0
VERTEX
  5
85B
100
AcDbEntity
  8
LAYER_01
100
AcDbVertex
  6
BYLAYER
100
AcDb3dPolylineVertex
 10
-0.417350966200847
 20
696.87294558761
 30
9.02870710853457E-15
 70
0
  0
VERTEX
  5
85C
100
AcDbEntity
  8
LAYER_01
100
AcDbVertex
  6
BYLAYER
100
AcDb3dPolylineVertex
 10
-1.53626939369972
 20
696.914711024991
 30
9.03195509361738E-15
 70
0
  0
VERTEX
  5
85D
100
AcDbEntity
  8
LAYER_01
100
AcDbVertex
  6
BYLAYER
100
AcDb3dPolylineVertex
 10
-2.65584644836715
 20
696.985340406705
 30
9.03502576349346E-15
 70
0
  0
VERTEX
  5
85E
100
AcDbEntity
  8
LAYER_01
100
AcDbVertex
  6
BYLAYER
100
AcDb3dPolylineVertex
 10
-3.77496325015726
 20
697.084922086294
 30
9.03791506165173E-15
 70
0
  0
VERTEX
  5
85F
100
AcDbEntity
  8
LAYER_01
100
AcDbVertex
  6
BYLAYER
100
AcDb3dPolylineVertex
 10
-4.89249435549969
 20
697.213486884181
 30
9.04061926855526E-15
 70
0
  0
VERTEX
  5
860
100
AcDbEntity
  8
LAYER_01
100
AcDbVertex
  6
BYLAYER
100
AcDb3dPolylineVertex
 10
-6.0073114767153
 20
697.371007550957
 30
9.04313501663628E-15
 70
0
  0
VERTEX
  5
861
100
AcDbEntity
  8
LAYER_01
100
AcDbVertex
  6
BYLAYER
100
AcDb3dPolylineVertex
 10
-7.11828724563396
 20
697.557398518197
 30
9.04545930364282E-15
 70
0
  0
VERTEX
  5
862
100
AcDbEntity
  8
LAYER_01
100
AcDbVertex
  6
BYLAYER
100
AcDb3dPolylineVertex
 10
-8.22429899529204
 20
697.772515940919
 30
9.04758950422958E-15
 70
0
  0
VERTEX
  5
863
100
AcDbEntity
  8
LAYER_01
100
AcDbVertex
  6
BYLAYER
100
AcDb3dPolylineVertex
 10
-9.32423253320754
 20
698.016158033084
 30
9.04952337970116E-15
 70
0
  0
VERTEX
  5
864
100
AcDbEntity
  8
LAYER_01
100
AcDbVertex
  6
BYLAYER
100
AcDb3dPolylineVertex
 10
-10.4169858796681
 20
698.288065694832
 30
9.05125908583275E-15
 70
0
  0
VERTEX
  5
865
100
AcDbEntity
  8
LAYER_01
100
AcDbVertex
  6
BYLAYER
100
AcDb3dPolylineVertex
 10
-11.5014729447234
 20
698.587923427366
 30
9.05279517871082E-15
 70
0
  0
VERTEX
  5
866
100
AcDbEntity
  8
LAYER_01
100
AcDbVertex
  6
BYLAYER
100
AcDb3dPolylineVertex
 10
-12.5766271181471
 20
698.915360528736
 30
9.05413061855546E-15
 70
0
  0
VERTEX
  5
867
100
AcDbEntity
  8
LAYER_01
100
AcDbVertex
  6
BYLAYER
100
AcDb3dPolylineVertex
 10
-13.641404747516
 20
699.269952561166
 30
9.05526477150438E-15
 70
0
  0
VERTEX
  5
868
100
AcDbEntity
  8
LAYER_01
100
AcDbVertex
  6
BYLAYER
100
AcDb3dPolylineVertex
 10
-14.6947884807291
 20
699.651223078057
 30
9.05619740935813E-15
 70
0
  0
VERTEX
  5
869
100
AcDbEntity
  8
LAYER_01
100
AcDbVertex
  6
BYLAYER
100
AcDb3dPolylineVertex
 10
-15.7357904507395
 20
700.058645596519
 30
9.05692870730487E-15
 70
0
  0
VERTEX
  5
86A
100
AcDbEntity
  8
LAYER_01
100
AcDbVertex
  6
BYLAYER
100
AcDb3dPolylineVertex
 10
-16.7634552819754
 20
700.491645799124
 30
9.05745923966161E-15
 70
0
  0
VERTEX
  5
86B
100
AcDbEntity
  8
LAYER_01
100
AcDbVertex
  6
BYLAYER
100
AcDb3dPolylineVertex
 10
-17.776862899844
 20
700.949603946672
 30
9.0577899736868E-15
 70
0
  0
VERTEX
  5
86C
100
AcDbEntity
  8
LAYER_01
100
AcDbVertex
  6
BYLAYER
100
AcDb3dPolylineVertex
 10
-18.7751311268275
 20
701.431857482114
 30
9.05792226153594E-15
 70
0
  0
VERTEX
  5
86D
100
AcDbEntity
  8
LAYER_01
100
AcDbVertex
  6
BYLAYER
100
AcDb3dPolylineVertex
 10
-19.7574180509448
 20
701.937703804372
 30
9.05785783044782E-15
 70
0
  0
VERTEX
  5
86E
100
AcDbEntity
  8
LAYER_01
100
AcDbVertex
  6
BYLAYER
100
AcDb3dPolylineVertex
 10
-20.7229241547359
 20
702.46640318969
 30
9.05759877126308E-15
 70
0
  0
VERTEX
  5
86F
100
AcDbEntity
  8
LAYER_01
100
AcDbVertex
  6
BYLAYER
100
AcDb3dPolylineVertex
 10
-21.6708941953893
 20
703.017181837323
 30
9.0571475253901E-15
 70
0
  0
VERTEX
  5
870
100
AcDbEntity
  8
LAYER_01
100
AcDbVertex
  6
BYLAYER
100
AcDb3dPolylineVertex
 10
-22.6006188291361
 20
703.589235015851
 30
9.05650687034371E-15
 70
0
  0
VERTEX
  5
871
100
AcDbEntity
  8
LAYER_01
100
AcDbVertex
  6
BYLAYER
100
AcDb3dPolylineVertex
 10
-23.5114359755447
 20
704.181730286169
 30
9.05567990399216E-15
 70
0
  0
VERTEX
  5
872
100
AcDbEntity
  8
LAYER_01
100
AcDbVertex
  6
BYLAYER
100
AcDb3dPolylineVertex
 10
-24.4027319198205
 20
704.793810777238
 30
9.05467002765487E-15
 70
0
  0
VERTEX
  5
873
100
AcDbEntity
  8
LAYER_01
100
AcDbVertex
  6
BYLAYER
100
AcDb3dPolylineVertex
 10
-25.2739421536281
 20
705.424598491027
 30
9.05348092819905E-15
 70
0
  0
VERTEX
  5
874
100
AcDbEntity
  8
LAYER_01
100
AcDbVertex
  6
BYLAYER
100
AcDb3dPolylineVertex
 10
-26.1245519572566
 20
706.07319761364
 30
9.05211655928713E-15
 70
0
  0
VERTEX
  5
875
100
AcDbEntity
  8
LAYER_01
100
AcDbVertex
  6
BYLAYER
100
AcDb3dPolylineVertex
 10
-26.9540967281351
 20
706.738697810446
 30
9.0505811219284E-15
 70
0
  0
VERTEX
  5
876
100
AcDbEntity
  8
LAYER_01
100
AcDbVertex
  6
BYLAYER
100
AcDb3dPolylineVertex
 10
-27.7621620627309
 20
707.420177484055
 30
9.04887904448854E-15
 70
0
  0
VERTEX
  5
877
100
AcDbEntity
  8
LAYER_01
100
AcDbVertex
  6
BYLAYER
100
AcDb3dPolylineVertex
 10
-28.5483836007225
 20
708.116706975216
 30
9.0470149623086E-15
 70
0
  0
VERTEX
  5
878
100
AcDbEntity
  8
LAYER_01
100
AcDbVertex
  6
BYLAYER
100
AcDb3dPolylineVertex
 10
-29.3124466420023
 20
708.827351688094
 30
9.04499369708183E-15
 70
0
  0
VERTEX
  5
879
100
AcDbEntity
  8
LAYER_01
100
AcDbVertex
  6
BYLAYER
100
AcDb3dPolylineVertex
 10
-30.0540855485307
 20
709.551175122894
 30
9.04282023613189E-15
 70
0
  0
VERTEX
  5
87A
100
AcDbEntity
  8
LAYER_01
100
AcDbVertex
  6
BYLAYER
100
AcDb3dPolylineVertex
 10
-30.773082944317
 20
710.287241800441
 30
9.04049971172969E-15
 70
0
  0
VERTEX
  5
87B
100
AcDbEntity
  8
LAYER_01
100
AcDbVertex
  6
BYLAYER
100
AcDb3dPolylineVertex
 10
-31.4692687278365
 20
711.034620065007
 30
9.03803738057888E-15
 70
0
  0
VERTEX
  5
87C
100
AcDbEntity
  8
LAYER_01
100
AcDbVertex
  6
BYLAYER
100
AcDb3dPolylineVertex
 10
-32.1425189120213
 20
711.792384753457
 30
9.03543860359169E-15
 70
0
  0
VERTEX
  5
87D
100
AcDbEntity
  8
LAYER_01
100
AcDbVertex
  6
BYLAYER
100
AcDb3dPolylineVertex
 10
-32.7927543075678
 20
712.559619720525
 30
9.0327088260676E-15
 70
0
  0
VERTEX
  5
87E
100
AcDbEntity
  8
LAYER_01
100
AcDbVertex
  6
BYLAYER
100
AcDb3dPolylineVertex
 10
-33.4199390657119
 20
713.335420211831
 30
9.02985355837785E-15
 70
0
  0
VERTEX
  5
87F
100
AcDbEntity
  8
LAYER_01
100
AcDbVertex
  6
BYLAYER
100
AcDb3dPolylineVertex
 10
-34.0240790968259
 20
714.118895077983
 30
9.0268783572481E-15
 70
0
  0
VERTEX
  5
880
100
AcDbEntity
  8
LAYER_01
100
AcDbVertex
  6
BYLAYER
100
AcDb3dPolylineVertex
 10
-34.6052203812163
 20
714.909168824805
 30
9.02378880772182E-15
 70
0
  0
VERTEX
  5
881
100
AcDbEntity
  8
LAYER_01
100
AcDbVertex
  6
BYLAYER
100
AcDb3dPolylineVertex
 10
-35.1634471883506
 20
715.705383496376
 30
9.02059050587541E-15
 70
0
  0
VERTEX
  5
882
100
AcDbEntity
  8
LAYER_01
100
AcDbVertex
  6
BYLAYER
100
AcDb3dPolylineVertex
 10
-35.6988802204341
 20
716.506700389101
 30
9.01728904234645E-15
 70
0
  0
VERTEX
  5
883
100
AcDbEntity
  8
LAYER_01
100
AcDbVertex
  6
BYLAYER
100
AcDb3dPolylineVertex
 10
-37.8992509359495
 20
720.664430625292
 30
8.98064258603579E-15
 70
0
  0
VERTEX
  5
884
100
AcDbEntity
  8
LAYER_01
100
AcDbVertex
  6
BYLAYER
100
AcDb3dPolylineVertex
 10
-40.0167811727983
 20
724.862086902712
 30
8.95310353306861E-15
 70
0
  0
VERTEX
  5
885
100
AcDbEntity
  8
LAYER_01
100
AcDbVertex
  6
BYLAYER
100
AcDb3dPolylineVertex
 10
-44.0342789994778
 20
733.360456733353
 30
8.9201434066827E-15
 70
0
  0
VERTEX
  5
886
100
AcDbEntity
  8
LAYER_01
100
AcDbVertex
  6
BYLAYER
100
AcDb3dPolylineVertex
 10
-47.8132912784362
 20
741.968368185252
 30
8.90800020222473E-15
 70
0
  0
VERTEX
  5
887
100
AcDbEntity
  8
LAYER_01
100
AcDbVertex
  6
BYLAYER
100
AcDb3dPolylineVertex
 10
-66.7104066039644
 20
788.913523117339
 30
9.09002902642922E-15
 70
0
  0
VERTEX
  5
888
100
AcDbEntity
  8
LAYER_01
100
AcDbVertex
  6
BYLAYER
100
AcDb3dPolylineVertex
 10
-68.7314045673986
 20
793.565648639285
 30
8.96499954301223E-15
 70
0
  0
VERTEX
  5
889
100
AcDbEntity
  8
LAYER_01
100
AcDbVertex
  6
BYLAYER
100
AcDb3dPolylineVertex
 10
-70.8538885985918
 20
798.171218195315
 30
8.81525861549608E-15
 70
0
  0
VERTEX
  5
88A
100
AcDbEntity
  8
LAYER_01
100
AcDbVertex
  6
BYLAYER
100
AcDb3dPolylineVertex
 10
-71.9656260001061
 20
800.448541045039
 30
8.75487868344665E-15
 70
0
  0
VERTEX
  5
88B
100
AcDbEntity
  8
LAYER_01
100
AcDbVertex
  6
BYLAYER
100
AcDb3dPolylineVertex
 10
-73.11766065117
 20
802.704620773999
 30
8.71682967826743E-15
 70
0
  0
VERTEX
  5
88C
100
AcDbEntity
  8
LAYER_01
100
AcDbVertex
  6
BYLAYER
100
AcDb3dPolylineVertex
 10
-74.3149677959866
 20
804.936256005765
 30
8.71061452925675E-15
 70
0
  0
VERTEX
  5
88D
100
AcDbEntity
  8
LAYER_01
100
AcDbVertex
  6
BYLAYER
100
AcDb3dPolylineVertex
 10
-75.5625226787592
 20
807.14024536391
 30
8.74573616571295E-15
 70
0
  0
VERTEX
  5
88E
100
AcDbEntity
  8
LAYER_01
100
AcDbVertex
  6
BYLAYER
100
AcDb3dPolylineVertex
 10
-77.2800298475002
 20
809.986986209201
 30
8.85727907925725E-15
 70
0
  0
VERTEX
  5
88F
100
AcDbEntity
  8
LAYER_01
100
AcDbVertex
  6
BYLAYER
100
AcDb3dPolylineVertex
 10
-79.077869108883
 20
812.782854205416
 30
8.99870376363992E-15
 70
0
  0
VERTEX
  5
890
100
AcDbEntity
  8
LAYER_01
100
AcDbVertex
  6
BYLAYER
100
AcDb3dPolylineVertex
 10
-80.9590728493834
 20
815.553538357798
 30
9.12326072632919E-15
 70
0
  0
VERTEX
  5
891
100
AcDbEntity
  8
LAYER_01
100
AcDbVertex
  6
BYLAYER
100
AcDb3dPolylineVertex
 10
-82.9019652263526
 20
818.278443562174
 30
9.22186891901904E-15
 70
0
  0
VERTEX
  5
892
100
AcDbEntity
  8
LAYER_01
100
AcDbVertex
  6
BYLAYER
100
AcDb3dPolylineVertex
 10
-84.9015615961061
 20
820.961239138397
 30
9.29685510435411E-15
 70
0
  0
VERTEX
  5
893
100
AcDbEntity
  8
LAYER_01
100
AcDbVertex
  6
BYLAYER
100
AcDb3dPolylineVertex
 10
-86.9528773149597
 20
823.605594406323
 30
9.35054604497905E-15
 70
0
  0
VERTEX
  5
894
100
AcDbEntity
  8
LAYER_01
100
AcDbVertex
  6
BYLAYER
100
AcDb3dPolylineVertex
 10
-91.1907282252297
 20
828.793661296698
 30
9.40334924267712E-15
 70
0
  0
VERTEX
  5
895
100
AcDbEntity
  8
LAYER_01
100
AcDbVertex
  6
BYLAYER
100
AcDb3dPolylineVertex
 10
-95.5756408076878
 20
833.871998792133
 30
9.39889261327043E-15
 70
0
  0
VERTEX
  5
896
100
AcDbEntity
  8
LAYER_01
100
AcDbVertex
  6
BYLAYER
100
AcDb3dPolylineVertex
 10
-120.741807841299
 20
861.348588448362
 30
9.16548346870458E-15
 70
0
  0
VERTEX
  5
897
100
AcDbEntity
  8
LAYER_01
100
AcDbVertex
  6
BYLAYER
100
AcDb3dPolylineVertex
 10
-127.539682462917
 20
869.139035697472
 30
9.18950636067315E-15
 70
0
  0
VERTEX
  5
898
100
AcDbEntity
  8
LAYER_01
100
AcDbVertex
  6
BYLAYER
100
AcDb3dPolylineVertex
 10
-134.150735398719
 20
877.075482381671
 30
9.20702640532335E-15
 70
0
  0
VERTEX
  5
899
100
AcDbEntity
  8
LAYER_01
100
AcDbVertex
  6
BYLAYER
100
AcDb3dPolylineVertex
 10
-140.543713312663
 20
885.186923134157
 30
9.17225148433337E-15
 70
0
  0
VERTEX
  5
89A
100
AcDbEntity
  8
LAYER_01
100
AcDbVertex
  6
BYLAYER
100
AcDb3dPolylineVertex
 10
-146.430679443598
 20
893.129486577067
 30
9.06499335536111E-15
 70
0
  0
VERTEX
  5
89B
100
AcDbEntity
  8
LAYER_01
100
AcDbVertex
  6
BYLAYER
100
AcDb3dPolylineVertex
 10
-152.087745335869
 20
901.239320717194
 30
8.93099324367003E-15
 70
0
  0
VERTEX
  5
89C
100
AcDbEntity
  8
LAYER_01
100
AcDbVertex
  6
BYLAYER
100
AcDb3dPolylineVertex
 10
-157.540304585161
 20
909.542958851957
 30
8.8302562022948E-15
 70
0
  0
VERTEX
  5
89D
100
AcDbEntity
  8
LAYER_01
100
AcDbVertex
  6
BYLAYER
100
AcDb3dPolylineVertex
 10
-162.760274946382
 20
918.001485122499
 30
8.81380485570776E-15
 70
0
  0
VERTEX
  5
89E
100
AcDbEntity
  8
LAYER_01
100
AcDbVertex
  6
BYLAYER
100
AcDb3dPolylineVertex
 10
-166.982370973546
 20
925.280452635452
 30
8.88557534145346E-15
 70
0
  0
VERTEX
  5
89F
100
AcDbEntity
  8
LAYER_01
100
AcDbVertex
  6
BYLAYER
100
AcDb3dPolylineVertex
 10
-169.010721070445
 20
928.967605813921
 30
8.93706299689388E-15
 70
0
  0
VERTEX
  5
8A0
100
AcDbEntity
  8
LAYER_01
100
AcDbVertex
  6
BYLAYER
100
AcDb3dPolylineVertex
 10
-170.972894795204
 20
932.689023653027
 30
8.9884087687366E-15
 70
0
  0
VERTEX
  5
8A1
100
AcDbEntity
  8
LAYER_01
100
AcDbVertex
  6
BYLAYER
100
AcDb3dPolylineVertex
 10
-172.860608827059
 20
936.446569937252
 30
9.03170503799958E-15
 70
0
  0
VERTEX
  5
8A2
100
AcDbEntity
  8
LAYER_01
100
AcDbVertex
  6
BYLAYER
100
AcDb3dPolylineVertex
 10
-174.665579845247
 20
940.242108451078
 30
9.05904418570075E-15
 70
0
  0
VERTEX
  5
8A3
100
AcDbEntity
  8
LAYER_01
100
AcDbVertex
  6
BYLAYER
100
AcDb3dPolylineVertex
 10
-176.379524529004
 20
944.077502978986
 30
9.06251859285806E-15
 70
0
  0
VERTEX
  5
8A4
100
AcDbEntity
  8
LAYER_01
100
AcDbVertex
  6
BYLAYER
100
AcDb3dPolylineVertex
 10
-177.994159557568
 20
947.954617305458
 30
9.03422064048946E-15
 70
0
  0
VERTEX
  5
8A5
100
AcDbEntity
  8
LAYER_01
100
AcDbVertex
  6
BYLAYER
100
AcDb3dPolylineVertex
 10
-179.911355835108
 20
952.986764158983
 30
8.94861360732639E-15
 70
0
  0
VERTEX
  5
8A6
100
AcDbEntity
  8
LAYER_01
100
AcDbVertex
  6
BYLAYER
100
AcDb3dPolylineVertex
 10
-181.668423201749
 20
958.079515511901
 30
8.83995474675203E-15
 70
0
  0
VERTEX
  5
8A7
100
AcDbEntity
  8
LAYER_01
100
AcDbVertex
  6
BYLAYER
100
AcDb3dPolylineVertex
 10
-183.282076286557
 20
963.221840377722
 30
8.75041161768264E-15
 70
0
  0
VERTEX
  5
8A8
100
AcDbEntity
  8
LAYER_01
100
AcDbVertex
  6
BYLAYER
100
AcDb3dPolylineVertex
 10
-184.769029718598
 20
968.402707769957
 30
8.72215177903448E-15
 70
0
  0
VERTEX
  5
8A9
100
AcDbEntity
  8
LAYER_01
100
AcDbVertex
  6
BYLAYER
100
AcDb3dPolylineVertex
 10
-186.060805780839
 20
973.285752408037
 30
8.77709978631153E-15
 70
0
  0
VERTEX
  5
8AA
100
AcDbEntity
  8
LAYER_01
100
AcDbVertex
  6
BYLAYER
100
AcDb3dPolylineVertex
 10
-187.258148842367
 20
978.191243742972
 30
8.88746780319404E-15
 70
0
  0
VERTEX
  5
8AB
100
AcDbEntity
  8
LAYER_01
100
AcDbVertex
  6
BYLAYER
100
AcDb3dPolylineVertex
 10
-188.363275051607
 20
983.117452753545
 30
9.017768584559E-15
 70
0
  0
VERTEX
  5
8AC
100
AcDbEntity
  8
LAYER_01
100
AcDbVertex
  6
BYLAYER
100
AcDb3dPolylineVertex
 10
-189.378400556983
 20
988.06265041854
 30
9.1325148852834E-15
 70
0
  0
VERTEX
  5
8AD
100
AcDbEntity
  8
LAYER_01
100
AcDbVertex
  6
BYLAYER
100
AcDb3dPolylineVertex
 10
-190.577890456352
 20
994.570498556522
 30
9.2170272440959E-15
 70
0
  0
VERTEX
  5
8AE
100
AcDbEntity
  8
LAYER_01
100
AcDbVertex
  6
BYLAYER
100
AcDb3dPolylineVertex
 10
-191.64034969602
 20
1001.10309505248
 30
9.23575730356023E-15
 70
0
  0
VERTEX
  5
8AF
100
AcDbEntity
  8
LAYER_01
100
AcDbVertex
  6
BYLAYER
100
AcDb3dPolylineVertex
 10
-193.409375007592
 20
1014.22290537731
 30
9.16353843311022E-15
 70
0
  0
VERTEX
  5
8B0
100
AcDbEntity
  8
LAYER_01
100
AcDbVertex
  6
BYLAYER
100
AcDb3dPolylineVertex
 10
-194.490311239712
 20
1024.24127575747
 30
9.08731544465722E-15
 70
0
  0
VERTEX
  5
8B1
100
AcDbEntity
  8
LAYER_01
100
AcDbVertex
  6
BYLAYER
100
AcDb3dPolylineVertex
 10
-195.377921474202
 20
1034.27809017831
 30
9.01751341414257E-15
 70
0
  0
VERTEX
  5
8B2
100
AcDbEntity
  8
LAYER_01
100
AcDbVertex
  6
BYLAYER
100
AcDb3dPolylineVertex
 10
-196.686530722519
 20
1054.38785446001
 30
8.92314689318217E-15
 70
0
  0
VERTEX
  5
8B3
100
AcDbEntity
  8
LAYER_01
100
AcDbVertex
  6
BYLAYER
100
AcDb3dPolylineVertex
 10
-198.981418517506
 20
1117.04867225734
 30
8.90626545873073E-15
 70
0
  0
VERTEX
  5
8B4
100
AcDbEntity
  8
LAYER_01
100
AcDbVertex
  6
BYLAYER
100
AcDb3dPolylineVertex
 10
-200.301086086851
 20
1138.70571765762
 30
8.90626545873073E-15
 70
0
  0
VERTEX
  5
8B5
100
AcDbEntity
  8
LAYER_01
100
AcDbVertex
  6
BYLAYER
100
AcDb3dPolylineVertex
 10
-201.295028201245
 20
1149.50589937982
 30
8.90626545873073E-15
 70
0
  0
VERTEX
  5
8B6
100
AcDbEntity
  8
LAYER_01
100
AcDbVertex
  6
BYLAYER
100
AcDb3dPolylineVertex
 10
-202.582082808799
 20
1160.27309777824
 30
8.90626545873073E-15
 70
0
  0
VERTEX
  5
8B7
100
AcDbEntity
  8
LAYER_01
100
AcDbVertex
  6
BYLAYER
100
AcDb3dPolylineVertex
 10
-204.313665566242
 20
1171.65344911779
 30
8.90626545873073E-15
 70
0
  0
VERTEX
  5
8B8
100
AcDbEntity
  8
LAYER_01
100
AcDbVertex
  6
BYLAYER
100
AcDb3dPolylineVertex
 10
-206.414163346352
 20
1182.97553337439
 30
8.90626545873073E-15
 70
0
  0
VERTEX
  5
8B9
100
AcDbEntity
  8
LAYER_01
100
AcDbVertex
  6
BYLAYER
100
AcDb3dPolylineVertex
 10
-208.862863030394
 20
1194.23014039319
 30
8.90626545873073E-15
 70
0
  0
VERTEX
  5
8BA
100
AcDbEntity
  8
LAYER_01
100
AcDbVertex
  6
BYLAYER
100
AcDb3dPolylineVertex
 10
-211.63905149963
 20
1205.40806001935
 30
8.90626545873073E-15
 70
0
  0
VERTEX
  5
8BB
100
AcDbEntity
  8
LAYER_01
100
AcDbVertex
  6
BYLAYER
100
AcDb3dPolylineVertex
 10
-214.361174176019
 20
1215.19098526351
 30
8.9030360404666E-15
 70
0
  0
VERTEX
  5
8BC
100
AcDbEntity
  8
LAYER_01
100
AcDbVertex
  6
BYLAYER
100
AcDb3dPolylineVertex
 10
-215.84142026366
 20
1220.04580902728
 30
8.89536617208929E-15
 70
0
  0
VERTEX
  5
8BD
100
AcDbEntity
  8
LAYER_01
100
AcDbVertex
  6
BYLAYER
100
AcDb3dPolylineVertex
 10
-217.416957304411
 20
1224.87003082615
 30
8.88043011261768E-15
 70
0
  0
VERTEX
  5
8BE
100
AcDbEntity
  8
LAYER_01
100
AcDbVertex
  6
BYLAYER
100
AcDb3dPolylineVertex
 10
-219.706807259627
 20
1231.32147058675
 30
8.84751080192201E-15
 70
0
  0
VERTEX
  5
8BF
100
AcDbEntity
  8
LAYER_01
100
AcDbVertex
  6
BYLAYER
100
AcDb3dPolylineVertex
 10
-222.178791754488
 20
1237.70763381286
 30
8.80911899437143E-15
 70
0
  0
VERTEX
  5
8C0
100
AcDbEntity
  8
LAYER_01
100
AcDbVertex
  6
BYLAYER
100
AcDb3dPolylineVertex
 10
-224.820111423487
 20
1244.02733381388
 30
8.77740490331839E-15
 70
0
  0
VERTEX
  5
8C1
100
AcDbEntity
  8
LAYER_01
100
AcDbVertex
  6
BYLAYER
100
AcDb3dPolylineVertex
 10
-227.617966901122
 20
1250.27938389919
 30
8.76451874211532E-15
 70
0
  0
VERTEX
  5
8C2
100
AcDbEntity
  8
LAYER_01
100
AcDbVertex
  6
BYLAYER
100
AcDb3dPolylineVertex
 10
-230.473178401158
 20
1256.29047776489
 30
8.77780083723976E-15
 70
0
  0
VERTEX
  5
8C3
100
AcDbEntity
  8
LAYER_01
100
AcDbVertex
  6
BYLAYER
100
AcDb3dPolylineVertex
 10
-233.443526885975
 20
1262.24443842601
 30
8.80889884315395E-15
 70
0
  0
VERTEX
  5
8C4
100
AcDbEntity
  8
LAYER_01
100
AcDbVertex
  6
BYLAYER
100
AcDb3dPolylineVertex
 10
-239.647243091121
 20
1274.01244574067
 30
8.87879162998171E-15
 70
0
  0
VERTEX
  5
8C5
100
AcDbEntity
  8
LAYER_01
100
AcDbVertex
  6
BYLAYER
100
AcDb3dPolylineVertex
 10
-244.743832443916
 20
1283.20080271509
 30
8.9028312301371E-15
 70
0
  0
VERTEX
  5
8C6
100
AcDbEntity
  8
LAYER_01
100
AcDbVertex
  6
BYLAYER
100
AcDb3dPolylineVertex
 10
-252.10897515807
 20
1295.53478620753
 30
8.90626545873073E-15
 70
0
  0
VERTEX
  5
8C7
100
AcDbEntity
  8
LAYER_01
100
AcDbVertex
  6
BYLAYER
100
AcDb3dPolylineVertex
 10
-253.061626452638
 20
1297.19859103818
 30
8.90626545873073E-15
 70
0
  0
VERTEX
  5
8C8
100
AcDbEntity
  8
LAYER_01
100
AcDbVertex
  6
BYLAYER
100
AcDb3dPolylineVertex
 10
-253.512973649587
 20
1298.04243339738
 30
8.90626545873073E-15
 70
0
  0
VERTEX
  5
8C9
100
AcDbEntity
  8
LAYER_01
100
AcDbVertex
  6
BYLAYER
100
AcDb3dPolylineVertex
 10
-253.942986486806
 20
1298.8964666578
 30
8.90626545873073E-15
 70
0
  0
VERTEX
  5
8CA
100
AcDbEntity
  8
LAYER_01
100
AcDbVertex
  6
BYLAYER
100
AcDb3dPolylineVertex
 10
-254.218875533094
 20
1299.4775670652
 30
8.90626545873073E-15
 70
0
  0
VERTEX
  5
8CB
100
AcDbEntity
  8
LAYER_01
100
AcDbVertex
  6
BYLAYER
100
AcDb3dPolylineVertex
 10
-254.484273252359
 20
1300.06365876501
 30
8.90626545873073E-15
 70
0
  0
VERTEX
  5
8CC
100
AcDbEntity
  8
LAYER_01
100
AcDbVertex
  6
BYLAYER
100
AcDb3dPolylineVertex
 10
-254.986628951722
 20
1301.24929358976
 30
8.90626545873073E-15
 70
0
  0
VERTEX
  5
8CD
100
AcDbEntity
  8
LAYER_01
100
AcDbVertex
  6
BYLAYER
100
AcDb3dPolylineVertex
 10
-255.456122068697
 20
1302.45032622781
 30
8.90626545873073E-15
 70
0
  0
VERTEX
  5
8CE
100
AcDbEntity
  8
LAYER_01
100
AcDbVertex
  6
BYLAYER
100
AcDb3dPolylineVertex
 10
-255.898821087088
 20
1303.66371177494
 30
8.90626545873073E-15
 70
0
  0
VERTEX
  5
8CF
100
AcDbEntity
  8
LAYER_01
100
AcDbVertex
  6
BYLAYER
100
AcDb3dPolylineVertex
 10
-257.523045850856
 20
1308.57988496963
 30
8.90626545873073E-15
 70
0
  0
VERTEX
  5
8D0
100
AcDbEntity
  8
LAYER_01
100
AcDbVertex
  6
BYLAYER
100
AcDb3dPolylineVertex
 10
-258.587518929062
 20
1311.95159502852
 30
8.90133630143432E-15
 70
0
  0
VERTEX
  5
8D1
100
AcDbEntity
  8
LAYER_01
100
AcDbVertex
  6
BYLAYER
100
AcDb3dPolylineVertex
 10
-258.83288030231
 20
1312.79942731083
 30
8.89663819838618E-15
 70
0
  0
VERTEX
  5
8D2
100
AcDbEntity
  8
LAYER_01
100
AcDbVertex
  6
BYLAYER
100
AcDb3dPolylineVertex
 10
-259.063295993193
 20
1313.65142592785
 30
8.88962955285535E-15
 70
0
  0
VERTEX
  5
8D3
100
AcDbEntity
  8
LAYER_01
100
AcDbVertex
  6
BYLAYER
100
AcDb3dPolylineVertex
 10
-259.275444539789
 20
1314.50869309343
 30
8.87984825634529E-15
 70
0
  0
VERTEX
  5
8D4
100
AcDbEntity
  8
LAYER_01
100
AcDbVertex
  6
BYLAYER
100
AcDb3dPolylineVertex
 10
-259.466004480176
 20
1315.37233102141
 30
8.86683220035946E-15
 70
0
  0
VERTEX
  5
8D5
100
AcDbEntity
  8
LAYER_01
100
AcDbVertex
  6
BYLAYER
100
AcDb3dPolylineVertex
 10
-259.623061983433
 20
1316.19303096559
 30
8.85152592440798E-15
 70
0
  0
VERTEX
  5
8D6
100
AcDbEntity
  8
LAYER_01
100
AcDbVertex
  6
BYLAYER
100
AcDb3dPolylineVertex
 10
-259.756106564296
 20
1317.01908714438
 30
8.83460451396686E-15
 70
0
  0
VERTEX
  5
8D7
100
AcDbEntity
  8
LAYER_01
100
AcDbVertex
  6
BYLAYER
100
AcDb3dPolylineVertex
 10
-259.863267463425
 20
1317.84921318278
 30
8.81773892164143E-15
 70
0
  0
VERTEX
  5
8D8
100
AcDbEntity
  8
LAYER_01
100
AcDbVertex
  6
BYLAYER
100
AcDb3dPolylineVertex
 10
-259.942673921475
 20
1318.68212270577
 30
8.80260010003703E-15
 70
0
  0
VERTEX
  5
8D9
100
AcDbEntity
  8
LAYER_01
100
AcDbVertex
  6
BYLAYER
100
AcDb3dPolylineVertex
 10
-259.971384622801
 20
1319.09921928179
 30
8.79620040094438E-15
 70
0
  0
VERTEX
  5
8DA
100
AcDbEntity
  8
LAYER_01
100
AcDbVertex
  6
BYLAYER
100
AcDb3dPolylineVertex
 10
-259.992455179103
 20
1319.51652933834
 30
8.79085900175898E-15
 70
0
  0
VERTEX
  5
8DB
100
AcDbEntity
  8
LAYER_01
100
AcDbVertex
  6
BYLAYER
100
AcDb3dPolylineVertex
 10
-260.005651745465
 20
1319.93389207853
 30
8.78678477155651E-15
 70
0
  0
VERTEX
  5
8DC
100
AcDbEntity
  8
LAYER_01
100
AcDbVertex
  6
BYLAYER
100
AcDb3dPolylineVertex
 10
-260.010740476968
 20
1320.35114670549
 30
8.78418657941263E-15
 70
0
  0
VERTEX
  5
8DD
100
AcDbEntity
  8
LAYER_01
100
AcDbVertex
  6
BYLAYER
100
AcDb3dPolylineVertex
 10
-260.007487528695
 20
1320.76813242234
 30
8.783273294403E-15
 70
0
  0
VERTEX
  5
8DE
100
AcDbEntity
  8
LAYER_01
100
AcDbVertex
  6
BYLAYER
100
AcDb3dPolylineVertex
 10
-259.995659055727
 20
1321.1846884322
 30
8.78425378560329E-15
 70
0
  0
VERTEX
  5
8DF
100
AcDbEntity
  8
LAYER_01
100
AcDbVertex
  6
BYLAYER
100
AcDb3dPolylineVertex
 10
-259.975021213146
 20
1321.6006539382
 30
8.78733692208918E-15
 70
0
  0
VERTEX
  5
8E0
100
AcDbEntity
  8
LAYER_01
100
AcDbVertex
  6
BYLAYER
100
AcDb3dPolylineVertex
 10
-259.945340156036
 20
1322.01586814346
 30
8.79273157293632E-15
 70
0
  0
VERTEX
  5
8E1
100
AcDbEntity
  8
LAYER_01
100
AcDbVertex
  6
BYLAYER
100
AcDb3dPolylineVertex
 10
-259.905893453077
 20
1322.43577261316
 30
8.80063817301633E-15
 70
0
  0
VERTEX
  5
8E2
100
AcDbEntity
  8
LAYER_01
100
AcDbVertex
  6
BYLAYER
100
AcDb3dPolylineVertex
 10
-259.85728290891
 20
1322.85469580588
 30
8.81055068973485E-15
 70
0
  0
VERTEX
  5
8E3
100
AcDbEntity
  8
LAYER_01
100
AcDbVertex
  6
BYLAYER
100
AcDb3dPolylineVertex
 10
-259.799873720606
 20
1323.27259331622
 30
8.82188619890339E-15
 70
0
  0
VERTEX
  5
8E4
100
AcDbEntity
  8
LAYER_01
100
AcDbVertex
  6
BYLAYER
100
AcDb3dPolylineVertex
 10
-259.734031085237
 20
1323.68942073875
 30
8.83406177633346E-15
 70
0
  0
VERTEX
  5
8E5
100
AcDbEntity
  8
LAYER_01
100
AcDbVertex
  6
BYLAYER
100
AcDb3dPolylineVertex
 10
-259.660120199876
 20
1324.10513366806
 30
8.84649449783654E-15
 70
0
  0
VERTEX
  5
8E6
100
AcDbEntity
  8
LAYER_01
100
AcDbVertex
  6
BYLAYER
100
AcDb3dPolylineVertex
 10
-259.578506261595
 20
1324.51968769873
 30
8.85860143922413E-15
 70
0
  0
VERTEX
  5
8E7
100
AcDbEntity
  8
LAYER_01
100
AcDbVertex
  6
BYLAYER
100
AcDb3dPolylineVertex
 10
-259.393630014561
 20
1325.34514144248
 30
8.87950628489887E-15
 70
0
  0
VERTEX
  5
8E8
100
AcDbEntity
  8
LAYER_01
100
AcDbVertex
  6
BYLAYER
100
AcDb3dPolylineVertex
 10
-259.182323920714
 20
1326.16542672666
 30
8.89211291984968E-15
 70
0
  0
VERTEX
  5
8E9
100
AcDbEntity
  8
LAYER_01
100
AcDbVertex
  6
BYLAYER
100
AcDb3dPolylineVertex
 10
-258.94750955663
 20
1326.98018830793
 30
8.89175795056854E-15
 70
0
  0
VERTEX
  5
8EA
100
AcDbEntity
  8
LAYER_01
100
AcDbVertex
  6
BYLAYER
100
AcDb3dPolylineVertex
 10
-258.692108498888
 20
1327.78907094294
 30
8.87377798354745E-15
 70
0
  0
VERTEX
  5
8EB
100
AcDbEntity
  8
LAYER_01
100
AcDbVertex
  6
BYLAYER
100
AcDb3dPolylineVertex
 10
-258.419042324065
 20
1328.59171938837
 30
8.83350962527841E-15
 70
0
  0
VERTEX
  5
8EC
100
AcDbEntity
  8
LAYER_01
100
AcDbVertex
  6
BYLAYER
100
AcDb3dPolylineVertex
 10
-258.115723594049
 20
1329.42737622103
 30
8.76557673938915E-15
 70
0
  0
VERTEX
  5
8ED
100
AcDbEntity
  8
LAYER_01
100
AcDbVertex
  6
BYLAYER
100
AcDb3dPolylineVertex
 10
-257.794861181131
 20
1330.25511361167
 30
8.68317545063277E-15
 70
0
  0
VERTEX
  5
8EE
100
AcDbEntity
  8
LAYER_01
100
AcDbVertex
  6
BYLAYER
100
AcDb3dPolylineVertex
 10
-257.455166731309
 20
1331.07427722528
 30
8.60155275086951E-15
 70
0
  0
VERTEX
  5
8EF
100
AcDbEntity
  8
LAYER_01
100
AcDbVertex
  6
BYLAYER
100
AcDb3dPolylineVertex
 10
-257.095351890583
 20
1331.88421272684
 30
8.53595563195961E-15
 70
0
  0
VERTEX
  5
8F0
100
AcDbEntity
  8
LAYER_01
100
AcDbVertex
  6
BYLAYER
100
AcDb3dPolylineVertex
 10
-256.714128304953
 20
1332.68426578135
 30
8.50163108576333E-15
 70
0
  0
VERTEX
  5
8F1
100
AcDbEntity
  8
LAYER_01
100
AcDbVertex
  6
BYLAYER
100
AcDb3dPolylineVertex
 10
-256.310207620419
 20
1333.4737820538
 30
8.51382610414091E-15
 70
0
  0
VERTEX
  5
8F2
100
AcDbEntity
  8
LAYER_01
100
AcDbVertex
  6
BYLAYER
100
AcDb3dPolylineVertex
 10
-255.882301482979
 20
1334.2521072092
 30
8.5877876789526E-15
 70
0
  0
VERTEX
  5
8F3
100
AcDbEntity
  8
LAYER_01
100
AcDbVertex
  6
BYLAYER
100
AcDb3dPolylineVertex
 10
-255.429121538633
 20
1335.01858691252
 30
8.73876280205865E-15
 70
0
  0
VERTEX
  5
8F4
100
AcDbEntity
  8
LAYER_01
100
AcDbVertex
  6
BYLAYER
100
AcDb3dPolylineVertex
 10
-254.993171799531
 20
1335.70552751202
 30
8.94571686952804E-15
 70
0
  0
VERTEX
  5
8F5
100
AcDbEntity
  8
LAYER_01
100
AcDbVertex
  6
BYLAYER
100
AcDb3dPolylineVertex
 10
-254.534222932275
 20
1336.37867853731
 30
9.17771322275597E-15
 70
0
  0
VERTEX
  5
8F6
100
AcDbEntity
  8
LAYER_01
100
AcDbVertex
  6
BYLAYER
100
AcDb3dPolylineVertex
 10
-254.295826067367
 20
1336.70901580706
 30
9.28699820985654E-15
 70
0
  0
VERTEX
  5
8F7
100
AcDbEntity
  8
LAYER_01
100
AcDbVertex
  6
BYLAYER
100
AcDb3dPolylineVertex
 10
-254.051322110555
 20
1337.03462510019
 30
9.38321891238933E-15
 70
0
  0
VERTEX
  5
8F8
100
AcDbEntity
  8
LAYER_01
100
AcDbVertex
  6
BYLAYER
100
AcDb3dPolylineVertex
 10
-253.80059195855
 20
1337.35507955565
 30
9.45993371168521E-15
 70
0
  0
VERTEX
  5
8F9
100
AcDbEntity
  8
LAYER_01
100
AcDbVertex
  6
BYLAYER
100
AcDb3dPolylineVertex
 10
-253.543516508062
 20
1337.66995231243
 30
9.51070098907502E-15
 70
0
  0
VERTEX
  5
8FA
100
AcDbEntity
  8
LAYER_01
100
AcDbVertex
  6
BYLAYER
100
AcDb3dPolylineVertex
 10
-253.279976655803
 20
1337.9788165095
 30
9.52907912588964E-15
 70
0
  0
VERTEX
  5
8FB
100
AcDbEntity
  8
LAYER_01
100
AcDbVertex
  6
BYLAYER
100
AcDb3dPolylineVertex
 10
-253.009853298484
 20
1338.28124528584
 30
9.50862650345993E-15
 70
0
  0
VERTEX
  5
8FC
100
AcDbEntity
  8
LAYER_01
100
AcDbVertex
  6
BYLAYER
100
AcDb3dPolylineVertex
 10
-252.733027332817
 20
1338.57681178042
 30
9.44290150311675E-15
 70
0
  0
VERTEX
  5
8FD
100
AcDbEntity
  8
LAYER_01
100
AcDbVertex
  6
BYLAYER
100
AcDb3dPolylineVertex
 10
-252.449379655512
 20
1338.86508913221
 30
9.32546250619096E-15
 70
0
  0
VERTEX
  5
8FE
100
AcDbEntity
  8
LAYER_01
100
AcDbVertex
  6
BYLAYER
100
AcDb3dPolylineVertex
 10
-252.158791163281
 20
1339.14565048018
 30
9.14986789401343E-15
 70
0
  0
VERTEX
  5
8FF
100
AcDbEntity
  8
LAYER_01
100
AcDbVertex
  6
BYLAYER
100
AcDb3dPolylineVertex
 10
-251.861142752835
 20
1339.41806896331
 30
8.90967604791501E-15
 70
0
  0
VERTEX
  5
900
100
AcDbEntity
  8
LAYER_01
100
AcDbVertex
  6
BYLAYER
100
AcDb3dPolylineVertex
 10
-251.556315320886
 20
1339.68191772058
 30
8.59844534922657E-15
 70
0
  0
VERTEX
  5
901
100
AcDbEntity
  8
LAYER_01
100
AcDbVertex
  6
BYLAYER
100
AcDb3dPolylineVertex
 10
-251.244189764143
 20
1339.93676989096
 30
8.20973417927897E-15
 70
0
  0
VERTEX
  5
902
100
AcDbEntity
  8
LAYER_01
100
AcDbVertex
  6
BYLAYER
100
AcDb3dPolylineVertex
 10
-250.924120376274
 20
1340.18276338115
 30
7.73951995890326E-15
 70
0
  0
VERTEX
  5
903
100
AcDbEntity
  8
LAYER_01
100
AcDbVertex
  6
BYLAYER
100
AcDb3dPolylineVertex
 10
-250.596989788746
 20
1340.41953113996
 30
7.1989588602512E-15
 70
0
  0
VERTEX
  5
904
100
AcDbEntity
  8
LAYER_01
100
AcDbVertex
  6
BYLAYER
100
AcDb3dPolylineVertex
 10
-250.26318207266
 20
1340.64730651159
 30
6.60194338332568E-15
 70
0
  0
VERTEX
  5
905
100
AcDbEntity
  8
LAYER_01
100
AcDbVertex
  6
BYLAYER
100
AcDb3dPolylineVertex
 10
-249.923081299116
 20
1340.86632284027
 30
5.9623660281296E-15
 70
0
  0
VERTEX
  5
906
100
AcDbEntity
  8
LAYER_01
100
AcDbVertex
  6
BYLAYER
100
AcDb3dPolylineVertex
 10
-249.577071539215
 20
1341.07681347021
 30
5.29411929466587E-15
 70
0
  0
VERTEX
  5
907
100
AcDbEntity
  8
LAYER_01
100
AcDbVertex
  6
BYLAYER
100
AcDb3dPolylineVertex
 10
-249.225536864057
 20
1341.27901174563
 30
4.61109568293739E-15
 70
0
  0
VERTEX
  5
908
100
AcDbEntity
  8
LAYER_01
100
AcDbVertex
  6
BYLAYER
100
AcDb3dPolylineVertex
 10
-248.868861344742
 20
1341.47315101076
 30
3.92718769294706E-15
 70
0
  0
VERTEX
  5
909
100
AcDbEntity
  8
LAYER_01
100
AcDbVertex
  6
BYLAYER
100
AcDb3dPolylineVertex
 10
-248.50742905237
 20
1341.6594646098
 30
3.25628782469777E-15
 70
0
  0
VERTEX
  5
90A
100
AcDbEntity
  8
LAYER_01
100
AcDbVertex
  6
BYLAYER
100
AcDb3dPolylineVertex
 10
-248.141624058042
 20
1341.83818588698
 30
2.61228857819244E-15
 70
0
  0
VERTEX
  5
90B
100
AcDbEntity
  8
LAYER_01
100
AcDbVertex
  6
BYLAYER
100
AcDb3dPolylineVertex
 10
-247.771830432858
 20
1342.00954818652
 30
2.00908245343396E-15
 70
0
  0
VERTEX
  5
90C
100
AcDbEntity
  8
LAYER_01
100
AcDbVertex
  6
BYLAYER
100
AcDb3dPolylineVertex
 10
-247.398432247918
 20
1342.17378485263
 30
1.46056195042524E-15
 70
0
  0
VERTEX
  5
90D
100
AcDbEntity
  8
LAYER_01
100
AcDbVertex
  6
BYLAYER
100
AcDb3dPolylineVertex
 10
-247.021813574322
 20
1342.33112922953
 30
9.80619569169168E-16
 70
0
  0
VERTEX
  5
90E
100
AcDbEntity
  8
LAYER_01
100
AcDbVertex
  6
BYLAYER
100
AcDb3dPolylineVertex
 10
-246.260451045563
 20
1342.62607449258
 30
2.82039171926603E-16
 70
0
  0
VERTEX
  5
90F
100
AcDbEntity
  8
LAYER_01
100
AcDbVertex
  6
BYLAYER
100
AcDb3dPolylineVertex
 10
-245.490815415385
 20
1342.89625072942
 30
2.44812617294787E-17
 70
0
  0
VERTEX
  5
910
100
AcDbEntity
  8
LAYER_01
100
AcDbVertex
  6
BYLAYER
100
AcDb3dPolylineVertex
 10
-244.639867980106
 20
1343.16612927087
 30
2.39634564147957E-16
 70
0
  0
VERTEX
  5
911
100
AcDbEntity
  8
LAYER_01
100
AcDbVertex
  6
BYLAYER
100
AcDb3dPolylineVertex
 10
-243.783058703339
 20
1343.40918417029
 30
9.66126219201053E-16
 70
0
  0
VERTEX
  5
912
100
AcDbEntity
  8
LAYER_01
100
AcDbVertex
  6
BYLAYER
100
AcDb3dPolylineVertex
 10
-242.920786753348
 20
1343.62616422135
 30
2.07570366804459E-15
 70
0
  0
VERTEX
  5
913
100
AcDbEntity
  8
LAYER_01
100
AcDbVertex
  6
BYLAYER
100
AcDb3dPolylineVertex
 10
-242.053451298396
 20
1343.81781821773
 30
3.4401143518344E-15
 70
0
  0
VERTEX
  5
914
100
AcDbEntity
  8
LAYER_01
100
AcDbVertex
  6
BYLAYER
100
AcDb3dPolylineVertex
 10
-241.181451506748
 20
1343.98489495309
 30
4.93110571172632E-15
 70
0
  0
VERTEX
  5
915
100
AcDbEntity
  8
LAYER_01
100
AcDbVertex
  6
BYLAYER
100
AcDb3dPolylineVertex
 10
-240.305186546667
 20
1344.12814322113
 30
6.42042518887615E-15
 70
0
  0
VERTEX
  5
916
100
AcDbEntity
  8
LAYER_01
100
AcDbVertex
  6
BYLAYER
100
AcDb3dPolylineVertex
 10
-239.425055586416
 20
1344.24831181551
 30
7.77982022443975E-15
 70
0
  0
VERTEX
  5
917
100
AcDbEntity
  8
LAYER_01
100
AcDbVertex
  6
BYLAYER
100
AcDb3dPolylineVertex
 10
-238.54145779426
 20
1344.3461495299
 30
8.88103825957293E-15
 70
0
  0
VERTEX
  5
918
100
AcDbEntity
  8
LAYER_01
100
AcDbVertex
  6
BYLAYER
100
AcDb3dPolylineVertex
 10
-237.698189578175
 20
1344.41884892135
 30
9.59855256552936E-15
 70
0
  0
VERTEX
  5
919
100
AcDbEntity
  8
LAYER_01
100
AcDbVertex
  6
BYLAYER
100
AcDb3dPolylineVertex
 10
-236.852997378202
 20
1344.47070745602
 30
1.00161700054259E-14
 70
0
  0
VERTEX
  5
91A
100
AcDbEntity
  8
LAYER_01
100
AcDbVertex
  6
BYLAYER
100
AcDb3dPolylineVertex
 10
-236.006732919526
 20
1344.50041236094
 30
1.01836461389629E-14
 70
0
  0
VERTEX
  5
91B
100
AcDbEntity
  8
LAYER_01
100
AcDbVertex
  6
BYLAYER
100
AcDb3dPolylineVertex
 10
-235.160247927334
 20
1344.50665086318
 30
1.01507365258405E-14
 70
0
  0
VERTEX
  5
91C
100
AcDbEntity
  8
LAYER_01
100
AcDbVertex
  6
BYLAYER
100
AcDb3dPolylineVertex
 10
-234.314394126811
 20
1344.48811018977
 30
9.96719672575894E-15
 70
0
  0
VERTEX
  5
91D
100
AcDbEntity
  8
LAYER_01
100
AcDbVertex
  6
BYLAYER
100
AcDb3dPolylineVertex
 10
-233.470023243142
 20
1344.44347756777
 30
9.6827822984186E-15
 70
0
  0
VERTEX
  5
91E
100
AcDbEntity
  8
LAYER_01
100
AcDbVertex
  6
BYLAYER
100
AcDb3dPolylineVertex
 10
-232.627987001513
 20
1344.37144022423
 30
9.34724880351967E-15
 70
0
  0
VERTEX
  5
91F
100
AcDbEntity
  8
LAYER_01
100
AcDbVertex
  6
BYLAYER
100
AcDb3dPolylineVertex
 10
-232.208110535584
 20
1344.32473454034
 30
9.17586101814207E-15
 70
0
  0
VERTEX
  5
920
100
AcDbEntity
  8
LAYER_01
100
AcDbVertex
  6
BYLAYER
100
AcDb3dPolylineVertex
 10
-231.789137127109
 20
1344.2706853862
 30
9.01035180076242E-15
 70
0
  0
VERTEX
  5
921
100
AcDbEntity
  8
LAYER_01
100
AcDbVertex
  6
BYLAYER
100
AcDb3dPolylineVertex
 10
-231.16983767603
 20
1344.1768323758
 30
8.78551268863847E-15
 70
0
  0
VERTEX
  5
922
100
AcDbEntity
  8
LAYER_01
100
AcDbVertex
  6
BYLAYER
100
AcDb3dPolylineVertex
 10
-230.552946060515
 20
1344.0668076155
 30
8.58615276839202E-15
 70
0
  0
VERTEX
  5
923
100
AcDbEntity
  8
LAYER_01
100
AcDbVertex
  6
BYLAYER
100
AcDb3dPolylineVertex
 10
-229.938651134299
 20
1343.94094135956
 30
8.41115919963659E-15
 70
0
  0
VERTEX
  5
924
100
AcDbEntity
  8
LAYER_01
100
AcDbVertex
  6
BYLAYER
100
AcDb3dPolylineVertex
 10
-229.327141751117
 20
1343.79956386224
 30
8.25941914198573E-15
 70
0
  0
VERTEX
  5
925
100
AcDbEntity
  8
LAYER_01
100
AcDbVertex
  6
BYLAYER
100
AcDb3dPolylineVertex
 10
-228.718606764704
 20
1343.6430053778
 30
8.12981975505298E-15
 70
0
  0
VERTEX
  5
926
100
AcDbEntity
  8
LAYER_01
100
AcDbVertex
  6
BYLAYER
100
AcDb3dPolylineVertex
 10
-228.113235028797
 20
1343.47159616051
 30
8.02124819845187E-15
 70
0
  0
VERTEX
  5
927
100
AcDbEntity
  8
LAYER_01
100
AcDbVertex
  6
BYLAYER
100
AcDb3dPolylineVertex
 10
-227.51121539713
 20
1343.28566646461
 30
7.93259163179595E-15
 70
0
  0
VERTEX
  5
928
100
AcDbEntity
  8
LAYER_01
100
AcDbVertex
  6
BYLAYER
100
AcDb3dPolylineVertex
 10
-226.912736723438
 20
1343.08554654437
 30
7.86273721469874E-15
 70
0
  0
VERTEX
  5
929
100
AcDbEntity
  8
LAYER_01
100
AcDbVertex
  6
BYLAYER
100
AcDb3dPolylineVertex
 10
-226.317987861457
 20
1342.87156665406
 30
7.8105721067738E-15
 70
0
  0
VERTEX
  5
92A
100
AcDbEntity
  8
LAYER_01
100
AcDbVertex
  6
BYLAYER
100
AcDb3dPolylineVertex
 10
-225.727157664922
 20
1342.64405704792
 30
7.77498346763465E-15
 70
0
  0
VERTEX
  5
92B
100
AcDbEntity
  8
LAYER_01
100
AcDbVertex
  6
BYLAYER
100
AcDb3dPolylineVertex
 10
-225.140434987568
 20
1342.40334798023
 30
7.75485845689484E-15
 70
0
  0
VERTEX
  5
92C
100
AcDbEntity
  8
LAYER_01
100
AcDbVertex
  6
BYLAYER
100
AcDb3dPolylineVertex
 10
-224.558008683131
 20
1342.14976970523
 30
7.7490842341679E-15
 70
0
  0
VERTEX
  5
92D
100
AcDbEntity
  8
LAYER_01
100
AcDbVertex
  6
BYLAYER
100
AcDb3dPolylineVertex
 10
-223.980067605346
 20
1341.8836524772
 30
7.75654795906738E-15
 70
0
  0
VERTEX
  5
92E
100
AcDbEntity
  8
LAYER_01
100
AcDbVertex
  6
BYLAYER
100
AcDb3dPolylineVertex
 10
-223.406800607949
 20
1341.60532655038
 30
7.77613679120681E-15
 70
0
  0
VERTEX
  5
92F
100
AcDbEntity
  8
LAYER_01
100
AcDbVertex
  6
BYLAYER
100
AcDb3dPolylineVertex
 10
-222.838396544674
 20
1341.31512217904
 30
7.80673789019974E-15
 70
0
  0
VERTEX
  5
930
100
AcDbEntity
  8
LAYER_01
100
AcDbVertex
  6
BYLAYER
100
AcDb3dPolylineVertex
 10
-222.275044269257
 20
1341.01336961745
 30
7.84723841565969E-15
 70
0
  0
VERTEX
  5
931
100
AcDbEntity
  8
LAYER_01
100
AcDbVertex
  6
BYLAYER
100
AcDb3dPolylineVertex
 10
-221.716932635434
 20
1340.70039911985
 30
7.8965255272002E-15
 70
0
  0
VERTEX
  5
932
100
AcDbEntity
  8
LAYER_01
100
AcDbVertex
  6
BYLAYER
100
AcDb3dPolylineVertex
 10
-221.164250496939
 20
1340.37654094051
 30
7.95348638443483E-15
 70
0
  0
VERTEX
  5
933
100
AcDbEntity
  8
LAYER_01
100
AcDbVertex
  6
BYLAYER
100
AcDb3dPolylineVertex
 10
-220.617186707508
 20
1340.0421253337
 30
8.01700814697709E-15
 70
0
  0
VERTEX
  5
934
100
AcDbEntity
  8
LAYER_01
100
AcDbVertex
  6
BYLAYER
100
AcDb3dPolylineVertex
 10
-220.075930120877
 20
1339.69748255366
 30
8.08597797444055E-15
 70
0
  0
VERTEX
  5
935
100
AcDbEntity
  8
LAYER_01
100
AcDbVertex
  6
BYLAYER
100
AcDb3dPolylineVertex
 10
-219.54066959078
 20
1339.34294285466
 30
8.15928302643872E-15
 70
0
  0
VERTEX
  5
936
100
AcDbEntity
  8
LAYER_01
100
AcDbVertex
  6
BYLAYER
100
AcDb3dPolylineVertex
 10
-219.011593970953
 20
1338.97883649096
 30
8.23581046258515E-15
 70
0
  0
VERTEX
  5
937
100
AcDbEntity
  8
LAYER_01
100
AcDbVertex
  6
BYLAYER
100
AcDb3dPolylineVertex
 10
-217.97275287705
 20
1338.22324478649
 30
8.39408112577695E-15
 70
0
  0
VERTEX
  5
938
100
AcDbEntity
  8
LAYER_01
100
AcDbVertex
  6
BYLAYER
100
AcDb3dPolylineVertex
 10
-216.96091766905
 20
1337.43334947434
 30
8.55188724092425E-15
 70
0
  0
VERTEX
  5
939
100
AcDbEntity
  8
LAYER_01
100
AcDbVertex
  6
BYLAYER
100
AcDb3dPolylineVertex
 10
-215.977599176836
 20
1336.61179258858
 30
8.70032608493537E-15
 70
0
  0
VERTEX
  5
93A
100
AcDbEntity
  8
LAYER_01
100
AcDbVertex
  6
BYLAYER
100
AcDb3dPolylineVertex
 10
-215.02430823029
 20
1335.76121616329
 30
8.83049493471859E-15
 70
0
  0
VERTEX
  5
93B
100
AcDbEntity
  8
LAYER_01
100
AcDbVertex
  6
BYLAYER
100
AcDb3dPolylineVertex
 10
-214.102555659296
 20
1334.88426223256
 30
8.93349106718225E-15
 70
0
  0
VERTEX
  5
93C
100
AcDbEntity
  8
LAYER_01
100
AcDbVertex
  6
BYLAYER
100
AcDb3dPolylineVertex
 10
-213.511222573608
 20
1334.29143890587
 30
8.98298200189092E-15
 70
0
  0
VERTEX
  5
93D
100
AcDbEntity
  8
LAYER_01
100
AcDbVertex
  6
BYLAYER
100
AcDb3dPolylineVertex
 10
-212.933654080605
 20
1333.68873505337
 30
9.01815180815759E-15
 70
0
  0
VERTEX
  5
93E
100
AcDbEntity
  8
LAYER_01
100
AcDbVertex
  6
BYLAYER
100
AcDb3dPolylineVertex
 10
-212.369178884884
 20
1333.07663779965
 30
9.04043710462035E-15
 70
0
  0
VERTEX
  5
93F
100
AcDbEntity
  8
LAYER_01
100
AcDbVertex
  6
BYLAYER
100
AcDb3dPolylineVertex
 10
-211.817125691045
 20
1332.45563426931
 30
9.05127450991731E-15
 70
0
  0
VERTEX
  5
940
100
AcDbEntity
  8
LAYER_01
100
AcDbVertex
  6
BYLAYER
100
AcDb3dPolylineVertex
 10
-210.747600127407
 20
1331.18885687714
 30
9.04435212156619E-15
 70
0
  0
VERTEX
  5
941
100
AcDbEntity
  8
LAYER_01
100
AcDbVertex
  6
BYLAYER
100
AcDb3dPolylineVertex
 10
-209.719707026478
 20
1329.89229987365
 30
9.00887759220904E-15
 70
0
  0
VERTEX
  5
942
100
AcDbEntity
  8
LAYER_01
100
AcDbVertex
  6
BYLAYER
100
AcDb3dPolylineVertex
 10
-208.728076025049
 20
1328.5698602556
 30
8.95634387095064E-15
 70
0
  0
VERTEX
  5
943
100
AcDbEntity
  8
LAYER_01
100
AcDbVertex
  6
BYLAYER
100
AcDb3dPolylineVertex
 10
-207.767336759907
 20
1327.22543501977
 30
8.89824390689578E-15
 70
0
  0
VERTEX
  5
944
100
AcDbEntity
  8
LAYER_01
100
AcDbVertex
  6
BYLAYER
100
AcDb3dPolylineVertex
 10
-205.917051985645
 20
1324.48621568187
 30
8.81131704681586E-15
 70
0
  0
VERTEX
  5
945
100
AcDbEntity
  8
LAYER_01
100
AcDbVertex
  6
BYLAYER
100
AcDb3dPolylineVertex
 10
-202.328167280706
 20
1318.82004766765
 30
8.86329804102639E-15
 70
0
  0
VERTEX
  5
946
100
AcDbEntity
  8
LAYER_01
100
AcDbVertex
  6
BYLAYER
100
AcDb3dPolylineVertex
 10
-191.846190192733
 20
1301.43217516341
 30
8.84600901904216E-15
 70
0
  0
VERTEX
  5
947
100
AcDbEntity
  8
LAYER_01
100
AcDbVertex
  6
BYLAYER
100
AcDb3dPolylineVertex
 10
-186.799332241775
 20
1292.62551900532
 30
8.75346236370201E-15
 70
0
  0
VERTEX
  5
948
100
AcDbEntity
  8
LAYER_01
100
AcDbVertex
  6
BYLAYER
100
AcDb3dPolylineVertex
 10
-181.910441972144
 20
1283.72922084942
 30
8.7404814246195E-15
 70
0
  0
VERTEX
  5
949
100
AcDbEntity
  8
LAYER_01
100
AcDbVertex
  6
BYLAYER
100
AcDb3dPolylineVertex
 10
-177.300281539403
 20
1274.89584614196
 30
8.86624380231146E-15
 70
0
  0
VERTEX
  5
94A
100
AcDbEntity
  8
LAYER_01
100
AcDbVertex
  6
BYLAYER
100
AcDb3dPolylineVertex
 10
-175.091965646115
 20
1270.43105732803
 30
8.95510159442471E-15
 70
0
  0
VERTEX
  5
94B
100
AcDbEntity
  8
LAYER_01
100
AcDbVertex
  6
BYLAYER
100
AcDb3dPolylineVertex
 10
-172.965211071878
 20
1265.92790995006
 30
9.0402261943332E-15
 70
0
  0
VERTEX
  5
94C
100
AcDbEntity
  8
LAYER_01
100
AcDbVertex
  6
BYLAYER
100
AcDb3dPolylineVertex
 10
-170.892145523442
 20
1261.2953420962
 30
9.10987713193289E-15
 70
0
  0
VERTEX
  5
94D
100
AcDbEntity
  8
LAYER_01
100
AcDbVertex
  6
BYLAYER
100
AcDb3dPolylineVertex
 10
-168.914345449878
 20
1256.62049802305
 30
9.16104638868749E-15
 70
0
  0
VERTEX
  5
94E
100
AcDbEntity
  8
LAYER_01
100
AcDbVertex
  6
BYLAYER
100
AcDb3dPolylineVertex
 10
-167.029074774231
 20
1251.90584536364
 30
9.19552916070463E-15
 70
0
  0
VERTEX
  5
94F
100
AcDbEntity
  8
LAYER_01
100
AcDbVertex
  6
BYLAYER
100
AcDb3dPolylineVertex
 10
-165.233597419547
 20
1247.15385175096
 30
9.21512064409195E-15
 70
0
  0
VERTEX
  5
950
100
AcDbEntity
  8
LAYER_01
100
AcDbVertex
  6
BYLAYER
100
AcDb3dPolylineVertex
 10
-163.525177308869
 20
1242.36698481803
 30
9.22161603495709E-15
 70
0
  0
VERTEX
  5
951
100
AcDbEntity
  8
LAYER_01
100
AcDbVertex
  6
BYLAYER
100
AcDb3dPolylineVertex
 10
-161.901078365243
 20
1237.54771219785
 30
9.21681052940767E-15
 70
0
  0
VERTEX
  5
952
100
AcDbEntity
  8
LAYER_01
100
AcDbVertex
  6
BYLAYER
100
AcDb3dPolylineVertex
 10
-158.894899671323
 20
1227.8218204278
 30
9.18047761349572E-15
 70
0
  0
VERTEX
  5
953
100
AcDbEntity
  8
LAYER_01
100
AcDbVertex
  6
BYLAYER
100
AcDb3dPolylineVertex
 10
-156.193172722145
 20
1217.99591750487
 30
9.12048346521717E-15
 70
0
  0
VERTEX
  5
954
100
AcDbEntity
  8
LAYER_01
100
AcDbVertex
  6
BYLAYER
100
AcDb3dPolylineVertex
 10
-153.774008902064
 20
1208.08974449313
 30
9.05118965343308E-15
 70
0
  0
VERTEX
  5
955
100
AcDbEntity
  8
LAYER_01
100
AcDbVertex
  6
BYLAYER
100
AcDb3dPolylineVertex
 10
-151.615519595439
 20
1198.12304245665
 30
8.98695774700454E-15
 70
0
  0
VERTEX
  5
956
100
AcDbEntity
  8
LAYER_01
100
AcDbVertex
  6
BYLAYER
100
AcDb3dPolylineVertex
 10
-149.695816186627
 20
1188.1155524595
 30
8.9421493147926E-15
 70
0
  0
VERTEX
  5
957
100
AcDbEntity
  8
LAYER_01
100
AcDbVertex
  6
BYLAYER
100
AcDb3dPolylineVertex
 10
-147.165381053751
 20
1172.70303070404
 30
8.92978242654088E-15
 70
0
  0
VERTEX
  5
958
100
AcDbEntity
  8
LAYER_01
100
AcDbVertex
  6
BYLAYER
100
AcDb3dPolylineVertex
 10
-145.084030900779
 20
1157.24722430364
 30
8.96313892484401E-15
 70
0
  0
VERTEX
  5
959
100
AcDbEntity
  8
LAYER_01
100
AcDbVertex
  6
BYLAYER
100
AcDb3dPolylineVertex
 10
-143.389388958316
 20
1141.7544789381
 30
9.00827426745745E-15
 70
0
  0
VERTEX
  5
95A
100
AcDbEntity
  8
LAYER_01
100
AcDbVertex
  6
BYLAYER
100
AcDb3dPolylineVertex
 10
-137.740618678791
 20
1065.58591831433
 30
9.14333027450089E-15
 70
0
  0
VERTEX
  5
95B
100
AcDbEntity
  8
LAYER_01
100
AcDbVertex
  6
BYLAYER
100
AcDb3dPolylineVertex
 10
-135.760827297496
 20
1045.45339346727
 30
9.10504104060069E-15
 70
0
  0
VERTEX
  5
95C
100
AcDbEntity
  8
LAYER_01
100
AcDbVertex
  6
BYLAYER
100
AcDb3dPolylineVertex
 10
-134.432479081438
 20
1034.73707198643
 30
8.9407946999089E-15
 70
0
  0
VERTEX
  5
95D
100
AcDbEntity
  8
LAYER_01
100
AcDbVertex
  6
BYLAYER
100
AcDb3dPolylineVertex
 10
-132.848352617909
 20
1024.05732676755
 30
8.79993699617894E-15
 70
0
  0
VERTEX
  5
95E
100
AcDbEntity
  8
LAYER_01
100
AcDbVertex
  6
BYLAYER
100
AcDb3dPolylineVertex
 10
-131.04500343175
 20
1013.95504961609
 30
8.79561548026406E-15
 70
0
  0
VERTEX
  5
95F
100
AcDbEntity
  8
LAYER_01
100
AcDbVertex
  6
BYLAYER
100
AcDb3dPolylineVertex
 10
-130.008589982922
 20
1008.92794071261
 30
8.82388819862468E-15
 70
0
  0
VERTEX
  5
960
100
AcDbEntity
  8
LAYER_01
100
AcDbVertex
  6
BYLAYER
100
AcDb3dPolylineVertex
 10
-128.867375967161
 20
1003.91999300975
 30
8.85497824732549E-15
 70
0
  0
VERTEX
  5
961
100
AcDbEntity
  8
LAYER_01
100
AcDbVertex
  6
BYLAYER
100
AcDb3dPolylineVertex
 10
-127.115872900581
 20
997.111405338522
 30
8.88462866641914E-15
 70
0
  0
VERTEX
  5
962
100
AcDbEntity
  8
LAYER_01
100
AcDbVertex
  6
BYLAYER
100
AcDb3dPolylineVertex
 10
-126.147909973187
 20
993.73133861824
 30
8.89374416688375E-15
 70
0
  0
VERTEX
  5
963
100
AcDbEntity
  8
LAYER_01
100
AcDbVertex
  6
BYLAYER
100
AcDb3dPolylineVertex
 10
-125.112682674837
 20
990.372298185215
 30
8.89985455730507E-15
 70
0
  0
VERTEX
  5
964
100
AcDbEntity
  8
LAYER_01
100
AcDbVertex
  6
BYLAYER
100
AcDb3dPolylineVertex
 10
-124.005848424367
 20
987.037940197222
 30
8.90356085969178E-15
 70
0
  0
VERTEX
  5
965
100
AcDbEntity
  8
LAYER_01
100
AcDbVertex
  6
BYLAYER
100
AcDb3dPolylineVertex
 10
-122.823064640612
 20
983.731920812037
 30
8.90546409605252E-15
 70
0
  0
VERTEX
  5
966
100
AcDbEntity
  8
LAYER_01
100
AcDbVertex
  6
BYLAYER
100
AcDb3dPolylineVertex
 10
-121.559988742408
 20
980.457896187438
 30
8.90616528839596E-15
 70
0
  0
VERTEX
  5
967
100
AcDbEntity
  8
LAYER_01
100
AcDbVertex
  6
BYLAYER
100
AcDb3dPolylineVertex
 10
-120.212278148589
 20
977.2195224812
 30
8.90626545873073E-15
 70
0
  0
VERTEX
  5
968
100
AcDbEntity
  8
LAYER_01
100
AcDbVertex
  6
BYLAYER
100
AcDb3dPolylineVertex
 10
-118.80429658861
 20
974.077302326465
 30
8.90626545873073E-15
 70
0
  0
VERTEX
  5
969
100
AcDbEntity
  8
LAYER_01
100
AcDbVertex
  6
BYLAYER
100
AcDb3dPolylineVertex
 10
-117.31714811136
 20
970.971031969292
 30
8.90626545873073E-15
 70
0
  0
VERTEX
  5
96A
100
AcDbEntity
  8
LAYER_01
100
AcDbVertex
  6
BYLAYER
100
AcDb3dPolylineVertex
 10
-115.757439456746
 20
967.898769379176
 30
8.90626545873073E-15
 70
0
  0
VERTEX
  5
96B
100
AcDbEntity
  8
LAYER_01
100
AcDbVertex
  6
BYLAYER
100
AcDb3dPolylineVertex
 10
-114.131777364677
 20
964.858572525614
 30
8.90626545873073E-15
 70
0
  0
VERTEX
  5
96C
100
AcDbEntity
  8
LAYER_01
100
AcDbVertex
  6
BYLAYER
100
AcDb3dPolylineVertex
 10
-110.709019827803
 20
958.866607906143
 30
8.90626545873073E-15
 70
0
  0
VERTEX
  5
96D
100
AcDbEntity
  8
LAYER_01
100
AcDbVertex
  6
BYLAYER
100
AcDb3dPolylineVertex
 10
-107.101729420001
 20
952.979601866851
 30
8.90626545873073E-15
 70
0
  0
VERTEX
  5
96E
100
AcDbEntity
  8
LAYER_01
100
AcDbVertex
  6
BYLAYER
100
AcDb3dPolylineVertex
 10
-103.840918542091
 20
947.919840791985
 30
8.90636793089993E-15
 70
0
  0
VERTEX
  5
96F
100
AcDbEntity
  8
LAYER_01
100
AcDbVertex
  6
BYLAYER
100
AcDb3dPolylineVertex
 10
-100.484400290159
 20
942.926562213456
 30
8.90708523608435E-15
 70
0
  0
VERTEX
  5
970
100
AcDbEntity
  8
LAYER_01
100
AcDbVertex
  6
BYLAYER
100
AcDb3dPolylineVertex
 10
-97.03664478816
 20
937.998218727712
 30
8.90903220729919E-15
 70
0
  0
VERTEX
  5
971
100
AcDbEntity
  8
LAYER_01
100
AcDbVertex
  6
BYLAYER
100
AcDb3dPolylineVertex
 10
-93.5021221600495
 20
933.133262931202
 30
8.91282367755967E-15
 70
0
  0
VERTEX
  5
972
100
AcDbEntity
  8
LAYER_01
100
AcDbVertex
  6
BYLAYER
100
AcDb3dPolylineVertex
 10
-86.1906560213143
 20
923.587324791679
 30
8.92839944727841E-15
 70
0
  0
VERTEX
  5
973
100
AcDbEntity
  8
LAYER_01
100
AcDbVertex
  6
BYLAYER
100
AcDb3dPolylineVertex
 10
-78.5857628655943
 20
914.27636856648
 30
8.95873120936225E-15
 70
0
  0
VERTEX
  5
974
100
AcDbEntity
  8
LAYER_01
100
AcDbVertex
  6
BYLAYER
100
AcDb3dPolylineVertex
 10
-71.8282272990444
 20
906.42980990907
 30
8.99515292748839E-15
 70
0
  0
VERTEX
  5
975
100
AcDbEntity
  8
LAYER_01
100
AcDbVertex
  6
BYLAYER
100
AcDb3dPolylineVertex
 10
-64.916579958328
 20
898.718348426624
 30
9.01748991412781E-15
 70
0
  0
VERTEX
  5
976
100
AcDbEntity
  8
LAYER_01
100
AcDbVertex
  6
BYLAYER
100
AcDb3dPolylineVertex
 10
-23.0212934949223
 20
854.081948070831
 30
9.20094046168829E-15
 70
0
  0
VERTEX
  5
977
100
AcDbEntity
  8
LAYER_01
100
AcDbVertex
  6
BYLAYER
100
AcDb3dPolylineVertex
 10
-18.4815453556466
 20
848.883434645086
 30
9.22524802854946E-15
 70
0
  0
VERTEX
  5
978
100
AcDbEntity
  8
LAYER_01
100
AcDbVertex
  6
BYLAYER
100
AcDb3dPolylineVertex
 10
-14.0381335878808
 20
843.536948112532
 30
9.07458966069436E-15
 70
0
  0
VERTEX
  5
979
100
AcDbEntity
  8
LAYER_01
100
AcDbVertex
  6
BYLAYER
100
AcDb3dPolylineVertex
 10
-11.8835933386162
 20
840.810299830219
 30
8.97930092371697E-15
 70
0
  0
VERTEX
  5
97A
100
AcDbEntity
  8
LAYER_01
100
AcDbVertex
  6
BYLAYER
100
AcDb3dPolylineVertex
 10
-9.78531247361397
 20
838.041278991064
 30
8.90534369340284E-15
 70
0
  0
VERTEX
  5
97B
100
AcDbEntity
  8
LAYER_01
100
AcDbVertex
  6
BYLAYER
100
AcDb3dPolylineVertex
 10
-6.79784570491151
 20
833.868899725556
 30
8.86916584498826E-15
 70
0
  0
VERTEX
  5
97C
100
AcDbEntity
  8
LAYER_01
100
AcDbVertex
  6
BYLAYER
100
AcDb3dPolylineVertex
 10
-3.92513255050287
 20
829.614411960983
 30
8.89366330299959E-15
 70
0
  0
VERTEX
  5
97D
100
AcDbEntity
  8
LAYER_01
100
AcDbVertex
  6
BYLAYER
100
AcDb3dPolylineVertex
 10
1.58324110841868
 20
820.944836101869
 30
8.95444428089852E-15
 70
0
  0
VERTEX
  5
97E
100
AcDbEntity
  8
LAYER_01
100
AcDbVertex
  6
BYLAYER
100
AcDb3dPolylineVertex
 10
24.920978777688
 20
782.261845752546
 30
8.93549519318803E-15
 70
0
  0
VERTEX
  5
97F
100
AcDbEntity
  8
LAYER_01
100
AcDbVertex
  6
BYLAYER
100
AcDb3dPolylineVertex
 10
29.5071151686917
 20
775.215771357843
 30
8.97687500409336E-15
 70
0
  0
VERTEX
  5
980
100
AcDbEntity
  8
LAYER_01
100
AcDbVertex
  6
BYLAYER
100
AcDb3dPolylineVertex
 10
33.3650982924154
 20
769.637830842202
 30
8.93902285351586E-15
 70
0
  0
VERTEX
  5
981
100
AcDbEntity
  8
LAYER_01
100
AcDbVertex
  6
BYLAYER
100
AcDb3dPolylineVertex
 10
37.3916784576116
 20
764.174634183206
 30
8.90626545873073E-15
 70
0
  0
SEQEND
  5
982
100
AcDbEntity
  8
0
  0
CIRCLE
  5
1F3
100
AcDbEntity
  8
LAYER_01
100
AcDbCircle
370
-1
  6
BYLAYER
 10
-47.3873215082674
 20
827.130155634673
 30
0
 40
6.78787304840467
  0
CIRCLE
  5
1F4
100
AcDbEntity
  8
LAYER_01
100
AcDbCircle
370
-1
  6
BYLAYER
 10
-182.378585693776
 20
1207.30963436121
 30
0
 40
6.78787304840467
  0
POLYLINE
  5
1F5
100
AcDbEntity
  8
LAYER_01
100
AcDb3dPolyline
370
-1
  6
BYLAYER
 66
1
 10
0
 20
0
 30
0
 70
0
 40
0
 41
0
  0
VERTEX
  5
983
100
AcDbEntity
  8
LAYER_01
100
AcDbVertex
  6
BYLAYER
100
AcDb3dPolylineVertex
 10
-355.687765770859
 20
1089.44326491173
 30
7.76047576330207E-18
 70
0
  0
VERTEX
  5
984
100
AcDbEntity
  8
LAYER_01
100
AcDbVertex
  6
BYLAYER
100
AcDb3dPolylineVertex
 10
-354.83681833558
 20
1089.71314345318
 30
2.32597118594077E-16
 70
0
  0
VERTEX
  5
985
100
AcDbEntity
  8
LAYER_01
100
AcDbVertex
  6
BYLAYER
100
AcDb3dPolylineVertex
 10
-353.980009058813
 20
1089.9561983526
 30
9.65753015491855E-16
 70
0
  0
VERTEX
  5
986
100
AcDbEntity
  8
LAYER_01
100
AcDbVertex
  6
BYLAYER
100
AcDb3dPolylineVertex
 10
-353.117737108822
 20
1090.17317840366
 30
2.07945527021085E-15
 70
0
  0
VERTEX
  5
987
100
AcDbEntity
  8
LAYER_01
100
AcDbVertex
  6
BYLAYER
100
AcDb3dPolylineVertex
 10
-352.25040165387
 20
1090.36483240004
 30
3.44593098650527E-15
 70
0
  0
VERTEX
  5
988
100
AcDbEntity
  8
LAYER_01
100
AcDbVertex
  6
BYLAYER
100
AcDb3dPolylineVertex
 10
-351.378401862222
 20
1090.5319091354
 30
4.93740726812933E-15
 70
0
  0
VERTEX
  5
989
100
AcDbEntity
  8
LAYER_01
100
AcDbVertex
  6
BYLAYER
100
AcDb3dPolylineVertex
 10
-350.502136902141
 20
1090.67515740344
 30
6.42611121883725E-15
 70
0
  0
VERTEX
  5
98A
100
AcDbEntity
  8
LAYER_01
100
AcDbVertex
  6
BYLAYER
100
AcDb3dPolylineVertex
 10
-349.62200594189
 20
1090.79532599782
 30
7.78426994238324E-15
 70
0
  0
VERTEX
  5
98B
100
AcDbEntity
  8
LAYER_01
100
AcDbVertex
  6
BYLAYER
100
AcDb3dPolylineVertex
 10
-348.738408149734
 20
1090.89316371221
 30
8.88411054252151E-15
 70
0
  0
VERTEX
  5
98C
100
AcDbEntity
  8
LAYER_01
100
AcDbVertex
  6
BYLAYER
100
AcDb3dPolylineVertex
 10
-347.895139933649
 20
1090.96586310366
 30
9.60054634592636E-15
 70
0
  0
VERTEX
  5
98D
100
AcDbEntity
  8
LAYER_01
100
AcDbVertex
  6
BYLAYER
100
AcDb3dPolylineVertex
 10
-347.049947733676
 20
1091.01772163833
 30
1.00173533134913E-14
 70
0
  0
VERTEX
  5
98E
100
AcDbEntity
  8
LAYER_01
100
AcDbVertex
  6
BYLAYER
100
AcDb3dPolylineVertex
 10
-346.203683275
 20
1091.04742654325
 30
1.01842487148851E-14
 70
0
  0
VERTEX
  5
98F
100
AcDbEntity
  8
LAYER_01
100
AcDbVertex
  6
BYLAYER
100
AcDb3dPolylineVertex
 10
-345.357198282809
 20
1091.05366504549
 30
1.01509498197766E-14
 70
0
  0
VERTEX
  5
990
100
AcDbEntity
  8
LAYER_01
100
AcDbVertex
  6
BYLAYER
100
AcDb3dPolylineVertex
 10
-344.511344482285
 20
1091.03512437208
 30
9.96717389783469E-15
 70
0
  0
VERTEX
  5
991
100
AcDbEntity
  8
LAYER_01
100
AcDbVertex
  6
BYLAYER
100
AcDb3dPolylineVertex
 10
-343.666973598616
 20
1090.99049175008
 30
9.6826382187282E-15
 70
0
  0
VERTEX
  5
992
100
AcDbEntity
  8
LAYER_01
100
AcDbVertex
  6
BYLAYER
100
AcDb3dPolylineVertex
 10
-342.824937356987
 20
1090.91845440654
 30
9.34706005212597E-15
 70
0
  0
VERTEX
  5
993
100
AcDbEntity
  8
LAYER_01
100
AcDbVertex
  6
BYLAYER
100
AcDb3dPolylineVertex
 10
-342.405060891058
 20
1090.87174872265
 30
9.17566668278546E-15
 70
0
  0
VERTEX
  5
994
100
AcDbEntity
  8
LAYER_01
100
AcDbVertex
  6
BYLAYER
100
AcDb3dPolylineVertex
 10
-341.986087482583
 20
1090.81769956851
 30
9.01015666769682E-15
 70
0
  0
VERTEX
  5
995
100
AcDbEntity
  8
LAYER_01
100
AcDbVertex
  6
BYLAYER
100
AcDb3dPolylineVertex
 10
-341.366788031505
 20
1090.72384655811
 30
8.78531755557285E-15
 70
0
  0
VERTEX
  5
996
100
AcDbEntity
  8
LAYER_01
100
AcDbVertex
  6
BYLAYER
100
AcDb3dPolylineVertex
 10
-340.749896415989
 20
1090.61382179781
 30
8.58595763532638E-15
 70
0
  0
VERTEX
  5
997
100
AcDbEntity
  8
LAYER_01
100
AcDbVertex
  6
BYLAYER
100
AcDb3dPolylineVertex
 10
-340.135601489773
 20
1090.48795554187
 30
8.41096406657094E-15
 70
0
  0
VERTEX
  5
998
100
AcDbEntity
  8
LAYER_01
100
AcDbVertex
  6
BYLAYER
100
AcDb3dPolylineVertex
 10
-339.524092106591
 20
1090.34657804455
 30
8.25922400892006E-15
 70
0
  0
VERTEX
  5
999
100
AcDbEntity
  8
LAYER_01
100
AcDbVertex
  6
BYLAYER
100
AcDb3dPolylineVertex
 10
-338.915557120179
 20
1090.19001956011
 30
8.1296246219873E-15
 70
0
  0
VERTEX
  5
99A
100
AcDbEntity
  8
LAYER_01
100
AcDbVertex
  6
BYLAYER
100
AcDb3dPolylineVertex
 10
-338.310185384271
 20
1090.01861034282
 30
8.02105306538617E-15
 70
0
  0
VERTEX
  5
99B
100
AcDbEntity
  8
LAYER_01
100
AcDbVertex
  6
BYLAYER
100
AcDb3dPolylineVertex
 10
-337.708165752604
 20
1089.83268064692
 30
7.93239649873024E-15
 70
0
  0
VERTEX
  5
99C
100
AcDbEntity
  8
LAYER_01
100
AcDbVertex
  6
BYLAYER
100
AcDb3dPolylineVertex
 10
-337.109687078912
 20
1089.63256072668
 30
7.86254208163303E-15
 70
0
  0
VERTEX
  5
99D
100
AcDbEntity
  8
LAYER_01
100
AcDbVertex
  6
BYLAYER
100
AcDb3dPolylineVertex
 10
-336.514938216931
 20
1089.41858083637
 30
7.81037697370807E-15
 70
0
  0
VERTEX
  5
99E
100
AcDbEntity
  8
LAYER_01
100
AcDbVertex
  6
BYLAYER
100
AcDb3dPolylineVertex
 10
-335.924108020396
 20
1089.19107123023
 30
7.77478833456892E-15
 70
0
  0
VERTEX
  5
99F
100
AcDbEntity
  8
LAYER_01
100
AcDbVertex
  6
BYLAYER
100
AcDb3dPolylineVertex
 10
-335.337385343042
 20
1088.95036216254
 30
7.7546633238291E-15
 70
0
  0
VERTEX
  5
9A0
100
AcDbEntity
  8
LAYER_01
100
AcDbVertex
  6
BYLAYER
100
AcDb3dPolylineVertex
 10
-334.754959038605
 20
1088.69678388754
 30
7.74888910110216E-15
 70
0
  0
VERTEX
  5
9A1
100
AcDbEntity
  8
LAYER_01
100
AcDbVertex
  6
BYLAYER
100
AcDb3dPolylineVertex
 10
-334.17701796082
 20
1088.43066665951
 30
7.75635282600164E-15
 70
0
  0
VERTEX
  5
9A2
100
AcDbEntity
  8
LAYER_01
100
AcDbVertex
  6
BYLAYER
100
AcDb3dPolylineVertex
 10
-333.603750963423
 20
1088.15234073269
 30
7.77594165814107E-15
 70
0
  0
VERTEX
  5
9A3
100
AcDbEntity
  8
LAYER_01
100
AcDbVertex
  6
BYLAYER
100
AcDb3dPolylineVertex
 10
-333.035346900148
 20
1087.86213636135
 30
7.80654275713399E-15
 70
0
  0
VERTEX
  5
9A4
100
AcDbEntity
  8
LAYER_01
100
AcDbVertex
  6
BYLAYER
100
AcDb3dPolylineVertex
 10
-332.471994624731
 20
1087.56038379976
 30
7.84704328259393E-15
 70
0
  0
VERTEX
  5
9A5
100
AcDbEntity
  8
LAYER_01
100
AcDbVertex
  6
BYLAYER
100
AcDb3dPolylineVertex
 10
-331.913882990908
 20
1087.24741330216
 30
7.89633039413445E-15
 70
0
  0
VERTEX
  5
9A6
100
AcDbEntity
  8
LAYER_01
100
AcDbVertex
  6
BYLAYER
100
AcDb3dPolylineVertex
 10
-331.361200852413
 20
1086.92355512282
 30
7.95329125136908E-15
 70
0
  0
VERTEX
  5
9A7
100
AcDbEntity
  8
LAYER_01
100
AcDbVertex
  6
BYLAYER
100
AcDb3dPolylineVertex
 10
-330.814137062982
 20
1086.589139516
 30
8.01681301391134E-15
 70
0
  0
VERTEX
  5
9A8
100
AcDbEntity
  8
LAYER_01
100
AcDbVertex
  6
BYLAYER
100
AcDb3dPolylineVertex
 10
-330.272880476351
 20
1086.24449673597
 30
8.0857828413748E-15
 70
0
  0
VERTEX
  5
9A9
100
AcDbEntity
  8
LAYER_01
100
AcDbVertex
  6
BYLAYER
100
AcDb3dPolylineVertex
 10
-329.737619946254
 20
1085.88995703696
 30
8.15908789337297E-15
 70
0
  0
VERTEX
  5
9AA
100
AcDbEntity
  8
LAYER_01
100
AcDbVertex
  6
BYLAYER
100
AcDb3dPolylineVertex
 10
-329.208544326427
 20
1085.52585067326
 30
8.2356153295194E-15
 70
0
  0
VERTEX
  5
9AB
100
AcDbEntity
  8
LAYER_01
100
AcDbVertex
  6
BYLAYER
100
AcDb3dPolylineVertex
 10
-328.169703232523
 20
1084.7702589688
 30
8.3938859927112E-15
 70
0
  0
VERTEX
  5
9AC
100
AcDbEntity
  8
LAYER_01
100
AcDbVertex
  6
BYLAYER
100
AcDb3dPolylineVertex
 10
-327.157868024523
 20
1083.98036365665
 30
8.5516921078585E-15
 70
0
  0
VERTEX
  5
9AD
100
AcDbEntity
  8
LAYER_01
100
AcDbVertex
  6
BYLAYER
100
AcDb3dPolylineVertex
 10
-326.174549532309
 20
1083.15880677089
 30
8.70013095186962E-15
 70
0
  0
VERTEX
  5
9AE
100
AcDbEntity
  8
LAYER_01
100
AcDbVertex
  6
BYLAYER
100
AcDb3dPolylineVertex
 10
-325.221258585764
 20
1082.3082303456
 30
8.83029980165284E-15
 70
0
  0
VERTEX
  5
9AF
100
AcDbEntity
  8
LAYER_01
100
AcDbVertex
  6
BYLAYER
100
AcDb3dPolylineVertex
 10
-324.299506014769
 20
1081.43127641487
 30
8.93329593411649E-15
 70
0
  0
VERTEX
  5
9B0
100
AcDbEntity
  8
LAYER_01
100
AcDbVertex
  6
BYLAYER
100
AcDb3dPolylineVertex
 10
-323.708172929082
 20
1080.83845308818
 30
8.98278686882515E-15
 70
0
  0
VERTEX
  5
9B1
100
AcDbEntity
  8
LAYER_01
100
AcDbVertex
  6
BYLAYER
100
AcDb3dPolylineVertex
 10
-323.130604436078
 20
1080.23574923568
 30
9.01795667509181E-15
 70
0
  0
VERTEX
  5
9B2
100
AcDbEntity
  8
LAYER_01
100
AcDbVertex
  6
BYLAYER
100
AcDb3dPolylineVertex
 10
-322.566129240358
 20
1079.62365198196
 30
9.04024197155456E-15
 70
0
  0
VERTEX
  5
9B3
100
AcDbEntity
  8
LAYER_01
100
AcDbVertex
  6
BYLAYER
100
AcDb3dPolylineVertex
 10
-322.014076046519
 20
1079.00264845162
 30
9.05107937685151E-15
 70
0
  0
VERTEX
  5
9B4
100
AcDbEntity
  8
LAYER_01
100
AcDbVertex
  6
BYLAYER
100
AcDb3dPolylineVertex
 10
-320.94455048288
 20
1077.73587105945
 30
9.04415698850038E-15
 70
0
  0
VERTEX
  5
9B5
100
AcDbEntity
  8
LAYER_01
100
AcDbVertex
  6
BYLAYER
100
AcDb3dPolylineVertex
 10
-319.916657381952
 20
1076.43931405596
 30
9.00868245914323E-15
 70
0
  0
VERTEX
  5
9B6
100
AcDbEntity
  8
LAYER_01
100
AcDbVertex
  6
BYLAYER
100
AcDb3dPolylineVertex
 10
-318.925026380522
 20
1075.11687443791
 30
8.95614873788482E-15
 70
0
  0
VERTEX
  5
9B7
100
AcDbEntity
  8
LAYER_01
100
AcDbVertex
  6
BYLAYER
100
AcDb3dPolylineVertex
 10
-317.964287115381
 20
1073.77244920208
 30
8.89804877382997E-15
 70
0
  0
VERTEX
  5
9B8
100
AcDbEntity
  8
LAYER_01
100
AcDbVertex
  6
BYLAYER
100
AcDb3dPolylineVertex
 10
-316.114002341119
 20
1071.03322986418
 30
8.81112191375006E-15
 70
0
  0
VERTEX
  5
9B9
100
AcDbEntity
  8
LAYER_01
100
AcDbVertex
  6
BYLAYER
100
AcDb3dPolylineVertex
 10
-312.52511763618
 20
1065.36706184996
 30
8.86310290796059E-15
 70
0
  0
VERTEX
  5
9BA
100
AcDbEntity
  8
LAYER_01
100
AcDbVertex
  6
BYLAYER
100
AcDb3dPolylineVertex
 10
-302.043140548207
 20
1047.97918934572
 30
8.84581388597635E-15
 70
0
  0
VERTEX
  5
9BB
100
AcDbEntity
  8
LAYER_01
100
AcDbVertex
  6
BYLAYER
100
AcDb3dPolylineVertex
 10
-296.996282597249
 20
1039.17253318763
 30
8.75326723063621E-15
 70
0
  0
VERTEX
  5
9BC
100
AcDbEntity
  8
LAYER_01
100
AcDbVertex
  6
BYLAYER
100
AcDb3dPolylineVertex
 10
-292.107392327618
 20
1030.27623503173
 30
8.7402862915537E-15
 70
0
  0
VERTEX
  5
9BD
100
AcDbEntity
  8
LAYER_01
100
AcDbVertex
  6
BYLAYER
100
AcDb3dPolylineVertex
 10
-287.497231894877
 20
1021.44286032427
 30
8.86604866924566E-15
 70
0
  0
VERTEX
  5
9BE
100
AcDbEntity
  8
LAYER_01
100
AcDbVertex
  6
BYLAYER
100
AcDb3dPolylineVertex
 10
-285.28891600159
 20
1016.97807151034
 30
8.9549064613589E-15
 70
0
  0
VERTEX
  5
9BF
100
AcDbEntity
  8
LAYER_01
100
AcDbVertex
  6
BYLAYER
100
AcDb3dPolylineVertex
 10
-283.162161427352
 20
1012.47492413237
 30
9.04003106126739E-15
 70
0
  0
VERTEX
  5
9C0
100
AcDbEntity
  8
LAYER_01
100
AcDbVertex
  6
BYLAYER
100
AcDb3dPolylineVertex
 10
-281.089095878916
 20
1007.84235627851
 30
9.10968199886708E-15
 70
0
  0
VERTEX
  5
9C1
100
AcDbEntity
  8
LAYER_01
100
AcDbVertex
  6
BYLAYER
100
AcDb3dPolylineVertex
 10
-279.111295805352
 20
1003.16751220536
 30
9.16085125562168E-15
 70
0
  0
VERTEX
  5
9C2
100
AcDbEntity
  8
LAYER_01
100
AcDbVertex
  6
BYLAYER
100
AcDb3dPolylineVertex
 10
-277.226025129705
 20
998.452859545947
 30
9.19533402763882E-15
 70
0
  0
VERTEX
  5
9C3
100
AcDbEntity
  8
LAYER_01
100
AcDbVertex
  6
BYLAYER
100
AcDb3dPolylineVertex
 10
-275.430547775021
 20
993.70086593327
 30
9.21492551102615E-15
 70
0
  0
VERTEX
  5
9C4
100
AcDbEntity
  8
LAYER_01
100
AcDbVertex
  6
BYLAYER
100
AcDb3dPolylineVertex
 10
-273.722127664343
 20
988.913999000339
 30
9.22142090189128E-15
 70
0
  0
VERTEX
  5
9C5
100
AcDbEntity
  8
LAYER_01
100
AcDbVertex
  6
BYLAYER
100
AcDb3dPolylineVertex
 10
-272.098028720717
 20
984.094726380163
 30
9.21661539634187E-15
 70
0
  0
VERTEX
  5
9C6
100
AcDbEntity
  8
LAYER_01
100
AcDbVertex
  6
BYLAYER
100
AcDb3dPolylineVertex
 10
-269.091850026797
 20
974.36883461011
 30
9.18028248042991E-15
 70
0
  0
VERTEX
  5
9C7
100
AcDbEntity
  8
LAYER_01
100
AcDbVertex
  6
BYLAYER
100
AcDb3dPolylineVertex
 10
-266.390123077619
 20
964.542931687178
 30
9.12028833215136E-15
 70
0
  0
VERTEX
  5
9C8
100
AcDbEntity
  8
LAYER_01
100
AcDbVertex
  6
BYLAYER
100
AcDb3dPolylineVertex
 10
-263.970959257538
 20
954.636758675438
 30
9.05099452036728E-15
 70
0
  0
VERTEX
  5
9C9
100
AcDbEntity
  8
LAYER_01
100
AcDbVertex
  6
BYLAYER
100
AcDb3dPolylineVertex
 10
-261.812469950913
 20
944.670056638957
 30
8.98676261393873E-15
 70
0
  0
VERTEX
  5
9CA
100
AcDbEntity
  8
LAYER_01
100
AcDbVertex
  6
BYLAYER
100
AcDb3dPolylineVertex
 10
-259.892766542101
 20
934.662566641804
 30
8.9419541817268E-15
 70
0
  0
VERTEX
  5
9CB
100
AcDbEntity
  8
LAYER_01
100
AcDbVertex
  6
BYLAYER
100
AcDb3dPolylineVertex
 10
-257.362331409225
 20
919.25004488635
 30
8.92958729347508E-15
 70
0
  0
VERTEX
  5
9CC
100
AcDbEntity
  8
LAYER_01
100
AcDbVertex
  6
BYLAYER
100
AcDb3dPolylineVertex
 10
-255.280981256253
 20
903.794238485947
 30
8.96294379177821E-15
 70
0
  0
VERTEX
  5
9CD
100
AcDbEntity
  8
LAYER_01
100
AcDbVertex
  6
BYLAYER
100
AcDb3dPolylineVertex
 10
-253.58633931379
 20
888.301493120409
 30
9.00807913439165E-15
 70
0
  0
VERTEX
  5
9CE
100
AcDbEntity
  8
LAYER_01
100
AcDbVertex
  6
BYLAYER
100
AcDb3dPolylineVertex
 10
-247.937569034265
 20
812.132932496643
 30
9.14313514143508E-15
 70
0
  0
VERTEX
  5
9CF
100
AcDbEntity
  8
LAYER_01
100
AcDbVertex
  6
BYLAYER
100
AcDb3dPolylineVertex
 10
-245.95777765297
 20
792.000407649581
 30
9.10484590753489E-15
 70
0
  0
VERTEX
  5
9D0
100
AcDbEntity
  8
LAYER_01
100
AcDbVertex
  6
BYLAYER
100
AcDb3dPolylineVertex
 10
-244.629429436912
 20
781.284086168737
 30
8.9405995668431E-15
 70
0
  0
VERTEX
  5
9D1
100
AcDbEntity
  8
LAYER_01
100
AcDbVertex
  6
BYLAYER
100
AcDb3dPolylineVertex
 10
-243.045302973382
 20
770.604340949863
 30
8.79974186311313E-15
 70
0
  0
VERTEX
  5
9D2
100
AcDbEntity
  8
LAYER_01
100
AcDbVertex
  6
BYLAYER
100
AcDb3dPolylineVertex
 10
-241.241953787224
 20
760.502063798402
 30
8.79542034719825E-15
 70
0
  0
VERTEX
  5
9D3
100
AcDbEntity
  8
LAYER_01
100
AcDbVertex
  6
BYLAYER
100
AcDb3dPolylineVertex
 10
-240.205540338396
 20
755.474954894923
 30
8.82369306555888E-15
 70
0
  0
VERTEX
  5
9D4
100
AcDbEntity
  8
LAYER_01
100
AcDbVertex
  6
BYLAYER
100
AcDb3dPolylineVertex
 10
-239.064326322635
 20
750.467007192057
 30
8.85478311425968E-15
 70
0
  0
VERTEX
  5
9D5
100
AcDbEntity
  8
LAYER_01
100
AcDbVertex
  6
BYLAYER
100
AcDb3dPolylineVertex
 10
-237.312823256055
 20
743.658419520831
 30
8.88443353335334E-15
 70
0
  0
VERTEX
  5
9D6
100
AcDbEntity
  8
LAYER_01
100
AcDbVertex
  6
BYLAYER
100
AcDb3dPolylineVertex
 10
-236.344860328661
 20
740.278352800549
 30
8.89354903381794E-15
 70
0
  0
VERTEX
  5
9D7
100
AcDbEntity
  8
LAYER_01
100
AcDbVertex
  6
BYLAYER
100
AcDb3dPolylineVertex
 10
-235.309633030311
 20
736.919312367524
 30
8.89965942423927E-15
 70
0
  0
VERTEX
  5
9D8
100
AcDbEntity
  8
LAYER_01
100
AcDbVertex
  6
BYLAYER
100
AcDb3dPolylineVertex
 10
-234.202798779841
 20
733.584954379531
 30
8.90336572662598E-15
 70
0
  0
VERTEX
  5
9D9
100
AcDbEntity
  8
LAYER_01
100
AcDbVertex
  6
BYLAYER
100
AcDb3dPolylineVertex
 10
-233.020014996086
 20
730.278934994346
 30
8.90526896298672E-15
 70
0
  0
VERTEX
  5
9DA
100
AcDbEntity
  8
LAYER_01
100
AcDbVertex
  6
BYLAYER
100
AcDb3dPolylineVertex
 10
-231.756939097882
 20
727.004910369747
 30
8.90597015533015E-15
 70
0
  0
VERTEX
  5
9DB
100
AcDbEntity
  8
LAYER_01
100
AcDbVertex
  6
BYLAYER
100
AcDb3dPolylineVertex
 10
-230.409228504063
 20
723.766536663509
 30
8.90607032566493E-15
 70
0
  0
VERTEX
  5
9DC
100
AcDbEntity
  8
LAYER_01
100
AcDbVertex
  6
BYLAYER
100
AcDb3dPolylineVertex
 10
-229.001246944084
 20
720.624316508774
 30
8.90607032566493E-15
 70
0
  0
VERTEX
  5
9DD
100
AcDbEntity
  8
LAYER_01
100
AcDbVertex
  6
BYLAYER
100
AcDb3dPolylineVertex
 10
-227.514098466834
 20
717.518046151601
 30
8.90607032566493E-15
 70
0
  0
VERTEX
  5
9DE
100
AcDbEntity
  8
LAYER_01
100
AcDbVertex
  6
BYLAYER
100
AcDb3dPolylineVertex
 10
-225.95438981222
 20
714.445783561485
 30
8.90607032566493E-15
 70
0
  0
VERTEX
  5
9DF
100
AcDbEntity
  8
LAYER_01
100
AcDbVertex
  6
BYLAYER
100
AcDb3dPolylineVertex
 10
-224.328727720151
 20
711.405586707923
 30
8.90607032566493E-15
 70
0
  0
VERTEX
  5
9E0
100
AcDbEntity
  8
LAYER_01
100
AcDbVertex
  6
BYLAYER
100
AcDb3dPolylineVertex
 10
-220.905970183277
 20
705.413622088452
 30
8.90607032566493E-15
 70
0
  0
VERTEX
  5
9E1
100
AcDbEntity
  8
LAYER_01
100
AcDbVertex
  6
BYLAYER
100
AcDb3dPolylineVertex
 10
-217.298679775475
 20
699.52661604916
 30
8.90607032566493E-15
 70
0
  0
VERTEX
  5
9E2
100
AcDbEntity
  8
LAYER_01
100
AcDbVertex
  6
BYLAYER
100
AcDb3dPolylineVertex
 10
-214.037868897565
 20
694.466854974294
 30
8.90617279783413E-15
 70
0
  0
VERTEX
  5
9E3
100
AcDbEntity
  8
LAYER_01
100
AcDbVertex
  6
BYLAYER
100
AcDb3dPolylineVertex
 10
-210.681350645633
 20
689.473576395765
 30
8.90689010301855E-15
 70
0
  0
VERTEX
  5
9E4
100
AcDbEntity
  8
LAYER_01
100
AcDbVertex
  6
BYLAYER
100
AcDb3dPolylineVertex
 10
-207.233595143634
 20
684.545232910021
 30
8.90883707423339E-15
 70
0
  0
VERTEX
  5
9E5
100
AcDbEntity
  8
LAYER_01
100
AcDbVertex
  6
BYLAYER
100
AcDb3dPolylineVertex
 10
-203.699072515523
 20
679.680277113511
 30
8.91262854449387E-15
 70
0
  0
VERTEX
  5
9E6
100
AcDbEntity
  8
LAYER_01
100
AcDbVertex
  6
BYLAYER
100
AcDb3dPolylineVertex
 10
-196.387606376788
 20
670.134338973989
 30
8.9282043142126E-15
 70
0
  0
VERTEX
  5
9E7
100
AcDbEntity
  8
LAYER_01
100
AcDbVertex
  6
BYLAYER
100
AcDb3dPolylineVertex
 10
-188.782713221068
 20
660.823382748789
 30
8.95853607629645E-15
 70
0
  0
VERTEX
  5
9E8
100
AcDbEntity
  8
LAYER_01
100
AcDbVertex
  6
BYLAYER
100
AcDb3dPolylineVertex
 10
-182.025177654518
 20
652.976824091379
 30
8.99495779442259E-15
 70
0
  0
VERTEX
  5
9E9
100
AcDbEntity
  8
LAYER_01
100
AcDbVertex
  6
BYLAYER
100
AcDb3dPolylineVertex
 10
-175.113530313802
 20
645.265362608933
 30
9.01729478106201E-15
 70
0
  0
VERTEX
  5
9EA
100
AcDbEntity
  8
LAYER_01
100
AcDbVertex
  6
BYLAYER
100
AcDb3dPolylineVertex
 10
-133.218243850397
 20
600.62896225314
 30
9.20074532862248E-15
 70
0
  0
VERTEX
  5
9EB
100
AcDbEntity
  8
LAYER_01
100
AcDbVertex
  6
BYLAYER
100
AcDb3dPolylineVertex
 10
-128.678495711121
 20
595.430448827395
 30
9.22505289548365E-15
 70
0
  0
VERTEX
  5
9EC
100
AcDbEntity
  8
LAYER_01
100
AcDbVertex
  6
BYLAYER
100
AcDb3dPolylineVertex
 10
-124.235083943355
 20
590.083962294841
 30
9.07439452762855E-15
 70
0
  0
VERTEX
  5
9ED
100
AcDbEntity
  8
LAYER_01
100
AcDbVertex
  6
BYLAYER
100
AcDb3dPolylineVertex
 10
-122.08054369409
 20
587.357314012528
 30
8.97910579065116E-15
 70
0
  0
VERTEX
  5
9EE
100
AcDbEntity
  8
LAYER_01
100
AcDbVertex
  6
BYLAYER
100
AcDb3dPolylineVertex
 10
-119.982262829088
 20
584.588293173373
 30
8.90514856033702E-15
 70
0
  0
VERTEX
  5
9EF
100
AcDbEntity
  8
LAYER_01
100
AcDbVertex
  6
BYLAYER
100
AcDb3dPolylineVertex
 10
-116.994796060385
 20
580.415913907865
 30
8.86897071192246E-15
 70
0
  0
VERTEX
  5
9F0
100
AcDbEntity
  8
LAYER_01
100
AcDbVertex
  6
BYLAYER
100
AcDb3dPolylineVertex
 10
-114.122082905977
 20
576.161426143292
 30
8.89346816993379E-15
 70
0
  0
VERTEX
  5
9F1
100
AcDbEntity
  8
LAYER_01
100
AcDbVertex
  6
BYLAYER
100
AcDb3dPolylineVertex
 10
-108.613709247056
 20
567.491850284178
 30
8.95424914783272E-15
 70
0
  0
VERTEX
  5
9F2
100
AcDbEntity
  8
LAYER_01
100
AcDbVertex
  6
BYLAYER
100
AcDb3dPolylineVertex
 10
-85.2759715777859
 20
528.808859934856
 30
8.90867639220353E-15
 70
0
  0
VERTEX
  5
9F3
100
AcDbEntity
  8
LAYER_01
100
AcDbVertex
  6
BYLAYER
100
AcDb3dPolylineVertex
 10
-80.6898351867822
 20
521.762785540152
 30
8.91357191744249E-15
 70
0
  0
VERTEX
  5
9F4
100
AcDbEntity
  8
LAYER_01
100
AcDbVertex
  6
BYLAYER
100
AcDb3dPolylineVertex
 10
-76.8318520630585
 20
516.184845024511
 30
8.83508497001713E-15
 70
0
  0
VERTEX
  5
9F5
100
AcDbEntity
  8
LAYER_01
100
AcDbVertex
  6
BYLAYER
100
AcDb3dPolylineVertex
 10
-72.8052718978623
 20
510.721648365515
 30
8.77775501513941E-15
 70
0
  0
VERTEX
  5
9F6
100
AcDbEntity
  8
LAYER_01
100
AcDbVertex
  6
BYLAYER
100
AcDb3dPolylineVertex
 10
-70.756950106361
 20
508.088731563022
 30
8.78969878779092E-15
 70
0
  0
VERTEX
  5
9F7
100
AcDbEntity
  8
LAYER_01
100
AcDbVertex
  6
BYLAYER
100
AcDb3dPolylineVertex
 10
-68.6470126194306
 20
505.50589688741
 30
8.82204571245588E-15
 70
0
  0
VERTEX
  5
9F8
100
AcDbEntity
  8
LAYER_01
100
AcDbVertex
  6
BYLAYER
100
AcDb3dPolylineVertex
 10
-66.4600332921548
 20
502.991221737246
 30
8.86064876229856E-15
 70
0
  0
VERTEX
  5
9F9
100
AcDbEntity
  8
LAYER_01
100
AcDbVertex
  6
BYLAYER
100
AcDb3dPolylineVertex
 10
-65.3328322681011
 20
501.765093171258
 30
8.87787538827537E-15
 70
0
  0
VERTEX
  5
9FA
100
AcDbEntity
  8
LAYER_01
100
AcDbVertex
  6
BYLAYER
100
AcDb3dPolylineVertex
 10
-64.1805859796173
 20
500.562783511095
 30
8.89136091048319E-15
 70
0
  0
VERTEX
  5
9FB
100
AcDbEntity
  8
LAYER_01
100
AcDbVertex
  6
BYLAYER
100
AcDb3dPolylineVertex
 10
-63.0014468562642
 20
499.385148098915
 30
8.89928438724389E-15
 70
0
  0
VERTEX
  5
9FC
100
AcDbEntity
  8
LAYER_01
100
AcDbVertex
  6
BYLAYER
100
AcDb3dPolylineVertex
 10
-61.798108630147
 20
498.23160373518
 30
8.89958841763722E-15
 70
0
  0
VERTEX
  5
9FD
100
AcDbEntity
  8
LAYER_01
100
AcDbVertex
  6
BYLAYER
100
AcDb3dPolylineVertex
 10
-59.3300608316909
 20
495.988714036262
 30
8.86892447662503E-15
 70
0
  0
VERTEX
  5
9FE
100
AcDbEntity
  8
LAYER_01
100
AcDbVertex
  6
BYLAYER
100
AcDb3dPolylineVertex
 10
-58.0683998527039
 20
494.895175381369
 30
8.8356596881471E-15
 70
0
  0
VERTEX
  5
9FF
100
AcDbEntity
  8
LAYER_01
100
AcDbVertex
  6
BYLAYER
100
AcDb3dPolylineVertex
 10
-56.7875745405885
 20
493.824656980484
 30
8.79809252489527E-15
 70
0
  0
VERTEX
  5
A00
100
AcDbEntity
  8
LAYER_01
100
AcDbVertex
  6
BYLAYER
100
AcDb3dPolylineVertex
 10
-55.4842385349022
 20
492.782099804051
 30
8.76588415196626E-15
 70
0
  0
VERTEX
  5
A01
100
AcDbEntity
  8
LAYER_01
100
AcDbVertex
  6
BYLAYER
100
AcDb3dPolylineVertex
 10
-54.1550454752023
 20
491.772444822517
 30
8.74869573445682E-15
 70
0
  0
VERTEX
  5
A02
100
AcDbEntity
  8
LAYER_01
100
AcDbVertex
  6
BYLAYER
100
AcDb3dPolylineVertex
 10
-52.8183496207105
 20
490.815103388201
 30
8.75282482401833E-15
 70
0
  0
VERTEX
  5
A03
100
AcDbEntity
  8
LAYER_01
100
AcDbVertex
  6
BYLAYER
100
AcDb3dPolylineVertex
 10
-51.4533931416307
 20
489.898051504913
 30
8.77202654772228E-15
 70
0
  0
VERTEX
  5
A04
100
AcDbEntity
  8
LAYER_01
100
AcDbVertex
  6
BYLAYER
100
AcDb3dPolylineVertex
 10
-50.0602261873375
 20
489.024892284099
 30
8.79744682986927E-15
 70
0
  0
VERTEX
  5
A05
100
AcDbEntity
  8
LAYER_01
100
AcDbVertex
  6
BYLAYER
100
AcDb3dPolylineVertex
 10
-48.6388989072057
 20
488.199228837206
 30
8.82023159475991E-15
 70
0
  0
VERTEX
  5
A06
100
AcDbEntity
  8
LAYER_01
100
AcDbVertex
  6
BYLAYER
100
AcDb3dPolylineVertex
 10
-47.1915279706704
 20
487.424572741224
 30
8.83333057112417E-15
 70
0
  0
VERTEX
  5
A07
100
AcDbEntity
  8
LAYER_01
100
AcDbVertex
  6
BYLAYER
100
AcDb3dPolylineVertex
 10
-45.7185117709399
 20
486.698805298338
 30
8.8369832749885E-15
 70
0
  0
VERTEX
  5
A08
100
AcDbEntity
  8
LAYER_01
100
AcDbVertex
  6
BYLAYER
100
AcDb3dPolylineVertex
 10
-44.2222509209025
 20
486.01983316198
 30
8.83320674503855E-15
 70
0
  0
VERTEX
  5
A09
100
AcDbEntity
  8
LAYER_01
100
AcDbVertex
  6
BYLAYER
100
AcDb3dPolylineVertex
 10
-42.7051460334465
 20
485.385562985585
 30
8.82401801995994E-15
 70
0
  0
VERTEX
  5
A0A
100
AcDbEntity
  8
LAYER_01
100
AcDbVertex
  6
BYLAYER
100
AcDb3dPolylineVertex
 10
-41.1695977214602
 20
484.793901422585
 30
8.81143413843832E-15
 70
0
  0
VERTEX
  5
A0B
100
AcDbEntity
  8
LAYER_01
100
AcDbVertex
  6
BYLAYER
100
AcDb3dPolylineVertex
 10
-39.6180065978318
 20
484.242755126415
 30
8.79747213915932E-15
 70
0
  0
VERTEX
  5
A0C
100
AcDbEntity
  8
LAYER_01
100
AcDbVertex
  6
BYLAYER
100
AcDb3dPolylineVertex
 10
-38.0527732754497
 20
483.730030750506
 30
8.78414906080858E-15
 70
0
  0
VERTEX
  5
A0D
100
AcDbEntity
  8
LAYER_01
100
AcDbVertex
  6
BYLAYER
100
AcDb3dPolylineVertex
 10
-36.4762983672022
 20
483.253634948294
 30
8.77348194207174E-15
 70
0
  0
VERTEX
  5
A0E
100
AcDbEntity
  8
LAYER_01
100
AcDbVertex
  6
BYLAYER
100
AcDb3dPolylineVertex
 10
-34.0263340427445
 20
482.585820277114
 30
8.76528096540466E-15
 70
0
  0
VERTEX
  5
A0F
100
AcDbEntity
  8
LAYER_01
100
AcDbVertex
  6
BYLAYER
100
AcDb3dPolylineVertex
 10
-31.5577117981187
 20
481.996706357465
 30
8.76585842364001E-15
 70
0
  0
VERTEX
  5
A10
100
AcDbEntity
  8
LAYER_01
100
AcDbVertex
  6
BYLAYER
100
AcDb3dPolylineVertex
 10
-29.0728210087011
 20
481.48349171875
 30
8.77286796071626E-15
 70
0
  0
VERTEX
  5
A11
100
AcDbEntity
  8
LAYER_01
100
AcDbVertex
  6
BYLAYER
100
AcDb3dPolylineVertex
 10
-26.574051049868
 20
481.043374890371
 30
8.78396322057187E-15
 70
0
  0
VERTEX
  5
A12
100
AcDbEntity
  8
LAYER_01
100
AcDbVertex
  6
BYLAYER
100
AcDb3dPolylineVertex
 10
-24.0637912969956
 20
480.673554401731
 30
8.79679784714531E-15
 70
0
  0
VERTEX
  5
A13
100
AcDbEntity
  8
LAYER_01
100
AcDbVertex
  6
BYLAYER
100
AcDb3dPolylineVertex
 10
-21.5444311254604
 20
480.371228782233
 30
8.80902548437502E-15
 70
0
  0
VERTEX
  5
A14
100
AcDbEntity
  8
LAYER_01
100
AcDbVertex
  6
BYLAYER
100
AcDb3dPolylineVertex
 10
-19.0183599106385
 20
480.133596561279
 30
8.81829977619948E-15
 70
0
  0
VERTEX
  5
A15
100
AcDbEntity
  8
LAYER_01
100
AcDbVertex
  6
BYLAYER
100
AcDb3dPolylineVertex
 10
-16.4879670279064
 20
479.957856268273
 30
8.82227436655714E-15
 70
0
  0
VERTEX
  5
A16
100
AcDbEntity
  8
LAYER_01
100
AcDbVertex
  6
BYLAYER
100
AcDb3dPolylineVertex
 10
-13.8870600256785
 20
479.83880741821
 30
8.81914796369564E-15
 70
0
  0
VERTEX
  5
A17
100
AcDbEntity
  8
LAYER_01
100
AcDbVertex
  6
BYLAYER
100
AcDb3dPolylineVertex
 10
-11.2849038346645
 20
479.77876975547
 30
8.81004749204185E-15
 70
0
  0
VERTEX
  5
A18
100
AcDbEntity
  8
LAYER_01
100
AcDbVertex
  6
BYLAYER
100
AcDb3dPolylineVertex
 10
-8.68228716181412
 20
479.774434612106
 30
8.79706281088843E-15
 70
0
  0
VERTEX
  5
A19
100
AcDbEntity
  8
LAYER_01
100
AcDbVertex
  6
BYLAYER
100
AcDb3dPolylineVertex
 10
-6.07999871407698
 20
479.822493320167
 30
8.78228377952803E-15
 70
0
  0
VERTEX
  5
A1A
100
AcDbEntity
  8
LAYER_01
100
AcDbVertex
  6
BYLAYER
100
AcDb3dPolylineVertex
 10
-3.47882719840283
 20
479.919637211704
 30
8.76780025725331E-15
 70
0
  0
VERTEX
  5
A1B
100
AcDbEntity
  8
LAYER_01
100
AcDbVertex
  6
BYLAYER
100
AcDb3dPolylineVertex
 10
-0.879561321741385
 20
480.062557618769
 30
8.75570210335691E-15
 70
0
  0
VERTEX
  5
A1C
100
AcDbEntity
  8
LAYER_01
100
AcDbVertex
  6
BYLAYER
100
AcDb3dPolylineVertex
 10
4.31009868674454
 20
480.472493307684
 30
8.74702133786969E-15
 70
0
  0
VERTEX
  5
A1D
100
AcDbEntity
  8
LAYER_01
100
AcDbVertex
  6
BYLAYER
100
AcDb3dPolylineVertex
 10
7.6908246135743
 20
480.820228669994
 30
8.75740440133421E-15
 70
0
  0
VERTEX
  5
A1E
100
AcDbEntity
  8
LAYER_01
100
AcDbVertex
  6
BYLAYER
100
AcDb3dPolylineVertex
 10
11.0638664895485
 20
481.227438285465
 30
8.77765834639912E-15
 70
0
  0
VERTEX
  5
A1F
100
AcDbEntity
  8
LAYER_01
100
AcDbVertex
  6
BYLAYER
100
AcDb3dPolylineVertex
 10
17.7853144273549
 20
482.213516170922
 30
8.82819689583929E-15
 70
0
  0
VERTEX
  5
A20
100
AcDbEntity
  8
LAYER_01
100
AcDbVertex
  6
BYLAYER
100
AcDb3dPolylineVertex
 10
21.9059508699204
 20
482.929345298888
 30
8.85371111632103E-15
 70
0
  0
VERTEX
  5
A21
100
AcDbEntity
  8
LAYER_01
100
AcDbVertex
  6
BYLAYER
100
AcDb3dPolylineVertex
 10
26.0130631647628
 20
483.722579396888
 30
8.87169671067779E-15
 70
0
  0
VERTEX
  5
A22
100
AcDbEntity
  8
LAYER_01
100
AcDbVertex
  6
BYLAYER
100
AcDb3dPolylineVertex
 10
34.1864185728529
 20
485.520985841715
 30
8.8841700527011E-15
 70
0
  0
VERTEX
  5
A23
100
AcDbEntity
  8
LAYER_01
100
AcDbVertex
  6
BYLAYER
100
AcDb3dPolylineVertex
 10
42.304787174775
 20
487.568182182859
 30
8.86379298527868E-15
 70
0
  0
VERTEX
  5
A24
100
AcDbEntity
  8
LAYER_01
100
AcDbVertex
  6
BYLAYER
100
AcDb3dPolylineVertex
 10
50.3675754936789
 20
489.823615097775
 30
8.80874157177996E-15
 70
0
  0
VERTEX
  5
A25
100
AcDbEntity
  8
LAYER_01
100
AcDbVertex
  6
BYLAYER
100
AcDb3dPolylineVertex
 10
59.8749517072031
 20
492.726247426443
 30
8.71093295989425E-15
 70
0
  0
VERTEX
  5
A26
100
AcDbEntity
  8
LAYER_01
100
AcDbVertex
  6
BYLAYER
100
AcDb3dPolylineVertex
 10
69.3089505199122
 20
495.847545977566
 30
8.64966824333568E-15
 70
0
  0
VERTEX
  5
A27
100
AcDbEntity
  8
LAYER_01
100
AcDbVertex
  6
BYLAYER
100
AcDb3dPolylineVertex
 10
79.3053112417304
 20
499.400747100178
 30
8.69626304705618E-15
 70
0
  0
VERTEX
  5
A28
100
AcDbEntity
  8
LAYER_01
100
AcDbVertex
  6
BYLAYER
100
AcDb3dPolylineVertex
 10
89.2280836854172
 20
503.161047592629
 30
8.82576270844921E-15
 70
0
  0
VERTEX
  5
A29
100
AcDbEntity
  8
LAYER_01
100
AcDbVertex
  6
BYLAYER
100
AcDb3dPolylineVertex
 10
108.866053080346
 20
511.216690156514
 30
9.09705073901091E-15
 70
0
  0
VERTEX
  5
A2A
100
AcDbEntity
  8
LAYER_01
100
AcDbVertex
  6
BYLAYER
100
AcDb3dPolylineVertex
 10
128.32225992347
 20
519.887540417029
 30
9.1136634981561E-15
 70
0
  0
VERTEX
  5
A2B
100
AcDbEntity
  8
LAYER_01
100
AcDbVertex
  6
BYLAYER
100
AcDb3dPolylineVertex
 10
226.906043881007
 20
568.490796602577
 30
8.94222546666035E-15
 70
0
  0
VERTEX
  5
A2C
100
AcDbEntity
  8
LAYER_01
100
AcDbVertex
  6
BYLAYER
100
AcDb3dPolylineVertex
 10
246.502274720898
 20
577.626218852959
 30
8.90611784008018E-15
 70
0
  0
VERTEX
  5
A2D
100
AcDbEntity
  8
LAYER_01
100
AcDbVertex
  6
BYLAYER
100
AcDb3dPolylineVertex
 10
266.327869344532
 20
586.269520612544
 30
8.87029529999151E-15
 70
0
  0
VERTEX
  5
A2E
100
AcDbEntity
  8
LAYER_01
100
AcDbVertex
  6
BYLAYER
100
AcDb3dPolylineVertex
 10
277.586929807238
 20
590.813886294511
 30
8.83573013627662E-15
 70
0
  0
VERTEX
  5
A2F
100
AcDbEntity
  8
LAYER_01
100
AcDbVertex
  6
BYLAYER
100
AcDb3dPolylineVertex
 10
288.963141665049
 20
595.05470948553
 30
8.80816798642733E-15
 70
0
  0
VERTEX
  5
A30
100
AcDbEntity
  8
LAYER_01
100
AcDbVertex
  6
BYLAYER
100
AcDb3dPolylineVertex
 10
294.699293757128
 20
597.036412237563
 30
8.80447871914647E-15
 70
0
  0
VERTEX
  5
A31
100
AcDbEntity
  8
LAYER_01
100
AcDbVertex
  6
BYLAYER
100
AcDb3dPolylineVertex
 10
300.469670965993
 20
598.912372875616
 30
8.81149901826501E-15
 70
0
  0
VERTEX
  5
A32
100
AcDbEntity
  8
LAYER_01
100
AcDbVertex
  6
BYLAYER
100
AcDb3dPolylineVertex
 10
306.275919047646
 20
600.672639235939
 30
8.83221515476064E-15
 70
0
  0
VERTEX
  5
A33
100
AcDbEntity
  8
LAYER_01
100
AcDbVertex
  6
BYLAYER
100
AcDb3dPolylineVertex
 10
312.119683758093
 20
602.307259154785
 30
8.86961339961102E-15
 70
0
  0
VERTEX
  5
A34
100
AcDbEntity
  8
LAYER_01
100
AcDbVertex
  6
BYLAYER
100
AcDb3dPolylineVertex
 10
320.551449159645
 20
604.409368736865
 30
8.95276829866491E-15
 70
0
  0
VERTEX
  5
A35
100
AcDbEntity
  8
LAYER_01
100
AcDbVertex
  6
BYLAYER
100
AcDb3dPolylineVertex
 10
324.794578333361
 20
605.348203816057
 30
9.00214763283157E-15
 70
0
  0
VERTEX
  5
A36
100
AcDbEntity
  8
LAYER_01
100
AcDbVertex
  6
BYLAYER
100
AcDb3dPolylineVertex
 10
329.054352371085
 20
606.207951022261
 30
9.05282804279556E-15
 70
0
  0
VERTEX
  5
A37
100
AcDbEntity
  8
LAYER_01
100
AcDbVertex
  6
BYLAYER
100
AcDb3dPolylineVertex
 10
333.329631684353
 20
606.98540430666
 30
9.10188439308505E-15
 70
0
  0
VERTEX
  5
A38
100
AcDbEntity
  8
LAYER_01
100
AcDbVertex
  6
BYLAYER
100
AcDb3dPolylineVertex
 10
337.619276684702
 20
607.677357620436
 30
9.14639154822818E-15
 70
0
  0
VERTEX
  5
A39
100
AcDbEntity
  8
LAYER_01
100
AcDbVertex
  6
BYLAYER
100
AcDb3dPolylineVertex
 10
341.922147783668
 20
608.280604914773
 30
9.1834243727531E-15
 70
0
  0
VERTEX
  5
A3A
100
AcDbEntity
  8
LAYER_01
100
AcDbVertex
  6
BYLAYER
100
AcDb3dPolylineVertex
 10
346.237105392788
 20
608.791940140853
 30
9.21005773118798E-15
 70
0
  0
VERTEX
  5
A3B
100
AcDbEntity
  8
LAYER_01
100
AcDbVertex
  6
BYLAYER
100
AcDb3dPolylineVertex
 10
350.518182296791
 20
609.20504049716
 30
9.22381672032777E-15
 70
0
  0
VERTEX
  5
A3C
100
AcDbEntity
  8
LAYER_01
100
AcDbVertex
  6
BYLAYER
100
AcDb3dPolylineVertex
 10
354.807751372576
 20
609.525929276342
 30
9.22474606547063E-15
 70
0
  0
VERTEX
  5
A3D
100
AcDbEntity
  8
LAYER_01
100
AcDbVertex
  6
BYLAYER
100
AcDb3dPolylineVertex
 10
359.10358237195
 20
609.755562316508
 30
9.21306746052195E-15
 70
0
  0
VERTEX
  5
A3E
100
AcDbEntity
  8
LAYER_01
100
AcDbVertex
  6
BYLAYER
100
AcDb3dPolylineVertex
 10
363.403445046718
 20
609.894895455766
 30
9.18900259938711E-15
 70
0
  0
VERTEX
  5
A3F
100
AcDbEntity
  8
LAYER_01
100
AcDbVertex
  6
BYLAYER
100
AcDb3dPolylineVertex
 10
367.705109148687
 20
609.944884532228
 30
9.15277317597151E-15
 70
0
  0
VERTEX
  5
A40
100
AcDbEntity
  8
LAYER_01
100
AcDbVertex
  6
BYLAYER
100
AcDb3dPolylineVertex
 10
372.006344429662
 20
609.906485384002
 30
9.10460088418053E-15
 70
0
  0
VERTEX
  5
A41
100
AcDbEntity
  8
LAYER_01
100
AcDbVertex
  6
BYLAYER
100
AcDb3dPolylineVertex
 10
376.30492064145
 20
609.780653849198
 30
9.04470741791956E-15
 70
0
  0
VERTEX
  5
A42
100
AcDbEntity
  8
LAYER_01
100
AcDbVertex
  6
BYLAYER
100
AcDb3dPolylineVertex
 10
380.598607535856
 20
609.568345765926
 30
8.97331447109398E-15
 70
0
  0
VERTEX
  5
A43
100
AcDbEntity
  8
LAYER_01
100
AcDbVertex
  6
BYLAYER
100
AcDb3dPolylineVertex
 10
385.700283095797
 20
609.205276894619
 30
8.87535375849056E-15
 70
0
  0
VERTEX
  5
A44
100
AcDbEntity
  8
LAYER_01
100
AcDbVertex
  6
BYLAYER
100
AcDb3dPolylineVertex
 10
390.791869034532
 20
608.728796020306
 30
8.77196423950716E-15
 70
0
  0
VERTEX
  5
A45
100
AcDbEntity
  8
LAYER_01
100
AcDbVertex
  6
BYLAYER
100
AcDb3dPolylineVertex
 10
395.873361798465
 20
608.146645676355
 30
8.67369399813669E-15
 70
0
  0
VERTEX
  5
A46
100
AcDbEntity
  8
LAYER_01
100
AcDbVertex
  6
BYLAYER
100
AcDb3dPolylineVertex
 10
400.944757833996
 20
607.466568396133
 30
8.59109111837206E-15
 70
0
  0
VERTEX
  5
A47
100
AcDbEntity
  8
LAYER_01
100
AcDbVertex
  6
BYLAYER
100
AcDb3dPolylineVertex
 10
407.817849786624
 20
606.390347251094
 30
8.51816498567189E-15
 70
0
  0
VERTEX
  5
A48
100
AcDbEntity
  8
LAYER_01
100
AcDbVertex
  6
BYLAYER
100
AcDb3dPolylineVertex
 10
414.656049617882
 20
605.113435078328
 30
8.49184456636019E-15
 70
0
  0
VERTEX
  5
A49
100
AcDbEntity
  8
LAYER_01
100
AcDbVertex
  6
BYLAYER
100
AcDb3dPolylineVertex
 10
418.056990513867
 20
604.38905326745
 30
8.49559570623425E-15
 70
0
  0
VERTEX
  5
A4A
100
AcDbEntity
  8
LAYER_01
100
AcDbVertex
  6
BYLAYER
100
AcDb3dPolylineVertex
 10
421.443119010553
 20
603.601698792723
 30
8.51031932286649E-15
 70
0
  0
VERTEX
  5
A4B
100
AcDbEntity
  8
LAYER_01
100
AcDbVertex
  6
BYLAYER
100
AcDb3dPolylineVertex
 10
424.812405318289
 20
602.747105018506
 30
8.53578909906062E-15
 70
0
  0
VERTEX
  5
A4C
100
AcDbEntity
  8
LAYER_01
100
AcDbVertex
  6
BYLAYER
100
AcDb3dPolylineVertex
 10
428.162819647422
 20
601.821005309161
 30
8.57177871762031E-15
 70
0
  0
VERTEX
  5
A4D
100
AcDbEntity
  8
LAYER_01
100
AcDbVertex
  6
BYLAYER
100
AcDb3dPolylineVertex
 10
431.477506137506
 20
600.824572757967
 30
8.61737324664295E-15
 70
0
  0
VERTEX
  5
A4E
100
AcDbEntity
  8
LAYER_01
100
AcDbVertex
  6
BYLAYER
100
AcDb3dPolylineVertex
 10
434.769707388419
 20
599.753495046956
 30
8.67019394547253E-15
 70
0
  0
VERTEX
  5
A4F
100
AcDbEntity
  8
LAYER_01
100
AcDbVertex
  6
BYLAYER
100
AcDb3dPolylineVertex
 10
438.037653091523
 20
598.608222267622
 30
8.72726547099895E-15
 70
0
  0
VERTEX
  5
A50
100
AcDbEntity
  8
LAYER_01
100
AcDbVertex
  6
BYLAYER
100
AcDb3dPolylineVertex
 10
441.279572938182
 20
597.389204511457
 30
8.78561248011212E-15
 70
0
  0
VERTEX
  5
A51
100
AcDbEntity
  8
LAYER_01
100
AcDbVertex
  6
BYLAYER
100
AcDb3dPolylineVertex
 10
444.493696619758
 20
596.096891869953
 30
8.84225962970195E-15
 70
0
  0
VERTEX
  5
A52
100
AcDbEntity
  8
LAYER_01
100
AcDbVertex
  6
BYLAYER
100
AcDb3dPolylineVertex
 10
447.678253827615
 20
594.731734434605
 30
8.89423157665836E-15
 70
0
  0
VERTEX
  5
A53
100
AcDbEntity
  8
LAYER_01
100
AcDbVertex
  6
BYLAYER
100
AcDb3dPolylineVertex
 10
450.831474253115
 20
593.294182296904
 30
8.93855297787124E-15
 70
0
  0
VERTEX
  5
A54
100
AcDbEntity
  8
LAYER_01
100
AcDbVertex
  6
BYLAYER
100
AcDb3dPolylineVertex
 10
453.951587587621
 20
591.784685548344
 30
8.9722484902305E-15
 70
0
  0
VERTEX
  5
A55
100
AcDbEntity
  8
LAYER_01
100
AcDbVertex
  6
BYLAYER
100
AcDb3dPolylineVertex
 10
457.188273748385
 20
590.123544043559
 30
8.99391052889168E-15
 70
0
  0
VERTEX
  5
A56
100
AcDbEntity
  8
LAYER_01
100
AcDbVertex
  6
BYLAYER
100
AcDb3dPolylineVertex
 10
460.383389048984
 20
588.383466250599
 30
9.00303228947879E-15
 70
0
  0
VERTEX
  5
A57
100
AcDbEntity
  8
LAYER_01
100
AcDbVertex
  6
BYLAYER
100
AcDb3dPolylineVertex
 10
463.533774858814
 20
586.564256381418
 30
9.00205321287716E-15
 70
0
  0
VERTEX
  5
A58
100
AcDbEntity
  8
LAYER_01
100
AcDbVertex
  6
BYLAYER
100
AcDb3dPolylineVertex
 10
466.636272547272
 20
584.665718647974
 30
8.99341273997213E-15
 70
0
  0
VERTEX
  5
A59
100
AcDbEntity
  8
LAYER_01
100
AcDbVertex
  6
BYLAYER
100
AcDb3dPolylineVertex
 10
469.687723483753
 20
582.687657262223
 30
8.97955031164903E-15
 70
0
  0
VERTEX
  5
A5A
100
AcDbEntity
  8
LAYER_01
100
AcDbVertex
  6
BYLAYER
100
AcDb3dPolylineVertex
 10
472.684969037654
 20
580.629876436123
 30
8.9629053687932E-15
 70
0
  0
VERTEX
  5
A5B
100
AcDbEntity
  8
LAYER_01
100
AcDbVertex
  6
BYLAYER
100
AcDb3dPolylineVertex
 10
475.624850578371
 20
578.492180381629
 30
8.94591735228996E-15
 70
0
  0
VERTEX
  5
A5C
100
AcDbEntity
  8
LAYER_01
100
AcDbVertex
  6
BYLAYER
100
AcDb3dPolylineVertex
 10
478.5042094753
 20
576.274373310699
 30
8.93102570302466E-15
 70
0
  0
VERTEX
  5
A5D
100
AcDbEntity
  8
LAYER_01
100
AcDbVertex
  6
BYLAYER
100
AcDb3dPolylineVertex
 10
480.533061245628
 20
574.632125007518
 30
8.92278847885709E-15
 70
0
  0
VERTEX
  5
A5E
100
AcDbEntity
  8
LAYER_01
100
AcDbVertex
  6
BYLAYER
100
AcDb3dPolylineVertex
 10
482.528065055452
 20
572.948981256202
 30
8.91659837548857E-15
 70
0
  0
VERTEX
  5
A5F
100
AcDbEntity
  8
LAYER_01
100
AcDbVertex
  6
BYLAYER
100
AcDb3dPolylineVertex
 10
484.488219700637
 20
571.225468801669
 30
8.91216294709065E-15
 70
0
  0
VERTEX
  5
A60
100
AcDbEntity
  8
LAYER_01
100
AcDbVertex
  6
BYLAYER
100
AcDb3dPolylineVertex
 10
486.412523977046
 20
569.462114388835
 30
8.9091897478349E-15
 70
0
  0
VERTEX
  5
A61
100
AcDbEntity
  8
LAYER_01
100
AcDbVertex
  6
BYLAYER
100
AcDb3dPolylineVertex
 10
488.299976680546
 20
567.659444762617
 30
8.90738633189288E-15
 70
0
  0
VERTEX
  5
A62
100
AcDbEntity
  8
LAYER_01
100
AcDbVertex
  6
BYLAYER
100
AcDb3dPolylineVertex
 10
490.149576607001
 20
565.81798666793
 30
8.90646025343617E-15
 70
0
  0
VERTEX
  5
A63
100
AcDbEntity
  8
LAYER_01
100
AcDbVertex
  6
BYLAYER
100
AcDb3dPolylineVertex
 10
491.960322552275
 20
563.938266849692
 30
8.90611906663633E-15
 70
0
  0
VERTEX
  5
A64
100
AcDbEntity
  8
LAYER_01
100
AcDbVertex
  6
BYLAYER
100
AcDb3dPolylineVertex
 10
493.731213312234
 20
562.020812052818
 30
8.90607032566493E-15
 70
0
  0
VERTEX
  5
A65
100
AcDbEntity
  8
LAYER_01
100
AcDbVertex
  6
BYLAYER
100
AcDb3dPolylineVertex
 10
495.424408357428
 20
560.108668896587
 30
8.90600460699231E-15
 70
0
  0
VERTEX
  5
A66
100
AcDbEntity
  8
LAYER_01
100
AcDbVertex
  6
BYLAYER
100
AcDb3dPolylineVertex
 10
497.077454947825
 20
558.16159183565
 30
8.90554457628402E-15
 70
0
  0
VERTEX
  5
A67
100
AcDbEntity
  8
LAYER_01
100
AcDbVertex
  6
BYLAYER
100
AcDb3dPolylineVertex
 10
498.6893200664
 20
556.180269700699
 30
8.90429592150437E-15
 70
0
  0
VERTEX
  5
A68
100
AcDbEntity
  8
LAYER_01
100
AcDbVertex
  6
BYLAYER
100
AcDb3dPolylineVertex
 10
500.25897069613
 20
554.165391322426
 30
8.90186433061767E-15
 70
0
  0
VERTEX
  5
A69
100
AcDbEntity
  8
LAYER_01
100
AcDbVertex
  6
BYLAYER
100
AcDb3dPolylineVertex
 10
501.785373819991
 20
552.117645531524
 30
8.89785549158825E-15
 70
0
  0
VERTEX
  5
A6A
100
AcDbEntity
  8
LAYER_01
100
AcDbVertex
  6
BYLAYER
100
AcDb3dPolylineVertex
 10
503.267496420959
 20
550.037721158684
 30
8.89187509238043E-15
 70
0
  0
VERTEX
  5
A6B
100
AcDbEntity
  8
LAYER_01
100
AcDbVertex
  6
BYLAYER
100
AcDb3dPolylineVertex
 10
504.704305482011
 20
547.926307034599
 30
8.88352882095853E-15
 70
0
  0
VERTEX
  5
A6C
100
AcDbEntity
  8
LAYER_01
100
AcDbVertex
  6
BYLAYER
100
AcDb3dPolylineVertex
 10
506.094767986123
 20
545.784091989962
 30
8.87242236528686E-15
 70
0
  0
VERTEX
  5
A6D
100
AcDbEntity
  8
LAYER_01
100
AcDbVertex
  6
BYLAYER
100
AcDb3dPolylineVertex
 10
507.42436621928
 20
543.634209576375
 30
8.85867287348803E-15
 70
0
  0
VERTEX
  5
A6E
100
AcDbEntity
  8
LAYER_01
100
AcDbVertex
  6
BYLAYER
100
AcDb3dPolylineVertex
 10
508.706724008092
 20
541.455753037268
 30
8.84353925292883E-15
 70
0
  0
VERTEX
  5
A6F
100
AcDbEntity
  8
LAYER_01
100
AcDbVertex
  6
BYLAYER
100
AcDb3dPolylineVertex
 10
509.941014812732
 20
539.249646605731
 30
8.82872757759138E-15
 70
0
  0
VERTEX
  5
A70
100
AcDbEntity
  8
LAYER_01
100
AcDbVertex
  6
BYLAYER
100
AcDb3dPolylineVertex
 10
511.126412093374
 20
537.016814514856
 30
8.81594392145776E-15
 70
0
  0
VERTEX
  5
A71
100
AcDbEntity
  8
LAYER_01
100
AcDbVertex
  6
BYLAYER
100
AcDb3dPolylineVertex
 10
512.262089310192
 20
534.758180997735
 30
8.80689435851009E-15
 70
0
  0
VERTEX
  5
A72
100
AcDbEntity
  8
LAYER_01
100
AcDbVertex
  6
BYLAYER
100
AcDb3dPolylineVertex
 10
513.347219923359
 20
532.474670287458
 30
8.80328496273046E-15
 70
0
  0
VERTEX
  5
A73
100
AcDbEntity
  8
LAYER_01
100
AcDbVertex
  6
BYLAYER
100
AcDb3dPolylineVertex
 10
514.38097739305
 20
530.167206617117
 30
8.80682180810097E-15
 70
0
  0
VERTEX
  5
A74
100
AcDbEntity
  8
LAYER_01
100
AcDbVertex
  6
BYLAYER
100
AcDb3dPolylineVertex
 10
515.362535179437
 20
527.836714219804
 30
8.81921096860372E-15
 70
0
  0
VERTEX
  5
A75
100
AcDbEntity
  8
LAYER_01
100
AcDbVertex
  6
BYLAYER
100
AcDb3dPolylineVertex
 10
516.595202803227
 20
524.678360641661
 30
8.85126287125773E-15
 70
0
  0
VERTEX
  5
A76
100
AcDbEntity
  8
LAYER_01
100
AcDbVertex
  6
BYLAYER
100
AcDb3dPolylineVertex
 10
517.731992533961
 20
521.48340415652
 30
8.89786334011428E-15
 70
0
  0
VERTEX
  5
A77
100
AcDbEntity
  8
LAYER_01
100
AcDbVertex
  6
BYLAYER
100
AcDb3dPolylineVertex
 10
518.772309377797
 20
518.254961455317
 30
8.95458855627132E-15
 70
0
  0
VERTEX
  5
A78
100
AcDbEntity
  8
LAYER_01
100
AcDbVertex
  6
BYLAYER
100
AcDb3dPolylineVertex
 10
519.715558340895
 20
514.996149228988
 30
9.01701470082676E-15
 70
0
  0
VERTEX
  5
A79
100
AcDbEntity
  8
LAYER_01
100
AcDbVertex
  6
BYLAYER
100
AcDb3dPolylineVertex
 10
520.561144429414
 20
511.710084168469
 30
9.08071795487853E-15
 70
0
  0
VERTEX
  5
A7A
100
AcDbEntity
  8
LAYER_01
100
AcDbVertex
  6
BYLAYER
100
AcDb3dPolylineVertex
 10
521.308472649511
 20
508.399882964697
 30
9.14127449952458E-15
 70
0
  0
VERTEX
  5
A7B
100
AcDbEntity
  8
LAYER_01
100
AcDbVertex
  6
BYLAYER
100
AcDb3dPolylineVertex
 10
521.956948007347
 20
505.068662308607
 30
9.19426051586283E-15
 70
0
  0
VERTEX
  5
A7C
100
AcDbEntity
  8
LAYER_01
100
AcDbVertex
  6
BYLAYER
100
AcDb3dPolylineVertex
 10
522.50597550908
 20
501.719538891136
 30
9.23525218499121E-15
 70
0
  0
VERTEX
  5
A7D
100
AcDbEntity
  8
LAYER_01
100
AcDbVertex
  6
BYLAYER
100
AcDb3dPolylineVertex
 10
522.861573519935
 20
499.122644831528
 30
9.25645581383398E-15
 70
0
  0
VERTEX
  5
A7E
100
AcDbEntity
  8
LAYER_01
100
AcDbVertex
  6
BYLAYER
100
AcDb3dPolylineVertex
 10
523.157245134757
 20
496.518618051213
 30
9.26913622906027E-15
 70
0
  0
VERTEX
  5
A7F
100
AcDbEntity
  8
LAYER_01
100
AcDbVertex
  6
BYLAYER
100
AcDb3dPolylineVertex
 10
523.392740065214
 20
493.909145801453
 30
9.27456374302434E-15
 70
0
  0
VERTEX
  5
A80
100
AcDbEntity
  8
LAYER_01
100
AcDbVertex
  6
BYLAYER
100
AcDb3dPolylineVertex
 10
523.567808022971
 20
491.29591533351
 30
9.27400866808041E-15
 70
0
  0
VERTEX
  5
A81
100
AcDbEntity
  8
LAYER_01
100
AcDbVertex
  6
BYLAYER
100
AcDb3dPolylineVertex
 10
523.682198719696
 20
488.680613898648
 30
9.26874131658273E-15
 70
0
  0
VERTEX
  5
A82
100
AcDbEntity
  8
LAYER_01
100
AcDbVertex
  6
BYLAYER
100
AcDb3dPolylineVertex
 10
523.735661867054
 20
486.064928748129
 30
9.26003200088554E-15
 70
0
  0
VERTEX
  5
A83
100
AcDbEntity
  8
LAYER_01
100
AcDbVertex
  6
BYLAYER
100
AcDb3dPolylineVertex
 10
523.727947176711
 20
483.450547133217
 30
9.24915103334309E-15
 70
0
  0
VERTEX
  5
A84
100
AcDbEntity
  8
LAYER_01
100
AcDbVertex
  6
BYLAYER
100
AcDb3dPolylineVertex
 10
523.658804360335
 20
480.839156305172
 30
9.23736872630961E-15
 70
0
  0
VERTEX
  5
A85
100
AcDbEntity
  8
LAYER_01
100
AcDbVertex
  6
BYLAYER
100
AcDb3dPolylineVertex
 10
523.529325865043
 20
478.249974458831
 30
9.22582109209437E-15
 70
0
  0
VERTEX
  5
A86
100
AcDbEntity
  8
LAYER_01
100
AcDbVertex
  6
BYLAYER
100
AcDb3dPolylineVertex
 10
523.340215287434
 20
475.665819294398
 30
9.21463427113707E-15
 70
0
  0
VERTEX
  5
A87
100
AcDbEntity
  8
LAYER_01
100
AcDbVertex
  6
BYLAYER
100
AcDb3dPolylineVertex
 10
523.092681494217
 20
473.087102973736
 30
9.20380511372103E-15
 70
0
  0
VERTEX
  5
A88
100
AcDbEntity
  8
LAYER_01
100
AcDbVertex
  6
BYLAYER
100
AcDb3dPolylineVertex
 10
522.787933352103
 20
470.514237658708
 30
9.19333047012956E-15
 70
0
  0
VERTEX
  5
A89
100
AcDbEntity
  8
LAYER_01
100
AcDbVertex
  6
BYLAYER
100
AcDb3dPolylineVertex
 10
522.427179727802
 20
467.947635511175
 30
9.18320719064598E-15
 70
0
  0
VERTEX
  5
A8A
100
AcDbEntity
  8
LAYER_01
100
AcDbVertex
  6
BYLAYER
100
AcDb3dPolylineVertex
 10
522.011629488026
 20
465.387708693002
 30
9.17343212555358E-15
 70
0
  0
VERTEX
  5
A8B
100
AcDbEntity
  8
LAYER_01
100
AcDbVertex
  6
BYLAYER
100
AcDb3dPolylineVertex
 10
521.542491499484
 20
462.83486936605
 30
9.1640021251357E-15
 70
0
  0
VERTEX
  5
A8C
100
AcDbEntity
  8
LAYER_01
100
AcDbVertex
  6
BYLAYER
100
AcDb3dPolylineVertex
 10
521.020974628886
 20
460.289529692182
 30
9.15491403967564E-15
 70
0
  0
VERTEX
  5
A8D
100
AcDbEntity
  8
LAYER_01
100
AcDbVertex
  6
BYLAYER
100
AcDb3dPolylineVertex
 10
520.448287742944
 20
457.75210183326
 30
9.14616471945671E-15
 70
0
  0
VERTEX
  5
A8E
100
AcDbEntity
  8
LAYER_01
100
AcDbVertex
  6
BYLAYER
100
AcDb3dPolylineVertex
 10
519.825639708367
 20
455.222997951147
 30
9.13775101476224E-15
 70
0
  0
VERTEX
  5
A8F
100
AcDbEntity
  8
LAYER_01
100
AcDbVertex
  6
BYLAYER
100
AcDb3dPolylineVertex
 10
519.154239391866
 20
452.702630207706
 30
9.12966977587552E-15
 70
0
  0
VERTEX
  5
A90
100
AcDbEntity
  8
LAYER_01
100
AcDbVertex
  6
BYLAYER
100
AcDb3dPolylineVertex
 10
518.435295660152
 20
450.191410764799
 30
9.12191785307987E-15
 70
0
  0
VERTEX
  5
A91
100
AcDbEntity
  8
LAYER_01
100
AcDbVertex
  6
BYLAYER
100
AcDb3dPolylineVertex
 10
517.670017379935
 20
447.689751784289
 30
9.11449209665862E-15
 70
0
  0
VERTEX
  5
A92
100
AcDbEntity
  8
LAYER_01
100
AcDbVertex
  6
BYLAYER
100
AcDb3dPolylineVertex
 10
516.859613417924
 20
445.198065428038
 30
9.10738935689506E-15
 70
0
  0
VERTEX
  5
A93
100
AcDbEntity
  8
LAYER_01
100
AcDbVertex
  6
BYLAYER
100
AcDb3dPolylineVertex
 10
515.108263915367
 20
440.246259235765
 30
9.09414032847429E-15
 70
0
  0
VERTEX
  5
A94
100
AcDbEntity
  8
LAYER_01
100
AcDbVertex
  6
BYLAYER
100
AcDb3dPolylineVertex
 10
513.190918086165
 20
435.33928948288
 30
9.08214557008408E-15
 70
0
  0
VERTEX
  5
A95
100
AcDbEntity
  8
LAYER_01
100
AcDbVertex
  6
BYLAYER
100
AcDb3dPolylineVertex
 10
511.117246864
 20
430.480453464284
 30
9.07137988399093E-15
 70
0
  0
VERTEX
  5
A96
100
AcDbEntity
  8
LAYER_01
100
AcDbVertex
  6
BYLAYER
100
AcDb3dPolylineVertex
 10
508.896921182556
 20
425.673048474878
 30
9.06181807246134E-15
 70
0
  0
VERTEX
  5
A97
100
AcDbEntity
  8
LAYER_01
100
AcDbVertex
  6
BYLAYER
100
AcDb3dPolylineVertex
 10
506.539611975516
 20
420.920371809561
 30
9.05343493776182E-15
 70
0
  0
VERTEX
  5
A98
100
AcDbEntity
  8
LAYER_01
100
AcDbVertex
  6
BYLAYER
100
AcDb3dPolylineVertex
 10
504.054990176564
 20
416.225720763235
 30
9.04620528215886E-15
 70
0
  0
VERTEX
  5
A99
100
AcDbEntity
  8
LAYER_01
100
AcDbVertex
  6
BYLAYER
100
AcDb3dPolylineVertex
 10
501.452726719383
 20
411.5923926308
 30
9.04010390791899E-15
 70
0
  0
VERTEX
  5
A9A
100
AcDbEntity
  8
LAYER_01
100
AcDbVertex
  6
BYLAYER
100
AcDb3dPolylineVertex
 10
498.742492537656
 20
407.023684707157
 30
9.03510561730869E-15
 70
0
  0
VERTEX
  5
A9B
100
AcDbEntity
  8
LAYER_01
100
AcDbVertex
  6
BYLAYER
100
AcDb3dPolylineVertex
 10
495.933958565067
 20
402.522894287207
 30
9.03118521259448E-15
 70
0
  0
VERTEX
  5
A9C
100
AcDbEntity
  8
LAYER_01
100
AcDbVertex
  6
BYLAYER
100
AcDb3dPolylineVertex
 10
492.632900881373
 20
397.493158253427
 30
9.02799770821001E-15
 70
0
  0
VERTEX
  5
A9D
100
AcDbEntity
  8
LAYER_01
100
AcDbVertex
  6
BYLAYER
100
AcDb3dPolylineVertex
 10
489.220249933194
 20
392.554737365775
 30
9.02608236515579E-15
 70
0
  0
VERTEX
  5
A9E
100
AcDbEntity
  8
LAYER_01
100
AcDbVertex
  6
BYLAYER
100
AcDb3dPolylineVertex
 10
485.698902560097
 20
387.706952018783
 30
9.02535148995747E-15
 70
0
  0
VERTEX
  5
A9F
100
AcDbEntity
  8
LAYER_01
100
AcDbVertex
  6
BYLAYER
100
AcDb3dPolylineVertex
 10
482.071755601643
 20
382.949122606979
 30
9.02571738914066E-15
 70
0
  0
VERTEX
  5
AA0
100
AcDbEntity
  8
LAYER_01
100
AcDbVertex
  6
BYLAYER
100
AcDb3dPolylineVertex
 10
478.341705897397
 20
378.280569524894
 30
9.027092369231E-15
 70
0
  0
VERTEX
  5
AA1
100
AcDbEntity
  8
LAYER_01
100
AcDbVertex
  6
BYLAYER
100
AcDb3dPolylineVertex
 10
474.511650286922
 20
373.700613167059
 30
9.02938873675411E-15
 70
0
  0
VERTEX
  5
AA2
100
AcDbEntity
  8
LAYER_01
100
AcDbVertex
  6
BYLAYER
100
AcDb3dPolylineVertex
 10
470.584485609783
 20
369.208573928003
 30
9.03251879823562E-15
 70
0
  0
VERTEX
  5
AA3
100
AcDbEntity
  8
LAYER_01
100
AcDbVertex
  6
BYLAYER
100
AcDb3dPolylineVertex
 10
466.563108705543
 20
364.803772202257
 30
9.03639486020116E-15
 70
0
  0
VERTEX
  5
AA4
100
AcDbEntity
  8
LAYER_01
100
AcDbVertex
  6
BYLAYER
100
AcDb3dPolylineVertex
 10
462.450416413766
 20
360.48552838435
 30
9.04092922917635E-15
 70
0
  0
VERTEX
  5
AA5
100
AcDbEntity
  8
LAYER_01
100
AcDbVertex
  6
BYLAYER
100
AcDb3dPolylineVertex
 10
458.249305574016
 20
356.253162868814
 30
9.04603421168682E-15
 70
0
  0
VERTEX
  5
AA6
100
AcDbEntity
  8
LAYER_01
100
AcDbVertex
  6
BYLAYER
100
AcDb3dPolylineVertex
 10
453.962673025856
 20
352.105996050177
 30
9.0516221142582E-15
 70
0
  0
VERTEX
  5
AA7
100
AcDbEntity
  8
LAYER_01
100
AcDbVertex
  6
BYLAYER
100
AcDb3dPolylineVertex
 10
449.59341560885
 20
348.043348322971
 30
9.05760524341612E-15
 70
0
  0
VERTEX
  5
AA8
100
AcDbEntity
  8
LAYER_01
100
AcDbVertex
  6
BYLAYER
100
AcDb3dPolylineVertex
 10
445.144430162562
 20
344.064540081726
 30
9.06389590568619E-15
 70
0
  0
VERTEX
  5
AA9
100
AcDbEntity
  8
LAYER_01
100
AcDbVertex
  6
BYLAYER
100
AcDb3dPolylineVertex
 10
440.618613526555
 20
340.168891720971
 30
9.07040640759406E-15
 70
0
  0
VERTEX
  5
AAA
100
AcDbEntity
  8
LAYER_01
100
AcDbVertex
  6
BYLAYER
100
AcDb3dPolylineVertex
 10
436.018862540394
 20
336.355723635236
 30
9.07704905566534E-15
 70
0
  0
VERTEX
  5
AAB
100
AcDbEntity
  8
LAYER_01
100
AcDbVertex
  6
BYLAYER
100
AcDb3dPolylineVertex
 10
431.348074043643
 20
332.624356219053
 30
9.08373615642567E-15
 70
0
  0
VERTEX
  5
AAC
100
AcDbEntity
  8
LAYER_01
100
AcDbVertex
  6
BYLAYER
100
AcDb3dPolylineVertex
 10
421.804971876622
 20
325.40430497346
 30
9.09689294211597E-15
 70
0
  0
VERTEX
  5
AAD
100
AcDbEntity
  8
LAYER_01
100
AcDbVertex
  6
BYLAYER
100
AcDb3dPolylineVertex
 10
412.012481742003
 20
318.503301140433
 30
9.10917521686997E-15
 70
0
  0
VERTEX
  5
AAE
100
AcDbEntity
  8
LAYER_01
100
AcDbVertex
  6
BYLAYER
100
AcDb3dPolylineVertex
 10
401.993778356297
 20
311.915907876213
 30
9.1198814328927E-15
 70
0
  0
VERTEX
  5
AAF
100
AcDbEntity
  8
LAYER_01
100
AcDbVertex
  6
BYLAYER
100
AcDb3dPolylineVertex
 10
391.772036436012
 20
305.636688337042
 30
9.12831004238916E-15
 70
0
  0
VERTEX
  5
AB0
100
AcDbEntity
  8
LAYER_01
100
AcDbVertex
  6
BYLAYER
100
AcDb3dPolylineVertex
 10
381.37043069766
 20
299.66020567916
 30
9.13375949756438E-15
 70
0
  0
VERTEX
  5
AB1
100
AcDbEntity
  8
LAYER_01
100
AcDbVertex
  6
BYLAYER
100
AcDb3dPolylineVertex
 10
370.81213585775
 20
293.98102305881
 30
9.13552825062338E-15
 70
0
  0
VERTEX
  5
AB2
100
AcDbEntity
  8
LAYER_01
100
AcDbVertex
  6
BYLAYER
100
AcDb3dPolylineVertex
 10
360.120326632793
 20
288.593703632233
 30
9.13291475377117E-15
 70
0
  0
VERTEX
  5
AB3
100
AcDbEntity
  8
LAYER_01
100
AcDbVertex
  6
BYLAYER
100
AcDb3dPolylineVertex
 10
349.318177739298
 20
283.492810555669
 30
9.12521745921277E-15
 70
0
  0
VERTEX
  5
AB4
100
AcDbEntity
  8
LAYER_01
100
AcDbVertex
  6
BYLAYER
100
AcDb3dPolylineVertex
 10
339.679055356974
 20
279.21064863553
 30
9.11379170010104E-15
 70
0
  0
VERTEX
  5
AB5
100
AcDbEntity
  8
LAYER_01
100
AcDbVertex
  6
BYLAYER
100
AcDb3dPolylineVertex
 10
329.974986997508
 20
275.139895549531
 30
9.0985136033521E-15
 70
0
  0
VERTEX
  5
AB6
100
AcDbEntity
  8
LAYER_01
100
AcDbVertex
  6
BYLAYER
100
AcDb3dPolylineVertex
 10
320.209348134594
 20
271.27171552328
 30
9.08006548876882E-15
 70
0
  0
VERTEX
  5
AB7
100
AcDbEntity
  8
LAYER_01
100
AcDbVertex
  6
BYLAYER
100
AcDb3dPolylineVertex
 10
310.385514241928
 20
267.597272782384
 30
9.05912967615408E-15
 70
0
  0
VERTEX
  5
AB8
100
AcDbEntity
  8
LAYER_01
100
AcDbVertex
  6
BYLAYER
100
AcDb3dPolylineVertex
 10
300.506860793202
 20
264.107731552453
 30
9.03638848531077E-15
 70
0
  0
VERTEX
  5
AB9
100
AcDbEntity
  8
LAYER_01
100
AcDbVertex
  6
BYLAYER
100
AcDb3dPolylineVertex
 10
290.576763262111
 20
260.794256059092
 30
9.01252423604175E-15
 70
0
  0
VERTEX
  5
ABA
100
AcDbEntity
  8
LAYER_01
100
AcDbVertex
  6
BYLAYER
100
AcDb3dPolylineVertex
 10
270.575737847612
 20
254.660159184516
 30
8.96415584143814E-15
 70
0
  0
VERTEX
  5
ABB
100
AcDbEntity
  8
LAYER_01
100
AcDbVertex
  6
BYLAYER
100
AcDb3dPolylineVertex
 10
250.409441787983
 20
249.12429596352
 30
8.9194830507663E-15
 70
0
  0
VERTEX
  5
ABC
100
AcDbEntity
  8
LAYER_01
100
AcDbVertex
  6
BYLAYER
100
AcDb3dPolylineVertex
 10
230.104878872777
 20
244.115980200964
 30
8.88396442244924E-15
 70
0
  0
VERTEX
  5
ABD
100
AcDbEntity
  8
LAYER_01
100
AcDbVertex
  6
BYLAYER
100
AcDb3dPolylineVertex
 10
209.689052891548
 20
239.564525701712
 30
8.86305851491002E-15
 70
0
  0
VERTEX
  5
ABE
100
AcDbEntity
  8
LAYER_01
100
AcDbVertex
  6
BYLAYER
100
AcDb3dPolylineVertex
 10
189.18896763385
 20
235.399246270627
 30
8.86222388657167E-15
 70
0
  0
VERTEX
  5
ABF
100
AcDbEntity
  8
LAYER_01
100
AcDbVertex
  6
BYLAYER
100
AcDb3dPolylineVertex
 10
163.990930031926
 20
230.748049085073
 30
8.89183005913768E-15
 70
0
  0
VERTEX
  5
AC0
100
AcDbEntity
  8
LAYER_01
100
AcDbVertex
  6
BYLAYER
100
AcDb3dPolylineVertex
 10
138.711224505253
 20
226.61443287044
 30
8.94142678307587E-15
 70
0
  0
VERTEX
  5
AC1
100
AcDbEntity
  8
LAYER_01
100
AcDbVertex
  6
BYLAYER
100
AcDb3dPolylineVertex
 10
113.354119866391
 20
223.042450454493
 30
8.99268599493983E-15
 70
0
  0
VERTEX
  5
AC2
100
AcDbEntity
  8
LAYER_01
100
AcDbVertex
  6
BYLAYER
100
AcDb3dPolylineVertex
 10
87.9238849278981
 20
220.076154664999
 30
9.02727963128316E-15
 70
0
  0
VERTEX
  5
AC3
100
AcDbEntity
  8
LAYER_01
100
AcDbVertex
  6
BYLAYER
100
AcDb3dPolylineVertex
 10
60.828900572859
 20
217.631660678163
 30
9.03119901078084E-15
 70
0
  0
VERTEX
  5
AC4
100
AcDbEntity
  8
LAYER_01
100
AcDbVertex
  6
BYLAYER
100
AcDb3dPolylineVertex
 10
33.670646098337
 20
215.93991480238
 30
9.00917967242997E-15
 70
0
  0
VERTEX
  5
AC5
100
AcDbEntity
  8
LAYER_01
100
AcDbVertex
  6
BYLAYER
100
AcDb3dPolylineVertex
 10
6.46359851472385
 20
215.020085612732
 30
8.97479199278686E-15
 70
0
  0
VERTEX
  5
AC6
100
AcDbEntity
  8
LAYER_01
100
AcDbVertex
  6
BYLAYER
100
AcDb3dPolylineVertex
 10
-20.7777651675887
 20
214.891341684304
 30
8.94160634840783E-15
 70
0
  0
VERTEX
  5
AC7
100
AcDbEntity
  8
LAYER_01
100
AcDbVertex
  6
BYLAYER
100
AcDb3dPolylineVertex
 10
-111.257936096903
 20
216.883997026251
 30
8.90613973195935E-15
 70
0
  0
VERTEX
  5
AC8
100
AcDbEntity
  8
LAYER_01
100
AcDbVertex
  6
BYLAYER
100
AcDb3dPolylineVertex
 10
-124.122058220307
 20
216.712746201096
 30
8.90607032566493E-15
 70
0
  0
VERTEX
  5
AC9
100
AcDbEntity
  8
LAYER_01
100
AcDbVertex
  6
BYLAYER
100
AcDb3dPolylineVertex
 10
-134.276378221856
 20
216.363281561631
 30
8.90607032566493E-15
 70
0
  0
VERTEX
  5
ACA
100
AcDbEntity
  8
LAYER_01
100
AcDbVertex
  6
BYLAYER
100
AcDb3dPolylineVertex
 10
-144.433523566996
 20
215.739949558951
 30
8.90607032566493E-15
 70
0
  0
VERTEX
  5
ACB
100
AcDbEntity
  8
LAYER_01
100
AcDbVertex
  6
BYLAYER
100
AcDb3dPolylineVertex
 10
-149.519376606018
 20
215.297030058115
 30
8.90607032566493E-15
 70
0
  0
VERTEX
  5
ACC
100
AcDbEntity
  8
LAYER_01
100
AcDbVertex
  6
BYLAYER
100
AcDb3dPolylineVertex
 10
-154.613401016063
 20
214.751379830527
 30
8.90607032566493E-15
 70
0
  0
VERTEX
  5
ACD
100
AcDbEntity
  8
LAYER_01
100
AcDbVertex
  6
BYLAYER
100
AcDb3dPolylineVertex
 10
-159.718085142173
 20
214.09157758087
 30
8.90607032566493E-15
 70
0
  0
VERTEX
  5
ACE
100
AcDbEntity
  8
LAYER_01
100
AcDbVertex
  6
BYLAYER
100
AcDb3dPolylineVertex
 10
-164.835917329392
 20
213.306202013828
 30
8.90607032566493E-15
 70
0
  0
VERTEX
  5
ACF
100
AcDbEntity
  8
LAYER_01
100
AcDbVertex
  6
BYLAYER
100
AcDb3dPolylineVertex
 10
-170.852787732295
 20
212.205008189583
 30
8.90607032566493E-15
 70
0
  0
VERTEX
  5
AD0
100
AcDbEntity
  8
LAYER_01
100
AcDbVertex
  6
BYLAYER
100
AcDb3dPolylineVertex
 10
-173.853789824375
 20
211.570359494462
 30
8.90607032566493E-15
 70
0
  0
VERTEX
  5
AD1
100
AcDbEntity
  8
LAYER_01
100
AcDbVertex
  6
BYLAYER
100
AcDb3dPolylineVertex
 10
-176.841565726664
 20
210.872578660787
 30
8.90607032566493E-15
 70
0
  0
VERTEX
  5
AD2
100
AcDbEntity
  8
LAYER_01
100
AcDbVertex
  6
BYLAYER
100
AcDb3dPolylineVertex
 10
-179.809912351507
 20
210.106342476142
 30
8.90607032566493E-15
 70
0
  0
VERTEX
  5
AD3
100
AcDbEntity
  8
LAYER_01
100
AcDbVertex
  6
BYLAYER
100
AcDb3dPolylineVertex
 10
-182.752626611245
 20
209.266327728111
 30
8.90607032566493E-15
 70
0
  0
VERTEX
  5
AD4
100
AcDbEntity
  8
LAYER_01
100
AcDbVertex
  6
BYLAYER
100
AcDb3dPolylineVertex
 10
-185.663505418223
 20
208.347211204278
 30
8.90607032566493E-15
 70
0
  0
VERTEX
  5
AD5
100
AcDbEntity
  8
LAYER_01
100
AcDbVertex
  6
BYLAYER
100
AcDb3dPolylineVertex
 10
-188.536345684783
 20
207.343669692227
 30
8.90607032566493E-15
 70
0
  0
VERTEX
  5
AD6
100
AcDbEntity
  8
LAYER_01
100
AcDbVertex
  6
BYLAYER
100
AcDb3dPolylineVertex
 10
-191.364944323269
 20
206.250379979541
 30
8.90607032566493E-15
 70
0
  0
VERTEX
  5
AD7
100
AcDbEntity
  8
LAYER_01
100
AcDbVertex
  6
BYLAYER
100
AcDb3dPolylineVertex
 10
-192.760714567092
 20
205.66841604408
 30
8.90607032566493E-15
 70
0
  0
VERTEX
  5
AD8
100
AcDbEntity
  8
LAYER_01
100
AcDbVertex
  6
BYLAYER
100
AcDb3dPolylineVertex
 10
-194.143098246024
 20
205.062018853805
 30
8.90607032566493E-15
 70
0
  0
VERTEX
  5
AD9
100
AcDbEntity
  8
LAYER_01
100
AcDbVertex
  6
BYLAYER
100
AcDb3dPolylineVertex
 10
-195.51131997411
 20
204.430523007163
 30
8.90607032566493E-15
 70
0
  0
VERTEX
  5
ADA
100
AcDbEntity
  8
LAYER_01
100
AcDbVertex
  6
BYLAYER
100
AcDb3dPolylineVertex
 10
-196.864604365391
 20
203.773263102603
 30
8.90607032566493E-15
 70
0
  0
VERTEX
  5
ADB
100
AcDbEntity
  8
LAYER_01
100
AcDbVertex
  6
BYLAYER
100
AcDb3dPolylineVertex
 10
-198.202176033912
 20
203.089573738572
 30
8.90607032566493E-15
 70
0
  0
VERTEX
  5
ADC
100
AcDbEntity
  8
LAYER_01
100
AcDbVertex
  6
BYLAYER
100
AcDb3dPolylineVertex
 10
-199.523259593714
 20
202.378789513518
 30
8.90607032566493E-15
 70
0
  0
VERTEX
  5
ADD
100
AcDbEntity
  8
LAYER_01
100
AcDbVertex
  6
BYLAYER
100
AcDb3dPolylineVertex
 10
-200.827079658841
 20
201.64024502589
 30
8.90607032566493E-15
 70
0
  0
VERTEX
  5
ADE
100
AcDbEntity
  8
LAYER_01
100
AcDbVertex
  6
BYLAYER
100
AcDb3dPolylineVertex
 10
-202.112860843335
 20
200.873274874135
 30
8.90607032566493E-15
 70
0
  0
VERTEX
  5
ADF
100
AcDbEntity
  8
LAYER_01
100
AcDbVertex
  6
BYLAYER
100
AcDb3dPolylineVertex
 10
-203.37982776124
 20
200.077213656702
 30
8.90607032566493E-15
 70
0
  0
VERTEX
  5
AE0
100
AcDbEntity
  8
LAYER_01
100
AcDbVertex
  6
BYLAYER
100
AcDb3dPolylineVertex
 10
-204.627205026598
 20
199.251395972037
 30
8.90607032566493E-15
 70
0
  0
VERTEX
  5
AE1
100
AcDbEntity
  8
LAYER_01
100
AcDbVertex
  6
BYLAYER
100
AcDb3dPolylineVertex
 10
-205.854217253453
 20
198.395156418591
 30
8.90607032566493E-15
 70
0
  0
VERTEX
  5
AE2
100
AcDbEntity
  8
LAYER_01
100
AcDbVertex
  6
BYLAYER
100
AcDb3dPolylineVertex
 10
-207.060089055847
 20
197.507829594809
 30
8.90607032566493E-15
 70
0
  0
VERTEX
  5
AE3
100
AcDbEntity
  8
LAYER_01
100
AcDbVertex
  6
BYLAYER
100
AcDb3dPolylineVertex
 10
-208.244045047822
 20
196.588750099141
 30
8.90607032566493E-15
 70
0
  0
VERTEX
  5
AE4
100
AcDbEntity
  8
LAYER_01
100
AcDbVertex
  6
BYLAYER
100
AcDb3dPolylineVertex
 10
-209.405309843423
 20
195.637252530034
 30
8.90607032566493E-15
 70
0
  0
VERTEX
  5
AE5
100
AcDbEntity
  8
LAYER_01
100
AcDbVertex
  6
BYLAYER
100
AcDb3dPolylineVertex
 10
-210.191973169013
 20
194.962396222881
 30
8.90607032566493E-15
 70
0
  0
VERTEX
  5
AE6
100
AcDbEntity
  8
LAYER_01
100
AcDbVertex
  6
BYLAYER
100
AcDb3dPolylineVertex
 10
-210.967166300252
 20
194.272120521677
 30
8.90607032566493E-15
 70
0
  0
VERTEX
  5
AE7
100
AcDbEntity
  8
LAYER_01
100
AcDbVertex
  6
BYLAYER
100
AcDb3dPolylineVertex
 10
-211.730564010373
 20
193.566718344076
 30
8.90607032566493E-15
 70
0
  0
VERTEX
  5
AE8
100
AcDbEntity
  8
LAYER_01
100
AcDbVertex
  6
BYLAYER
100
AcDb3dPolylineVertex
 10
-212.481841072605
 20
192.846482607734
 30
8.90607032566493E-15
 70
0
  0
VERTEX
  5
AE9
100
AcDbEntity
  8
LAYER_01
100
AcDbVertex
  6
BYLAYER
100
AcDb3dPolylineVertex
 10
-213.220672260182
 20
192.111706230304
 30
8.90607032566493E-15
 70
0
  0
VERTEX
  5
AEA
100
AcDbEntity
  8
LAYER_01
100
AcDbVertex
  6
BYLAYER
100
AcDb3dPolylineVertex
 10
-213.946732346334
 20
191.362682129442
 30
8.90607032566493E-15
 70
0
  0
VERTEX
  5
AEB
100
AcDbEntity
  8
LAYER_01
100
AcDbVertex
  6
BYLAYER
100
AcDb3dPolylineVertex
 10
-214.659696104294
 20
190.599703222803
 30
8.90607032566493E-15
 70
0
  0
VERTEX
  5
AEC
100
AcDbEntity
  8
LAYER_01
100
AcDbVertex
  6
BYLAYER
100
AcDb3dPolylineVertex
 10
-215.359238307293
 20
189.823062428042
 30
8.90607032566493E-15
 70
0
  0
VERTEX
  5
AED
100
AcDbEntity
  8
LAYER_01
100
AcDbVertex
  6
BYLAYER
100
AcDb3dPolylineVertex
 10
-216.045033728563
 20
189.033052662814
 30
8.90607032566493E-15
 70
0
  0
VERTEX
  5
AEE
100
AcDbEntity
  8
LAYER_01
100
AcDbVertex
  6
BYLAYER
100
AcDb3dPolylineVertex
 10
-216.716757141335
 20
188.229966844772
 30
8.90607032566493E-15
 70
0
  0
VERTEX
  5
AEF
100
AcDbEntity
  8
LAYER_01
100
AcDbVertex
  6
BYLAYER
100
AcDb3dPolylineVertex
 10
-217.374083318842
 20
187.414097891574
 30
8.90607032566493E-15
 70
0
  0
VERTEX
  5
AF0
100
AcDbEntity
  8
LAYER_01
100
AcDbVertex
  6
BYLAYER
100
AcDb3dPolylineVertex
 10
-218.016687034314
 20
186.585738720872
 30
8.90607032566493E-15
 70
0
  0
VERTEX
  5
AF1
100
AcDbEntity
  8
LAYER_01
100
AcDbVertex
  6
BYLAYER
100
AcDb3dPolylineVertex
 10
-218.644243060983
 20
185.745182250322
 30
8.90607032566493E-15
 70
0
  0
VERTEX
  5
AF2
100
AcDbEntity
  8
LAYER_01
100
AcDbVertex
  6
BYLAYER
100
AcDb3dPolylineVertex
 10
-219.256426172081
 20
184.89272139758
 30
8.90607032566493E-15
 70
0
  0
VERTEX
  5
AF3
100
AcDbEntity
  8
LAYER_01
100
AcDbVertex
  6
BYLAYER
100
AcDb3dPolylineVertex
 10
-219.85291114084
 20
184.028649080299
 30
8.90607032566493E-15
 70
0
  0
VERTEX
  5
AF4
100
AcDbEntity
  8
LAYER_01
100
AcDbVertex
  6
BYLAYER
100
AcDb3dPolylineVertex
 10
-220.433372740491
 20
183.153258216135
 30
8.90607032566493E-15
 70
0
  0
VERTEX
  5
AF5
100
AcDbEntity
  8
LAYER_01
100
AcDbVertex
  6
BYLAYER
100
AcDb3dPolylineVertex
 10
-220.997485744267
 20
182.266841722743
 30
8.90607032566493E-15
 70
0
  0
VERTEX
  5
AF6
100
AcDbEntity
  8
LAYER_01
100
AcDbVertex
  6
BYLAYER
100
AcDb3dPolylineVertex
 10
-221.544924925398
 20
181.369692517777
 30
8.90607032566493E-15
 70
0
  0
VERTEX
  5
AF7
100
AcDbEntity
  8
LAYER_01
100
AcDbVertex
  6
BYLAYER
100
AcDb3dPolylineVertex
 10
-222.075365057116
 20
180.462103518892
 30
8.90607032566493E-15
 70
0
  0
VERTEX
  5
AF8
100
AcDbEntity
  8
LAYER_01
100
AcDbVertex
  6
BYLAYER
100
AcDb3dPolylineVertex
 10
-222.588480912653
 20
179.544367643744
 30
8.90607032566493E-15
 70
0
  0
VERTEX
  5
AF9
100
AcDbEntity
  8
LAYER_01
100
AcDbVertex
  6
BYLAYER
100
AcDb3dPolylineVertex
 10
-223.083947265241
 20
178.616777809986
 30
8.90607032566493E-15
 70
0
  0
VERTEX
  5
AFA
100
AcDbEntity
  8
LAYER_01
100
AcDbVertex
  6
BYLAYER
100
AcDb3dPolylineVertex
 10
-223.561438888111
 20
177.679626935275
 30
8.90607032566493E-15
 70
0
  0
VERTEX
  5
AFB
100
AcDbEntity
  8
LAYER_01
100
AcDbVertex
  6
BYLAYER
100
AcDb3dPolylineVertex
 10
-224.020630554495
 20
176.733207937265
 30
8.90607032566493E-15
 70
0
  0
VERTEX
  5
AFC
100
AcDbEntity
  8
LAYER_01
100
AcDbVertex
  6
BYLAYER
100
AcDb3dPolylineVertex
 10
-224.461197037624
 20
175.77781373361
 30
8.90607032566493E-15
 70
0
  0
VERTEX
  5
AFD
100
AcDbEntity
  8
LAYER_01
100
AcDbVertex
  6
BYLAYER
100
AcDb3dPolylineVertex
 10
-224.882813110731
 20
174.813737241966
 30
8.90607032566493E-15
 70
0
  0
VERTEX
  5
AFE
100
AcDbEntity
  8
LAYER_01
100
AcDbVertex
  6
BYLAYER
100
AcDb3dPolylineVertex
 10
-225.285153547046
 20
173.841271379987
 30
8.90607032566493E-15
 70
0
  0
VERTEX
  5
AFF
100
AcDbEntity
  8
LAYER_01
100
AcDbVertex
  6
BYLAYER
100
AcDb3dPolylineVertex
 10
-225.667893119803
 20
172.860709065329
 30
8.90607032566493E-15
 70
0
  0
VERTEX
  5
B00
100
AcDbEntity
  8
LAYER_01
100
AcDbVertex
  6
BYLAYER
100
AcDb3dPolylineVertex
 10
-226.030706602231
 20
171.872343215646
 30
8.90607032566493E-15
 70
0
  0
VERTEX
  5
B01
100
AcDbEntity
  8
LAYER_01
100
AcDbVertex
  6
BYLAYER
100
AcDb3dPolylineVertex
 10
-226.373268767563
 20
170.876466748594
 30
8.90607032566493E-15
 70
0
  0
VERTEX
  5
B02
100
AcDbEntity
  8
LAYER_01
100
AcDbVertex
  6
BYLAYER
100
AcDb3dPolylineVertex
 10
-226.695254389031
 20
169.873372581826
 30
8.90607032566493E-15
 70
0
  0
VERTEX
  5
B03
100
AcDbEntity
  8
LAYER_01
100
AcDbVertex
  6
BYLAYER
100
AcDb3dPolylineVertex
 10
-226.996338239865
 20
168.863353632998
 30
8.90607032566493E-15
 70
0
  0
VERTEX
  5
B04
100
AcDbEntity
  8
LAYER_01
100
AcDbVertex
  6
BYLAYER
100
AcDb3dPolylineVertex
 10
-227.276195093299
 20
167.846702819765
 30
8.90607032566493E-15
 70
0
  0
VERTEX
  5
B05
100
AcDbEntity
  8
LAYER_01
100
AcDbVertex
  6
BYLAYER
100
AcDb3dPolylineVertex
 10
-227.580265739789
 20
166.632769298237
 30
8.90607032566493E-15
 70
0
  0
VERTEX
  5
B06
100
AcDbEntity
  8
LAYER_01
100
AcDbVertex
  6
BYLAYER
100
AcDb3dPolylineVertex
 10
-227.85416284984
 20
165.410714793749
 30
8.90607032566493E-15
 70
0
  0
VERTEX
  5
B07
100
AcDbEntity
  8
LAYER_01
100
AcDbVertex
  6
BYLAYER
100
AcDb3dPolylineVertex
 10
-228.098030311813
 20
164.181335293581
 30
8.90607032566493E-15
 70
0
  0
VERTEX
  5
B08
100
AcDbEntity
  8
LAYER_01
100
AcDbVertex
  6
BYLAYER
100
AcDb3dPolylineVertex
 10
-228.312012014072
 20
162.945426785007
 30
8.90607032566493E-15
 70
0
  0
VERTEX
  5
B09
100
AcDbEntity
  8
LAYER_01
100
AcDbVertex
  6
BYLAYER
100
AcDb3dPolylineVertex
 10
-228.496251844978
 20
161.703785255306
 30
8.90607032566493E-15
 70
0
  0
VERTEX
  5
B0A
100
AcDbEntity
  8
LAYER_01
100
AcDbVertex
  6
BYLAYER
100
AcDb3dPolylineVertex
 10
-228.650893692894
 20
160.457206691755
 30
8.90607032566493E-15
 70
0
  0
VERTEX
  5
B0B
100
AcDbEntity
  8
LAYER_01
100
AcDbVertex
  6
BYLAYER
100
AcDb3dPolylineVertex
 10
-228.776081446183
 20
159.206487081629
 30
8.90607032566493E-15
 70
0
  0
VERTEX
  5
B0C
100
AcDbEntity
  8
LAYER_01
100
AcDbVertex
  6
BYLAYER
100
AcDb3dPolylineVertex
 10
-228.871958993208
 20
157.952422412207
 30
8.90607032566493E-15
 70
0
  0
VERTEX
  5
B0D
100
AcDbEntity
  8
LAYER_01
100
AcDbVertex
  6
BYLAYER
100
AcDb3dPolylineVertex
 10
-228.93867022233
 20
156.695808670765
 30
8.90607032566493E-15
 70
0
  0
VERTEX
  5
B0E
100
AcDbEntity
  8
LAYER_01
100
AcDbVertex
  6
BYLAYER
100
AcDb3dPolylineVertex
 10
-228.976359021913
 20
155.43744184458
 30
8.90607032566493E-15
 70
0
  0
VERTEX
  5
B0F
100
AcDbEntity
  8
LAYER_01
100
AcDbVertex
  6
BYLAYER
100
AcDb3dPolylineVertex
 10
-228.985169280318
 20
154.17811792093
 30
8.90607032566493E-15
 70
0
  0
VERTEX
  5
B10
100
AcDbEntity
  8
LAYER_01
100
AcDbVertex
  6
BYLAYER
100
AcDb3dPolylineVertex
 10
-228.965244885909
 20
152.918632887091
 30
8.90607032566493E-15
 70
0
  0
VERTEX
  5
B11
100
AcDbEntity
  8
LAYER_01
100
AcDbVertex
  6
BYLAYER
100
AcDb3dPolylineVertex
 10
-228.916729727048
 20
151.659782730339
 30
8.90607032566493E-15
 70
0
  0
VERTEX
  5
B12
100
AcDbEntity
  8
LAYER_01
100
AcDbVertex
  6
BYLAYER
100
AcDb3dPolylineVertex
 10
-228.839767692098
 20
150.402363437953
 30
8.90607032566493E-15
 70
0
  0
VERTEX
  5
B13
100
AcDbEntity
  8
LAYER_01
100
AcDbVertex
  6
BYLAYER
100
AcDb3dPolylineVertex
 10
-228.73450266942
 20
149.147170997209
 30
8.90607032566493E-15
 70
0
  0
VERTEX
  5
B14
100
AcDbEntity
  8
LAYER_01
100
AcDbVertex
  6
BYLAYER
100
AcDb3dPolylineVertex
 10
-228.601078547378
 20
147.895001395384
 30
8.90607032566493E-15
 70
0
  0
VERTEX
  5
B15
100
AcDbEntity
  8
LAYER_01
100
AcDbVertex
  6
BYLAYER
100
AcDb3dPolylineVertex
 10
-228.439639214334
 20
146.646650619755
 30
8.90607032566493E-15
 70
0
  0
VERTEX
  5
B16
100
AcDbEntity
  8
LAYER_01
100
AcDbVertex
  6
BYLAYER
100
AcDb3dPolylineVertex
 10
-228.250328558651
 20
145.4029146576
 30
8.90607032566493E-15
 70
0
  0
VERTEX
  5
B17
100
AcDbEntity
  8
LAYER_01
100
AcDbVertex
  6
BYLAYER
100
AcDb3dPolylineVertex
 10
-228.03329046869
 20
144.164589496194
 30
8.90607032566493E-15
 70
0
  0
VERTEX
  5
B18
100
AcDbEntity
  8
LAYER_01
100
AcDbVertex
  6
BYLAYER
100
AcDb3dPolylineVertex
 10
-227.788668832816
 20
142.932471122815
 30
8.90607032566493E-15
 70
0
  0
VERTEX
  5
B19
100
AcDbEntity
  8
LAYER_01
100
AcDbVertex
  6
BYLAYER
100
AcDb3dPolylineVertex
 10
-227.516607539389
 20
141.70735552474
 30
8.90607032566493E-15
 70
0
  0
VERTEX
  5
B1A
100
AcDbEntity
  8
LAYER_01
100
AcDbVertex
  6
BYLAYER
100
AcDb3dPolylineVertex
 10
-227.217250476774
 20
140.490038689246
 30
8.90607032566493E-15
 70
0
  0
VERTEX
  5
B1B
100
AcDbEntity
  8
LAYER_01
100
AcDbVertex
  6
BYLAYER
100
AcDb3dPolylineVertex
 10
-226.890741533331
 20
139.28131660361
 30
8.90607032566493E-15
 70
0
  0
VERTEX
  5
B1C
100
AcDbEntity
  8
LAYER_01
100
AcDbVertex
  6
BYLAYER
100
AcDb3dPolylineVertex
 10
-226.537224597425
 20
138.081985255109
 30
8.90607032566493E-15
 70
0
  0
VERTEX
  5
B1D
100
AcDbEntity
  8
LAYER_01
100
AcDbVertex
  6
BYLAYER
100
AcDb3dPolylineVertex
 10
-226.156843557416
 20
136.892840631019
 30
8.90607032566493E-15
 70
0
  0
VERTEX
  5
B1E
100
AcDbEntity
  8
LAYER_01
100
AcDbVertex
  6
BYLAYER
100
AcDb3dPolylineVertex
 10
-225.749742301669
 20
135.714678718619
 30
8.90607032566493E-15
 70
0
  0
VERTEX
  5
B1F
100
AcDbEntity
  8
LAYER_01
100
AcDbVertex
  6
BYLAYER
100
AcDb3dPolylineVertex
 10
-225.316064718545
 20
134.548295505184
 30
8.90607032566493E-15
 70
0
  0
VERTEX
  5
B20
100
AcDbEntity
  8
LAYER_01
100
AcDbVertex
  6
BYLAYER
100
AcDb3dPolylineVertex
 10
-224.855954696407
 20
133.394486977992
 30
8.90607032566493E-15
 70
0
  0
VERTEX
  5
B21
100
AcDbEntity
  8
LAYER_01
100
AcDbVertex
  6
BYLAYER
100
AcDb3dPolylineVertex
 10
-224.369556123617
 20
132.25404912432
 30
8.90607032566493E-15
 70
0
  0
VERTEX
  5
B22
100
AcDbEntity
  8
LAYER_01
100
AcDbVertex
  6
BYLAYER
100
AcDb3dPolylineVertex
 10
-223.857012888538
 20
131.127777931444
 30
8.90607032566493E-15
 70
0
  0
VERTEX
  5
B23
100
AcDbEntity
  8
LAYER_01
100
AcDbVertex
  6
BYLAYER
100
AcDb3dPolylineVertex
 10
-223.318468879533
 20
130.016469386643
 30
8.90607032566493E-15
 70
0
  0
VERTEX
  5
B24
100
AcDbEntity
  8
LAYER_01
100
AcDbVertex
  6
BYLAYER
100
AcDb3dPolylineVertex
 10
-222.754067984964
 20
128.920919477192
 30
8.90607032566493E-15
 70
0
  0
VERTEX
  5
B25
100
AcDbEntity
  8
LAYER_01
100
AcDbVertex
  6
BYLAYER
100
AcDb3dPolylineVertex
 10
-222.054321926003
 20
127.647826553039
 30
8.9060681203576E-15
 70
0
  0
VERTEX
  5
B26
100
AcDbEntity
  8
LAYER_01
100
AcDbVertex
  6
BYLAYER
100
AcDb3dPolylineVertex
 10
-221.319690628052
 20
126.397594801753
 30
8.9060526832063E-15
 70
0
  0
VERTEX
  5
B27
100
AcDbEntity
  8
LAYER_01
100
AcDbVertex
  6
BYLAYER
100
AcDb3dPolylineVertex
 10
-220.551173487958
 20
125.169982037237
 30
8.90601078236705E-15
 70
0
  0
VERTEX
  5
B28
100
AcDbEntity
  8
LAYER_01
100
AcDbVertex
  6
BYLAYER
100
AcDb3dPolylineVertex
 10
-219.749769902567
 20
123.964746073393
 30
8.90592918599589E-15
 70
0
  0
VERTEX
  5
B29
100
AcDbEntity
  8
LAYER_01
100
AcDbVertex
  6
BYLAYER
100
AcDb3dPolylineVertex
 10
-218.916479268726
 20
122.781644724124
 30
8.90579466224883E-15
 70
0
  0
VERTEX
  5
B2A
100
AcDbEntity
  8
LAYER_01
100
AcDbVertex
  6
BYLAYER
100
AcDb3dPolylineVertex
 10
-218.052300983281
 20
121.620435803331
 30
8.90559397928191E-15
 70
0
  0
VERTEX
  5
B2B
100
AcDbEntity
  8
LAYER_01
100
AcDbVertex
  6
BYLAYER
100
AcDb3dPolylineVertex
 10
-217.158234443079
 20
120.480877124918
 30
8.90531390525116E-15
 70
0
  0
VERTEX
  5
B2C
100
AcDbEntity
  8
LAYER_01
100
AcDbVertex
  6
BYLAYER
100
AcDb3dPolylineVertex
 10
-216.235279044966
 20
119.362726502787
 30
8.90494120831259E-15
 70
0
  0
VERTEX
  5
B2D
100
AcDbEntity
  8
LAYER_01
100
AcDbVertex
  6
BYLAYER
100
AcDb3dPolylineVertex
 10
-215.284434185788
 20
118.26574175084
 30
8.90446265662225E-15
 70
0
  0
VERTEX
  5
B2E
100
AcDbEntity
  8
LAYER_01
100
AcDbVertex
  6
BYLAYER
100
AcDb3dPolylineVertex
 10
-214.306699262393
 20
117.18968068298
 30
8.90386501833615E-15
 70
0
  0
VERTEX
  5
B2F
100
AcDbEntity
  8
LAYER_01
100
AcDbVertex
  6
BYLAYER
100
AcDb3dPolylineVertex
 10
-213.303073671626
 20
116.134301113109
 30
8.90313506161032E-15
 70
0
  0
VERTEX
  5
B30
100
AcDbEntity
  8
LAYER_01
100
AcDbVertex
  6
BYLAYER
100
AcDb3dPolylineVertex
 10
-212.274556810335
 20
115.09936085513
 30
8.9022595546008E-15
 70
0
  0
VERTEX
  5
B31
100
AcDbEntity
  8
LAYER_01
100
AcDbVertex
  6
BYLAYER
100
AcDb3dPolylineVertex
 10
-211.222148075365
 20
114.084617722945
 30
8.9012252654636E-15
 70
0
  0
VERTEX
  5
B32
100
AcDbEntity
  8
LAYER_01
100
AcDbVertex
  6
BYLAYER
100
AcDb3dPolylineVertex
 10
-210.146846863564
 20
113.089829530456
 30
8.90001896235476E-15
 70
0
  0
VERTEX
  5
B33
100
AcDbEntity
  8
LAYER_01
100
AcDbVertex
  6
BYLAYER
100
AcDb3dPolylineVertex
 10
-209.049652571778
 20
112.114754091567
 30
8.8986274134303E-15
 70
0
  0
VERTEX
  5
B34
100
AcDbEntity
  8
LAYER_01
100
AcDbVertex
  6
BYLAYER
100
AcDb3dPolylineVertex
 10
-207.931564596853
 20
111.159149220179
 30
8.89703738684625E-15
 70
0
  0
VERTEX
  5
B35
100
AcDbEntity
  8
LAYER_01
100
AcDbVertex
  6
BYLAYER
100
AcDb3dPolylineVertex
 10
-206.793582335636
 20
110.222772730195
 30
8.89523565075864E-15
 70
0
  0
VERTEX
  5
B36
100
AcDbEntity
  8
LAYER_01
100
AcDbVertex
  6
BYLAYER
100
AcDb3dPolylineVertex
 10
-205.636705184973
 20
109.305382435517
 30
8.89320897332349E-15
 70
0
  0
VERTEX
  5
B37
100
AcDbEntity
  8
LAYER_01
100
AcDbVertex
  6
BYLAYER
100
AcDb3dPolylineVertex
 10
-203.270263802697
 20
107.52659168769
 30
8.8884278670347E-15
 70
0
  0
VERTEX
  5
B38
100
AcDbEntity
  8
LAYER_01
100
AcDbVertex
  6
BYLAYER
100
AcDb3dPolylineVertex
 10
-200.840235624796
 20
105.820839487919
 30
8.8825882132281E-15
 70
0
  0
VERTEX
  5
B39
100
AcDbEntity
  8
LAYER_01
100
AcDbVertex
  6
BYLAYER
100
AcDb3dPolylineVertex
 10
-198.354615826044
 20
104.186188347422
 30
8.8755841571519E-15
 70
0
  0
VERTEX
  5
B3A
100
AcDbEntity
  8
LAYER_01
100
AcDbVertex
  6
BYLAYER
100
AcDb3dPolylineVertex
 10
-195.821399581212
 20
102.620700777419
 30
8.86730984405432E-15
 70
0
  0
VERTEX
  5
B3B
100
AcDbEntity
  8
LAYER_01
100
AcDbVertex
  6
BYLAYER
100
AcDb3dPolylineVertex
 10
-193.248582065072
 20
101.12243928913
 30
8.85765941918359E-15
 70
0
  0
VERTEX
  5
B3C
100
AcDbEntity
  8
LAYER_01
100
AcDbVertex
  6
BYLAYER
100
AcDb3dPolylineVertex
 10
-190.644158452396
 20
99.6894663937749
 30
8.84652702778791E-15
 70
0
  0
VERTEX
  5
B3D
100
AcDbEntity
  8
LAYER_01
100
AcDbVertex
  6
BYLAYER
100
AcDb3dPolylineVertex
 10
-188.016123917957
 20
98.3198446025724
 30
8.83380681511552E-15
 70
0
  0
VERTEX
  5
B3E
100
AcDbEntity
  8
LAYER_01
100
AcDbVertex
  6
BYLAYER
100
AcDb3dPolylineVertex
 10
-185.325430374217
 20
96.9895766218622
 30
8.81921528668055E-15
 70
0
  0
VERTEX
  5
B3F
100
AcDbEntity
  8
LAYER_01
100
AcDbVertex
  6
BYLAYER
100
AcDb3dPolylineVertex
 10
-182.619118300602
 20
95.720807432578
 30
8.80327988578594E-15
 70
0
  0
VERTEX
  5
B40
100
AcDbEntity
  8
LAYER_01
100
AcDbVertex
  6
BYLAYER
100
AcDb3dPolylineVertex
 10
-179.897728758583
 20
94.5114833795038
 30
8.78640940108438E-15
 70
0
  0
VERTEX
  5
B41
100
AcDbEntity
  8
LAYER_01
100
AcDbVertex
  6
BYLAYER
100
AcDb3dPolylineVertex
 10
-177.161802809629
 20
93.3595508074236
 30
8.76901262122854E-15
 70
0
  0
VERTEX
  5
B42
100
AcDbEntity
  8
LAYER_01
100
AcDbVertex
  6
BYLAYER
100
AcDb3dPolylineVertex
 10
-174.411881515209
 20
92.2629560611212
 30
8.75149833487111E-15
 70
0
  0
VERTEX
  5
B43
100
AcDbEntity
  8
LAYER_01
100
AcDbVertex
  6
BYLAYER
100
AcDb3dPolylineVertex
 10
-171.648505936795
 20
91.2196454853807
 30
8.73427533066477E-15
 70
0
  0
VERTEX
  5
B44
100
AcDbEntity
  8
LAYER_01
100
AcDbVertex
  6
BYLAYER
100
AcDb3dPolylineVertex
 10
-166.083556173863
 20
89.2846622247211
 30
8.70233832331606E-15
 70
0
  0
VERTEX
  5
B45
100
AcDbEntity
  8
LAYER_01
100
AcDbVertex
  6
BYLAYER
100
AcDb3dPolylineVertex
 10
-160.471282012593
 20
87.5381717837162
 30
8.67647190840387E-15
 70
0
  0
VERTEX
  5
B46
100
AcDbEntity
  8
LAYER_01
100
AcDbVertex
  6
BYLAYER
100
AcDb3dPolylineVertex
 10
-154.816011944744
 20
85.9637449206377
 30
8.65994639514964E-15
 70
0
  0
VERTEX
  5
B47
100
AcDbEntity
  8
LAYER_01
100
AcDbVertex
  6
BYLAYER
100
AcDb3dPolylineVertex
 10
-149.122074462078
 20
84.5449523937571
 30
8.6560320927748E-15
 70
0
  0
VERTEX
  5
B48
100
AcDbEntity
  8
LAYER_01
100
AcDbVertex
  6
BYLAYER
100
AcDb3dPolylineVertex
 10
-143.393798056354
 20
83.2653649613461
 30
8.66799931050081E-15
 70
0
  0
VERTEX
  5
B49
100
AcDbEntity
  8
LAYER_01
100
AcDbVertex
  6
BYLAYER
100
AcDb3dPolylineVertex
 10
-137.567992774843
 20
82.0964276406958
 30
8.69823693855834E-15
 70
0
  0
VERTEX
  5
B4A
100
AcDbEntity
  8
LAYER_01
100
AcDbVertex
  6
BYLAYER
100
AcDb3dPolylineVertex
 10
-131.715338574131
 20
81.0404911843506
 30
8.74323668395737E-15
 70
0
  0
VERTEX
  5
B4B
100
AcDbEntity
  8
LAYER_01
100
AcDbVertex
  6
BYLAYER
100
AcDb3dPolylineVertex
 10
-119.944949970167
 20
79.216981919257
 30
8.85816370930049E-15
 70
0
  0
VERTEX
  5
B4C
100
AcDbEntity
  8
LAYER_01
100
AcDbVertex
  6
BYLAYER
100
AcDb3dPolylineVertex
 10
-96.2521178375586
 20
76.3689453622271
 30
9.0522161758108E-15
 70
0
  0
VERTEX
  5
B4D
100
AcDbEntity
  8
LAYER_01
100
AcDbVertex
  6
BYLAYER
100
AcDb3dPolylineVertex
 10
-64.1184593643715
 20
73.3438395872536
 30
8.97178166231557E-15
 70
0
  0
VERTEX
  5
B4E
100
AcDbEntity
  8
LAYER_01
100
AcDbVertex
  6
BYLAYER
100
AcDb3dPolylineVertex
 10
-31.9561345232592
 20
71.191976090224
 30
8.77657442941881E-15
 70
0
  0
VERTEX
  5
B4F
100
AcDbEntity
  8
LAYER_01
100
AcDbVertex
  6
BYLAYER
100
AcDb3dPolylineVertex
 10
10.6962331820023
 20
69.7804400903895
 30
8.86076082126007E-15
 70
0
  0
VERTEX
  5
B50
100
AcDbEntity
  8
LAYER_01
100
AcDbVertex
  6
BYLAYER
100
AcDb3dPolylineVertex
 10
53.4065101095558
 20
69.4891948126879
 30
9.11565542305037E-15
 70
0
  0
VERTEX
  5
B51
100
AcDbEntity
  8
LAYER_01
100
AcDbVertex
  6
BYLAYER
100
AcDb3dPolylineVertex
 10
107.034485846534
 20
70.096632858806
 30
9.2151136107278E-15
 70
0
  0
VERTEX
  5
B52
100
AcDbEntity
  8
LAYER_01
100
AcDbVertex
  6
BYLAYER
100
AcDb3dPolylineVertex
 10
133.818173921989
 20
71.0605792855287
 30
9.18317905613685E-15
 70
0
  0
VERTEX
  5
B53
100
AcDbEntity
  8
LAYER_01
100
AcDbVertex
  6
BYLAYER
100
AcDb3dPolylineVertex
 10
160.564180138833
 20
72.6800744064441
 30
9.12850055892067E-15
 70
0
  0
VERTEX
  5
B54
100
AcDbEntity
  8
LAYER_01
100
AcDbVertex
  6
BYLAYER
100
AcDb3dPolylineVertex
 10
186.474219577671
 20
74.9979229763086
 30
9.07365485806022E-15
 70
0
  0
VERTEX
  5
B55
100
AcDbEntity
  8
LAYER_01
100
AcDbVertex
  6
BYLAYER
100
AcDb3dPolylineVertex
 10
212.320438369295
 20
78.0299275694811
 30
9.02628942520256E-15
 70
0
  0
VERTEX
  5
B56
100
AcDbEntity
  8
LAYER_01
100
AcDbVertex
  6
BYLAYER
100
AcDb3dPolylineVertex
 10
238.086864562582
 20
81.7205175016137
 30
8.99291431188916E-15
 70
0
  0
VERTEX
  5
B57
100
AcDbEntity
  8
LAYER_01
100
AcDbVertex
  6
BYLAYER
100
AcDb3dPolylineVertex
 10
263.757526206405
 20
86.0141220883582
 30
8.98003956966147E-15
 70
0
  0
VERTEX
  5
B58
100
AcDbEntity
  8
LAYER_01
100
AcDbVertex
  6
BYLAYER
100
AcDb3dPolylineVertex
 10
290.001424998952
 20
90.9967197216498
 30
8.99009829707127E-15
 70
0
  0
VERTEX
  5
B59
100
AcDbEntity
  8
LAYER_01
100
AcDbVertex
  6
BYLAYER
100
AcDb3dPolylineVertex
 10
316.131146809349
 20
96.5271982870272
 30
9.00636220590288E-15
 70
0
  0
VERTEX
  5
B5A
100
AcDbEntity
  8
LAYER_01
100
AcDbVertex
  6
BYLAYER
100
AcDb3dPolylineVertex
 10
342.150304258798
 20
102.576338057652
 30
9.00656281900728E-15
 70
0
  0
VERTEX
  5
B5B
100
AcDbEntity
  8
LAYER_01
100
AcDbVertex
  6
BYLAYER
100
AcDb3dPolylineVertex
 10
368.062509968503
 20
109.114919306687
 30
8.96843165923545E-15
 70
0
  0
VERTEX
  5
B5C
100
AcDbEntity
  8
LAYER_01
100
AcDbVertex
  6
BYLAYER
100
AcDb3dPolylineVertex
 10
393.203990862194
 20
115.955272648087
 30
8.88418878705355E-15
 70
0
  0
VERTEX
  5
B5D
100
AcDbEntity
  8
LAYER_01
100
AcDbVertex
  6
BYLAYER
100
AcDb3dPolylineVertex
 10
418.18154080862
 20
123.356969116144
 30
8.78802828981969E-15
 70
0
  0
VERTEX
  5
B5E
100
AcDbEntity
  8
LAYER_01
100
AcDbVertex
  6
BYLAYER
100
AcDb3dPolylineVertex
 10
442.929372759371
 20
131.44426704645
 30
8.7255862055371E-15
 70
0
  0
VERTEX
  5
B5F
100
AcDbEntity
  8
LAYER_01
100
AcDbVertex
  6
BYLAYER
100
AcDb3dPolylineVertex
 10
455.196586033739
 20
135.78384728982
 30
8.72127083012855E-15
 70
0
  0
VERTEX
  5
B60
100
AcDbEntity
  8
LAYER_01
100
AcDbVertex
  6
BYLAYER
100
AcDb3dPolylineVertex
 10
467.381699666034
 20
140.341424774599
 30
8.74249857220905E-15
 70
0
  0
VERTEX
  5
B61
100
AcDbEntity
  8
LAYER_01
100
AcDbVertex
  6
BYLAYER
100
AcDb3dPolylineVertex
 10
486.16286501731
 20
147.879226433148
 30
8.82820002597045E-15
 70
0
  0
VERTEX
  5
B62
100
AcDbEntity
  8
LAYER_01
100
AcDbVertex
  6
BYLAYER
100
AcDb3dPolylineVertex
 10
504.747076277348
 20
155.909799928496
 30
8.94180134422948E-15
 70
0
  0
VERTEX
  5
B63
100
AcDbEntity
  8
LAYER_01
100
AcDbVertex
  6
BYLAYER
100
AcDb3dPolylineVertex
 10
523.155946751008
 20
164.360812650617
 30
9.03558809967971E-15
 70
0
  0
VERTEX
  5
B64
100
AcDbEntity
  8
LAYER_01
100
AcDbVertex
  6
BYLAYER
100
AcDb3dPolylineVertex
 10
592.080293447767
 20
198.351314932896
 30
8.82338336818715E-15
 70
0
  0
VERTEX
  5
B65
100
AcDbEntity
  8
LAYER_01
100
AcDbVertex
  6
BYLAYER
100
AcDb3dPolylineVertex
 10
609.138101956355
 20
206.309800838303
 30
8.83089504603063E-15
 70
0
  0
VERTEX
  5
B66
100
AcDbEntity
  8
LAYER_01
100
AcDbVertex
  6
BYLAYER
100
AcDb3dPolylineVertex
 10
615.346346631172
 20
209.028525280916
 30
8.86221390311789E-15
 70
0
  0
VERTEX
  5
B67
100
AcDbEntity
  8
LAYER_01
100
AcDbVertex
  6
BYLAYER
100
AcDb3dPolylineVertex
 10
618.489677524059
 20
210.3140016963
 30
8.87852019092069E-15
 70
0
  0
VERTEX
  5
B68
100
AcDbEntity
  8
LAYER_01
100
AcDbVertex
  6
BYLAYER
100
AcDb3dPolylineVertex
 10
621.674199523708
 20
211.524997672691
 30
8.89181709856034E-15
 70
0
  0
VERTEX
  5
B69
100
AcDbEntity
  8
LAYER_01
100
AcDbVertex
  6
BYLAYER
100
AcDb3dPolylineVertex
 10
623.249286532253
 20
212.083180008633
 30
8.89652177703822E-15
 70
0
  0
VERTEX
  5
B6A
100
AcDbEntity
  8
LAYER_01
100
AcDbVertex
  6
BYLAYER
100
AcDb3dPolylineVertex
 10
624.836390931214
 20
212.610335749246
 30
8.90005724548018E-15
 70
0
  0
VERTEX
  5
B6B
100
AcDbEntity
  8
LAYER_01
100
AcDbVertex
  6
BYLAYER
100
AcDb3dPolylineVertex
 10
626.434984845258
 20
213.097764851944
 30
8.90259053389135E-15
 70
0
  0
VERTEX
  5
B6C
100
AcDbEntity
  8
LAYER_01
100
AcDbVertex
  6
BYLAYER
100
AcDb3dPolylineVertex
 10
628.044540399055
 20
213.536767274143
 30
8.90428867227686E-15
 70
0
  0
VERTEX
  5
B6D
100
AcDbEntity
  8
LAYER_01
100
AcDbVertex
  6
BYLAYER
100
AcDb3dPolylineVertex
 10
628.85326382982
 20
213.735389716748
 30
8.90487675708659E-15
 70
0
  0
VERTEX
  5
B6E
100
AcDbEntity
  8
LAYER_01
100
AcDbVertex
  6
BYLAYER
100
AcDb3dPolylineVertex
 10
629.664529717274
 20
213.918642973258
 30
8.90531869064183E-15
 70
0
  0
VERTEX
  5
B6F
100
AcDbEntity
  8
LAYER_01
100
AcDbVertex
  6
BYLAYER
100
AcDb3dPolylineVertex
 10
630.478272076999
 20
214.085439538352
 30
8.90563535169323E-15
 70
0
  0
VERTEX
  5
B70
100
AcDbEntity
  8
LAYER_01
100
AcDbVertex
  6
BYLAYER
100
AcDb3dPolylineVertex
 10
631.294424924581
 20
214.234691906706
 30
8.90584761899142E-15
 70
0
  0
VERTEX
  5
B71
100
AcDbEntity
  8
LAYER_01
100
AcDbVertex
  6
BYLAYER
100
AcDb3dPolylineVertex
 10
632.112922275603
 20
214.365312572996
 30
8.90597637128704E-15
 70
0
  0
VERTEX
  5
B72
100
AcDbEntity
  8
LAYER_01
100
AcDbVertex
  6
BYLAYER
100
AcDb3dPolylineVertex
 10
632.933698145647
 20
214.4762140319
 30
8.90604248733074E-15
 70
0
  0
VERTEX
  5
B73
100
AcDbEntity
  8
LAYER_01
100
AcDbVertex
  6
BYLAYER
100
AcDb3dPolylineVertex
 10
633.756686550298
 20
214.566308778095
 30
8.90606684587315E-15
 70
0
  0
VERTEX
  5
B74
100
AcDbEntity
  8
LAYER_01
100
AcDbVertex
  6
BYLAYER
100
AcDb3dPolylineVertex
 10
634.58182150514
 20
214.634509306257
 30
8.90607032566493E-15
 70
0
  0
VERTEX
  5
B75
100
AcDbEntity
  8
LAYER_01
100
AcDbVertex
  6
BYLAYER
100
AcDb3dPolylineVertex
 10
635.446322599824
 20
214.681710700215
 30
8.90614347983997E-15
 70
0
  0
VERTEX
  5
B76
100
AcDbEntity
  8
LAYER_01
100
AcDbVertex
  6
BYLAYER
100
AcDb3dPolylineVertex
 10
636.31257231577
 20
214.705581648589
 30
8.90665555906523E-15
 70
0
  0
VERTEX
  5
B77
100
AcDbEntity
  8
LAYER_01
100
AcDbVertex
  6
BYLAYER
100
AcDb3dPolylineVertex
 10
637.180046783608
 20
214.707893412096
 30
8.90804548839096E-15
 70
0
  0
VERTEX
  5
B78
100
AcDbEntity
  8
LAYER_01
100
AcDbVertex
  6
BYLAYER
100
AcDb3dPolylineVertex
 10
638.04822213397
 20
214.690417251456
 30
8.91075219286738E-15
 70
0
  0
VERTEX
  5
B79
100
AcDbEntity
  8
LAYER_01
100
AcDbVertex
  6
BYLAYER
100
AcDb3dPolylineVertex
 10
638.916574497487
 20
214.654924427384
 30
8.91521459754472E-15
 70
0
  0
VERTEX
  5
B7A
100
AcDbEntity
  8
LAYER_01
100
AcDbVertex
  6
BYLAYER
100
AcDb3dPolylineVertex
 10
639.78458000479
 20
214.6031862006
 30
8.92187162747321E-15
 70
0
  0
VERTEX
  5
B7B
100
AcDbEntity
  8
LAYER_01
100
AcDbVertex
  6
BYLAYER
100
AcDb3dPolylineVertex
 10
641.517454973279
 20
214.458058581765
 30
8.94352526328456E-15
 70
0
  0
VERTEX
  5
B7C
100
AcDbEntity
  8
LAYER_01
100
AcDbVertex
  6
BYLAYER
100
AcDb3dPolylineVertex
 10
643.279205916171
 20
214.258944787926
 30
8.977629275039E-15
 70
0
  0
VERTEX
  5
B7D
100
AcDbEntity
  8
LAYER_01
100
AcDbVertex
  6
BYLAYER
100
AcDb3dPolylineVertex
 10
644.156142057566
 20
214.135934502693
 30
8.99660563379622E-15
 70
0
  0
VERTEX
  5
B7E
100
AcDbEntity
  8
LAYER_01
100
AcDbVertex
  6
BYLAYER
100
AcDb3dPolylineVertex
 10
645.029951258221
 20
213.993898582181
 30
9.01496223937319E-15
 70
0
  0
VERTEX
  5
B7F
100
AcDbEntity
  8
LAYER_01
100
AcDbVertex
  6
BYLAYER
100
AcDb3dPolylineVertex
 10
645.900257977604
 20
213.830294494088
 30
9.03127210044473E-15
 70
0
  0
VERTEX
  5
B80
100
AcDbEntity
  8
LAYER_01
100
AcDbVertex
  6
BYLAYER
100
AcDb3dPolylineVertex
 10
646.766686675185
 20
213.642579706112
 30
9.04410822568564E-15
 70
0
  0
VERTEX
  5
B81
100
AcDbEntity
  8
LAYER_01
100
AcDbVertex
  6
BYLAYER
100
AcDb3dPolylineVertex
 10
647.628861810435
 20
213.42821168595
 30
9.05204362377074E-15
 70
0
  0
VERTEX
  5
B82
100
AcDbEntity
  8
LAYER_01
100
AcDbVertex
  6
BYLAYER
100
AcDb3dPolylineVertex
 10
648.486407842821
 20
213.1846479013
 30
9.05365130337485E-15
 70
0
  0
VERTEX
  5
B83
100
AcDbEntity
  8
LAYER_01
100
AcDbVertex
  6
BYLAYER
100
AcDb3dPolylineVertex
 10
649.24758523869
 20
212.940300194207
 30
9.04894038244336E-15
 70
0
  0
VERTEX
  5
B84
100
AcDbEntity
  8
LAYER_01
100
AcDbVertex
  6
BYLAYER
100
AcDb3dPolylineVertex
 10
649.625492308007
 20
212.808007935915
 30
9.04463515822742E-15
 70
0
  0
VERTEX
  5
B85
100
AcDbEntity
  8
LAYER_01
100
AcDbVertex
  6
BYLAYER
100
AcDb3dPolylineVertex
 10
650.00098002146
 20
212.668638119702
 30
9.03922764822317E-15
 70
0
  0
VERTEX
  5
B86
100
AcDbEntity
  8
LAYER_01
100
AcDbVertex
  6
BYLAYER
100
AcDb3dPolylineVertex
 10
650.373574676457
 20
212.521941779499
 30
9.03286601996447E-15
 70
0
  0
VERTEX
  5
B87
100
AcDbEntity
  8
LAYER_01
100
AcDbVertex
  6
BYLAYER
100
AcDb3dPolylineVertex
 10
650.742802570411
 20
212.36766994924
 30
9.02569844098518E-15
 70
0
  0
VERTEX
  5
B88
100
AcDbEntity
  8
LAYER_01
100
AcDbVertex
  6
BYLAYER
100
AcDb3dPolylineVertex
 10
651.108190000731
 20
212.205573662856
 30
9.01787307881916E-15
 70
0
  0
VERTEX
  5
B89
100
AcDbEntity
  8
LAYER_01
100
AcDbVertex
  6
BYLAYER
100
AcDb3dPolylineVertex
 10
651.469263264827
 20
212.035403954279
 30
9.00953810100028E-15
 70
0
  0
VERTEX
  5
B8A
100
AcDbEntity
  8
LAYER_01
100
AcDbVertex
  6
BYLAYER
100
AcDb3dPolylineVertex
 10
651.82554866011
 20
211.856911857442
 30
9.00084167506238E-15
 70
0
  0
VERTEX
  5
B8B
100
AcDbEntity
  8
LAYER_01
100
AcDbVertex
  6
BYLAYER
100
AcDb3dPolylineVertex
 10
652.17657248399
 20
211.669848406277
 30
8.99193196853934E-15
 70
0
  0
VERTEX
  5
B8C
100
AcDbEntity
  8
LAYER_01
100
AcDbVertex
  6
BYLAYER
100
AcDb3dPolylineVertex
 10
652.521861033878
 20
211.473964634715
 30
8.98295714896501E-15
 70
0
  0
VERTEX
  5
B8D
100
AcDbEntity
  8
LAYER_01
100
AcDbVertex
  6
BYLAYER
100
AcDb3dPolylineVertex
 10
652.860940607183
 20
211.269011576689
 30
8.97406538387326E-15
 70
0
  0
VERTEX
  5
B8E
100
AcDbEntity
  8
LAYER_01
100
AcDbVertex
  6
BYLAYER
100
AcDb3dPolylineVertex
 10
653.193337501315
 20
211.054740266131
 30
8.96540484079795E-15
 70
0
  0
VERTEX
  5
B8F
100
AcDbEntity
  8
LAYER_01
100
AcDbVertex
  6
BYLAYER
100
AcDb3dPolylineVertex
 10
653.518578013687
 20
210.830901736972
 30
8.95712368727293E-15
 70
0
  0
VERTEX
  5
B90
100
AcDbEntity
  8
LAYER_01
100
AcDbVertex
  6
BYLAYER
100
AcDb3dPolylineVertex
 10
653.836188441706
 20
210.597247023147
 30
8.94937009083207E-15
 70
0
  0
VERTEX
  5
B91
100
AcDbEntity
  8
LAYER_01
100
AcDbVertex
  6
BYLAYER
100
AcDb3dPolylineVertex
 10
654.145695082785
 20
210.353527158585
 30
8.94229221900923E-15
 70
0
  0
VERTEX
  5
B92
100
AcDbEntity
  8
LAYER_01
100
AcDbVertex
  6
BYLAYER
100
AcDb3dPolylineVertex
 10
654.451219004689
 20
210.0957106724
 30
8.93592242539713E-15
 70
0
  0
VERTEX
  5
B93
100
AcDbEntity
  8
LAYER_01
100
AcDbVertex
  6
BYLAYER
100
AcDb3dPolylineVertex
 10
654.748134191268
 20
209.827798214955
 30
8.9303855988743E-15
 70
0
  0
VERTEX
  5
B94
100
AcDbEntity
  8
LAYER_01
100
AcDbVertex
  6
BYLAYER
100
AcDb3dPolylineVertex
 10
655.036670278924
 20
209.550321633071
 30
8.92566575590474E-15
 70
0
  0
VERTEX
  5
B95
100
AcDbEntity
  8
LAYER_01
100
AcDbVertex
  6
BYLAYER
100
AcDb3dPolylineVertex
 10
655.317056904058
 20
209.263812773572
 30
8.92174691295246E-15
 70
0
  0
VERTEX
  5
B96
100
AcDbEntity
  8
LAYER_01
100
AcDbVertex
  6
BYLAYER
100
AcDb3dPolylineVertex
 10
655.589523703071
 20
208.968803483278
 30
8.91861308648145E-15
 70
0
  0
VERTEX
  5
B97
100
AcDbEntity
  8
LAYER_01
100
AcDbVertex
  6
BYLAYER
100
AcDb3dPolylineVertex
 10
655.854300312365
 20
208.665825609011
 30
8.91624829295574E-15
 70
0
  0
VERTEX
  5
B98
100
AcDbEntity
  8
LAYER_01
100
AcDbVertex
  6
BYLAYER
100
AcDb3dPolylineVertex
 10
656.11161636834
 20
208.355410997595
 30
8.91463654883932E-15
 70
0
  0
VERTEX
  5
B99
100
AcDbEntity
  8
LAYER_01
100
AcDbVertex
  6
BYLAYER
100
AcDb3dPolylineVertex
 10
656.361701507398
 20
208.038091495849
 30
8.91376187059619E-15
 70
0
  0
VERTEX
  5
B9A
100
AcDbEntity
  8
LAYER_01
100
AcDbVertex
  6
BYLAYER
100
AcDb3dPolylineVertex
 10
656.60478536594
 20
207.714398950597
 30
8.91360827469037E-15
 70
0
  0
VERTEX
  5
B9B
100
AcDbEntity
  8
LAYER_01
100
AcDbVertex
  6
BYLAYER
100
AcDb3dPolylineVertex
 10
656.841097580368
 20
207.384865208661
 30
8.91415977758587E-15
 70
0
  0
VERTEX
  5
B9C
100
AcDbEntity
  8
LAYER_01
100
AcDbVertex
  6
BYLAYER
100
AcDb3dPolylineVertex
 10
657.070867787082
 20
207.050022116861
 30
8.91540039574668E-15
 70
0
  0
VERTEX
  5
B9D
100
AcDbEntity
  8
LAYER_01
100
AcDbVertex
  6
BYLAYER
100
AcDb3dPolylineVertex
 10
657.294325622484
 20
206.710401522021
 30
8.91731414563681E-15
 70
0
  0
VERTEX
  5
B9E
100
AcDbEntity
  8
LAYER_01
100
AcDbVertex
  6
BYLAYER
100
AcDb3dPolylineVertex
 10
657.723222724958
 20
206.018955210505
 30
8.92309710646108E-15
 70
0
  0
VERTEX
  5
B9F
100
AcDbEntity
  8
LAYER_01
100
AcDbVertex
  6
BYLAYER
100
AcDb3dPolylineVertex
 10
658.129625978999
 20
205.31478104869
 30
8.93138079177072E-15
 70
0
  0
VERTEX
  5
BA0
100
AcDbEntity
  8
LAYER_01
100
AcDbVertex
  6
BYLAYER
100
AcDb3dPolylineVertex
 10
658.555463556195
 20
204.523815034292
 30
8.94315890048427E-15
 70
0
  0
VERTEX
  5
BA1
100
AcDbEntity
  8
LAYER_01
100
AcDbVertex
  6
BYLAYER
100
AcDb3dPolylineVertex
 10
658.955647763675
 20
203.722701778184
 30
8.95667084628718E-15
 70
0
  0
VERTEX
  5
BA2
100
AcDbEntity
  8
LAYER_01
100
AcDbVertex
  6
BYLAYER
100
AcDb3dPolylineVertex
 10
659.329891359198
 20
202.911698823717
 30
8.97073664140598E-15
 70
0
  0
VERTEX
  5
BA3
100
AcDbEntity
  8
LAYER_01
100
AcDbVertex
  6
BYLAYER
100
AcDb3dPolylineVertex
 10
659.677907100522
 20
202.091063714239
 30
8.98417629806717E-15
 70
0
  0
VERTEX
  5
BA4
100
AcDbEntity
  8
LAYER_01
100
AcDbVertex
  6
BYLAYER
100
AcDb3dPolylineVertex
 10
659.999407745405
 20
201.261053993101
 30
8.99580982849729E-15
 70
0
  0
VERTEX
  5
BA5
100
AcDbEntity
  8
LAYER_01
100
AcDbVertex
  6
BYLAYER
100
AcDb3dPolylineVertex
 10
660.294106051607
 20
200.421927203653
 30
9.00445724492284E-15
 70
0
  0
VERTEX
  5
BA6
100
AcDbEntity
  8
LAYER_01
100
AcDbVertex
  6
BYLAYER
100
AcDb3dPolylineVertex
 10
660.561714776885
 20
199.573940889245
 30
9.00893855957033E-15
 70
0
  0
VERTEX
  5
BA7
100
AcDbEntity
  8
LAYER_01
100
AcDbVertex
  6
BYLAYER
100
AcDb3dPolylineVertex
 10
660.801946678998
 20
198.717352593226
 30
9.0080737846663E-15
 70
0
  0
VERTEX
  5
BA8
100
AcDbEntity
  8
LAYER_01
100
AcDbVertex
  6
BYLAYER
100
AcDb3dPolylineVertex
 10
660.999876172085
 20
197.916407622299
 30
9.00175545356569E-15
 70
0
  0
VERTEX
  5
BA9
100
AcDbEntity
  8
LAYER_01
100
AcDbVertex
  6
BYLAYER
100
AcDb3dPolylineVertex
 10
661.174126645562
 20
197.109022003364
 30
8.99058160665454E-15
 70
0
  0
VERTEX
  5
BAA
100
AcDbEntity
  8
LAYER_01
100
AcDbVertex
  6
BYLAYER
100
AcDb3dPolylineVertex
 10
661.324762987381
 20
196.295917071577
 30
8.97529802259863E-15
 70
0
  0
VERTEX
  5
BAB
100
AcDbEntity
  8
LAYER_01
100
AcDbVertex
  6
BYLAYER
100
AcDb3dPolylineVertex
 10
661.451850085497
 20
195.477814162097
 30
8.95665048006376E-15
 70
0
  0
VERTEX
  5
BAC
100
AcDbEntity
  8
LAYER_01
100
AcDbVertex
  6
BYLAYER
100
AcDb3dPolylineVertex
 10
661.555452827862
 20
194.655434610079
 30
8.93538475771575E-15
 70
0
  0
VERTEX
  5
BAD
100
AcDbEntity
  8
LAYER_01
100
AcDbVertex
  6
BYLAYER
100
AcDb3dPolylineVertex
 10
661.635636102428
 20
193.829499750681
 30
8.91224663422036E-15
 70
0
  0
VERTEX
  5
BAE
100
AcDbEntity
  8
LAYER_01
100
AcDbVertex
  6
BYLAYER
100
AcDb3dPolylineVertex
 10
661.692464797149
 20
193.00073091906
 30
8.88798188824342E-15
 70
0
  0
VERTEX
  5
BAF
100
AcDbEntity
  8
LAYER_01
100
AcDbVertex
  6
BYLAYER
100
AcDb3dPolylineVertex
 10
661.726003799979
 20
192.169849450373
 30
8.86333629845071E-15
 70
0
  0
VERTEX
  5
BB0
100
AcDbEntity
  8
LAYER_01
100
AcDbVertex
  6
BYLAYER
100
AcDb3dPolylineVertex
 10
661.73631799887
 20
191.337576679777
 30
8.83905564350804E-15
 70
0
  0
VERTEX
  5
BB1
100
AcDbEntity
  8
LAYER_01
100
AcDbVertex
  6
BYLAYER
100
AcDb3dPolylineVertex
 10
661.723472281774
 20
190.504633942428
 30
8.81588570208119E-15
 70
0
  0
VERTEX
  5
BB2
100
AcDbEntity
  8
LAYER_01
100
AcDbVertex
  6
BYLAYER
100
AcDb3dPolylineVertex
 10
661.687531536646
 20
189.671742573485
 30
8.79457225283596E-15
 70
0
  0
VERTEX
  5
BB3
100
AcDbEntity
  8
LAYER_01
100
AcDbVertex
  6
BYLAYER
100
AcDb3dPolylineVertex
 10
661.628560651439
 20
188.839623908103
 30
8.77586107443816E-15
 70
0
  0
VERTEX
  5
BB4
100
AcDbEntity
  8
LAYER_01
100
AcDbVertex
  6
BYLAYER
100
AcDb3dPolylineVertex
 10
661.546624514104
 20
188.00899928144
 30
8.76049794555358E-15
 70
0
  0
VERTEX
  5
BB5
100
AcDbEntity
  8
LAYER_01
100
AcDbVertex
  6
BYLAYER
100
AcDb3dPolylineVertex
 10
661.441788012596
 20
187.180590028653
 30
8.74922864484802E-15
 70
0
  0
VERTEX
  5
BB6
100
AcDbEntity
  8
LAYER_01
100
AcDbVertex
  6
BYLAYER
100
AcDb3dPolylineVertex
 10
661.314116034867
 20
186.355117484899
 30
8.74279895098728E-15
 70
0
  0
VERTEX
  5
BB7
100
AcDbEntity
  8
LAYER_01
100
AcDbVertex
  6
BYLAYER
100
AcDb3dPolylineVertex
 10
661.16367346887
 20
185.533302985335
 30
8.74195464263714E-15
 70
0
  0
VERTEX
  5
BB8
100
AcDbEntity
  8
LAYER_01
100
AcDbVertex
  6
BYLAYER
100
AcDb3dPolylineVertex
 10
660.983513811608
 20
184.684821043781
 30
8.74751940374071E-15
 70
0
  0
VERTEX
  5
BB9
100
AcDbEntity
  8
LAYER_01
100
AcDbVertex
  6
BYLAYER
100
AcDb3dPolylineVertex
 10
660.779153329306
 20
183.841841004073
 30
8.75914331362419E-15
 70
0
  0
VERTEX
  5
BBA
100
AcDbEntity
  8
LAYER_01
100
AcDbVertex
  6
BYLAYER
100
AcDb3dPolylineVertex
 10
660.550859728705
 20
183.005145381242
 30
8.77606281620884E-15
 70
0
  0
VERTEX
  5
BBB
100
AcDbEntity
  8
LAYER_01
100
AcDbVertex
  6
BYLAYER
100
AcDb3dPolylineVertex
 10
660.298900716547
 20
182.175516690317
 30
8.79751435541592E-15
 70
0
  0
VERTEX
  5
BBC
100
AcDbEntity
  8
LAYER_01
100
AcDbVertex
  6
BYLAYER
100
AcDb3dPolylineVertex
 10
660.023543999572
 20
181.353737446327
 30
8.82273437516671E-15
 70
0
  0
VERTEX
  5
BBD
100
AcDbEntity
  8
LAYER_01
100
AcDbVertex
  6
BYLAYER
100
AcDb3dPolylineVertex
 10
659.725057284521
 20
180.540590164303
 30
8.85095931938247E-15
 70
0
  0
VERTEX
  5
BBE
100
AcDbEntity
  8
LAYER_01
100
AcDbVertex
  6
BYLAYER
100
AcDb3dPolylineVertex
 10
659.403708278134
 20
179.736857359275
 30
8.88142563198447E-15
 70
0
  0
VERTEX
  5
BBF
100
AcDbEntity
  8
LAYER_01
100
AcDbVertex
  6
BYLAYER
100
AcDb3dPolylineVertex
 10
659.059764687153
 20
178.943321546272
 30
8.91336975689397E-15
 70
0
  0
VERTEX
  5
BC0
100
AcDbEntity
  8
LAYER_01
100
AcDbVertex
  6
BYLAYER
100
AcDb3dPolylineVertex
 10
658.693494218318
 20
178.160765240324
 30
8.94602813803223E-15
 70
0
  0
VERTEX
  5
BC1
100
AcDbEntity
  8
LAYER_01
100
AcDbVertex
  6
BYLAYER
100
AcDb3dPolylineVertex
 10
658.30516457837
 20
177.389970956461
 30
8.97863721932053E-15
 70
0
  0
VERTEX
  5
BC2
100
AcDbEntity
  8
LAYER_01
100
AcDbVertex
  6
BYLAYER
100
AcDb3dPolylineVertex
 10
657.895043474049
 20
176.631721209712
 30
9.01043344468012E-15
 70
0
  0
VERTEX
  5
BC3
100
AcDbEntity
  8
LAYER_01
100
AcDbVertex
  6
BYLAYER
100
AcDb3dPolylineVertex
 10
657.463398612096
 20
175.886798515108
 30
9.04065325803228E-15
 70
0
  0
VERTEX
  5
BC4
100
AcDbEntity
  8
LAYER_01
100
AcDbVertex
  6
BYLAYER
100
AcDb3dPolylineVertex
 10
657.010497699253
 20
175.155985387678
 30
9.06853310329827E-15
 70
0
  0
VERTEX
  5
BC5
100
AcDbEntity
  8
LAYER_01
100
AcDbVertex
  6
BYLAYER
100
AcDb3dPolylineVertex
 10
656.53660844226
 20
174.440064342452
 30
9.09330942439935E-15
 70
0
  0
VERTEX
  5
BC6
100
AcDbEntity
  8
LAYER_01
100
AcDbVertex
  6
BYLAYER
100
AcDb3dPolylineVertex
 10
656.041998547858
 20
173.73981789446
 30
9.1142186652568E-15
 70
0
  0
VERTEX
  5
BC7
100
AcDbEntity
  8
LAYER_01
100
AcDbVertex
  6
BYLAYER
100
AcDb3dPolylineVertex
 10
655.526935722786
 20
173.056028558732
 30
9.13049726979187E-15
 70
0
  0
VERTEX
  5
BC8
100
AcDbEntity
  8
LAYER_01
100
AcDbVertex
  6
BYLAYER
100
AcDb3dPolylineVertex
 10
655.010669825962
 20
172.412002235226
 30
9.14130456641447E-15
 70
0
  0
VERTEX
  5
BC9
100
AcDbEntity
  8
LAYER_01
100
AcDbVertex
  6
BYLAYER
100
AcDb3dPolylineVertex
 10
654.476634939543
 20
171.783330832228
 30
9.14760310359636E-15
 70
0
  0
VERTEX
  5
BCA
100
AcDbEntity
  8
LAYER_01
100
AcDbVertex
  6
BYLAYER
100
AcDb3dPolylineVertex
 10
653.925875036973
 20
171.169301652057
 30
9.14991159856134E-15
 70
0
  0
VERTEX
  5
BCB
100
AcDbEntity
  8
LAYER_01
100
AcDbVertex
  6
BYLAYER
100
AcDb3dPolylineVertex
 10
653.359434091696
 20
170.569201997035
 30
9.14874876853326E-15
 70
0
  0
VERTEX
  5
BCC
100
AcDbEntity
  8
LAYER_01
100
AcDbVertex
  6
BYLAYER
100
AcDb3dPolylineVertex
 10
652.778356077155
 20
169.982319169481
 30
9.14463333073592E-15
 70
0
  0
VERTEX
  5
BCD
100
AcDbEntity
  8
LAYER_01
100
AcDbVertex
  6
BYLAYER
100
AcDb3dPolylineVertex
 10
652.183684966794
 20
169.407940471716
 30
9.13808400239317E-15
 70
0
  0
VERTEX
  5
BCE
100
AcDbEntity
  8
LAYER_01
100
AcDbVertex
  6
BYLAYER
100
AcDb3dPolylineVertex
 10
651.576464734056
 20
168.845353206062
 30
9.12961950072882E-15
 70
0
  0
VERTEX
  5
BCF
100
AcDbEntity
  8
LAYER_01
100
AcDbVertex
  6
BYLAYER
100
AcDb3dPolylineVertex
 10
650.957739352387
 20
168.293844674839
 30
9.11975854296669E-15
 70
0
  0
VERTEX
  5
BD0
100
AcDbEntity
  8
LAYER_01
100
AcDbVertex
  6
BYLAYER
100
AcDb3dPolylineVertex
 10
649.689949036026
 20
167.221213024968
 30
9.09792212804441E-15
 70
0
  0
VERTEX
  5
BD1
100
AcDbEntity
  8
LAYER_01
100
AcDbVertex
  6
BYLAYER
100
AcDb3dPolylineVertex
 10
648.38866580526
 20
166.184343940669
 30
9.07672449541692E-15
 70
0
  0
VERTEX
  5
BD2
100
AcDbEntity
  8
LAYER_01
100
AcDbVertex
  6
BYLAYER
100
AcDb3dPolylineVertex
 10
647.06224144764
 20
165.177535840507
 30
9.06031538287482E-15
 70
0
  0
VERTEX
  5
BD3
100
AcDbEntity
  8
LAYER_01
100
AcDbVertex
  6
BYLAYER
100
AcDb3dPolylineVertex
 10
645.719027750715
 20
164.195087143049
 30
9.05284452820869E-15
 70
0
  0
VERTEX
  5
BD4
100
AcDbEntity
  8
LAYER_01
100
AcDbVertex
  6
BYLAYER
100
AcDb3dPolylineVertex
 10
642.868395936588
 20
162.19396043313
 30
9.07333859954283E-15
 70
0
  0
VERTEX
  5
BD5
100
AcDbEntity
  8
LAYER_01
100
AcDbVertex
  6
BYLAYER
100
AcDb3dPolylineVertex
 10
639.980500659593
 20
160.268706158961
 30
9.12179162867843E-15
 70
0
  0
VERTEX
  5
BD6
100
AcDbEntity
  8
LAYER_01
100
AcDbVertex
  6
BYLAYER
100
AcDb3dPolylineVertex
 10
637.055274692871
 20
158.412945323229
 30
9.16846524724108E-15
 70
0
  0
VERTEX
  5
BD7
100
AcDbEntity
  8
LAYER_01
100
AcDbVertex
  6
BYLAYER
100
AcDb3dPolylineVertex
 10
634.092650809562
 20
156.620298928626
 30
9.18362108685641E-15
 70
0
  0
VERTEX
  5
BD8
100
AcDbEntity
  8
LAYER_01
100
AcDbVertex
  6
BYLAYER
100
AcDb3dPolylineVertex
 10
621.723225040251
 20
149.702316142263
 30
8.86520464628782E-15
 70
0
  0
VERTEX
  5
BD9
100
AcDbEntity
  8
LAYER_01
100
AcDbVertex
  6
BYLAYER
100
AcDb3dPolylineVertex
 10
568.167436170059
 20
120.49112987051
 30
8.89373446726259E-15
 70
0
  0
VERTEX
  5
BDA
100
AcDbEntity
  8
LAYER_01
100
AcDbVertex
  6
BYLAYER
100
AcDb3dPolylineVertex
 10
549.439756638477
 20
111.176487151946
 30
8.90607032566493E-15
 70
0
  0
VERTEX
  5
BDB
100
AcDbEntity
  8
LAYER_01
100
AcDbVertex
  6
BYLAYER
100
AcDb3dPolylineVertex
 10
530.935597086616
 20
102.421421780286
 30
8.94308029756113E-15
 70
0
  0
VERTEX
  5
BDC
100
AcDbEntity
  8
LAYER_01
100
AcDbVertex
  6
BYLAYER
100
AcDb3dPolylineVertex
 10
512.284398380638
 20
94.0898418869577
 30
9.06367798244039E-15
 70
0
  0
VERTEX
  5
BDD
100
AcDbEntity
  8
LAYER_01
100
AcDbVertex
  6
BYLAYER
100
AcDb3dPolylineVertex
 10
493.318516439182
 20
86.1131360558849
 30
8.98184751637655E-15
 70
0
  0
VERTEX
  5
BDE
100
AcDbEntity
  8
LAYER_01
100
AcDbVertex
  6
BYLAYER
100
AcDb3dPolylineVertex
 10
473.674268644912
 20
78.345149289088
 30
8.91554247450388E-15
 70
0
  0
VERTEX
  5
BDF
100
AcDbEntity
  8
LAYER_01
100
AcDbVertex
  6
BYLAYER
100
AcDb3dPolylineVertex
 10
453.867260707526
 20
70.9998379483481
 30
8.90607032566493E-15
 70
0
  0
VERTEX
  5
BE0
100
AcDbEntity
  8
LAYER_01
100
AcDbVertex
  6
BYLAYER
100
AcDb3dPolylineVertex
 10
434.480822160754
 20
64.2633572835815
 30
8.90607032566493E-15
 70
0
  0
VERTEX
  5
BE1
100
AcDbEntity
  8
LAYER_01
100
AcDbVertex
  6
BYLAYER
100
AcDb3dPolylineVertex
 10
414.966452131934
 20
57.9020369610186
 30
8.90607032566493E-15
 70
0
  0
VERTEX
  5
BE2
100
AcDbEntity
  8
LAYER_01
100
AcDbVertex
  6
BYLAYER
100
AcDb3dPolylineVertex
 10
375.611822490215
 20
46.2178319886048
 30
8.90607032566493E-15
 70
0
  0
VERTEX
  5
BE3
100
AcDbEntity
  8
LAYER_01
100
AcDbVertex
  6
BYLAYER
100
AcDb3dPolylineVertex
 10
336.694709232462
 20
36.0166301377994
 30
8.90864961643668E-15
 70
0
  0
VERTEX
  5
BE4
100
AcDbEntity
  8
LAYER_01
100
AcDbVertex
  6
BYLAYER
100
AcDb3dPolylineVertex
 10
297.459278024825
 20
27.1215682565133
 30
8.92670465183893E-15
 70
0
  0
VERTEX
  5
BE5
100
AcDbEntity
  8
LAYER_01
100
AcDbVertex
  6
BYLAYER
100
AcDb3dPolylineVertex
 10
266.744500540297
 20
21.1713486116567
 30
8.95814941796849E-15
 70
0
  0
VERTEX
  5
BE6
100
AcDbEntity
  8
LAYER_01
100
AcDbVertex
  6
BYLAYER
100
AcDb3dPolylineVertex
 10
235.87234583307
 20
16.0681403349365
 30
8.9964672662046E-15
 70
0
  0
VERTEX
  5
BE7
100
AcDbEntity
  8
LAYER_01
100
AcDbVertex
  6
BYLAYER
100
AcDb3dPolylineVertex
 10
204.873986606156
 20
11.799680618413
 30
9.02982328594963E-15
 70
0
  0
VERTEX
  5
BE8
100
AcDbEntity
  8
LAYER_01
100
AcDbVertex
  6
BYLAYER
100
AcDb3dPolylineVertex
 10
173.780595562565
 20
8.35370665414696
 30
9.04638256660593E-15
 70
0
  0
VERTEX
  5
BE9
100
AcDbEntity
  8
LAYER_01
100
AcDbVertex
  6
BYLAYER
100
AcDb3dPolylineVertex
 10
140.57289835189
 20
5.54751786030588
 30
9.03861968651529E-15
 70
0
  0
VERTEX
  5
BEA
100
AcDbEntity
  8
LAYER_01
100
AcDbVertex
  6
BYLAYER
100
AcDb3dPolylineVertex
 10
107.309041115833
 20
3.49387140353209
 30
9.02235177427027E-15
 70
0
  0
VERTEX
  5
BEB
100
AcDbEntity
  8
LAYER_01
100
AcDbVertex
  6
BYLAYER
100
AcDb3dPolylineVertex
 10
40.6782814119856
 20
0.974001551226622
 30
9.06033771670269E-15
 70
0
  0
VERTEX
  5
BEC
100
AcDbEntity
  8
LAYER_01
100
AcDbVertex
  6
BYLAYER
100
AcDb3dPolylineVertex
 10
-13.496737712041
 20
0.0179194542295186
 30
9.17554352608702E-15
 70
0
  0
VERTEX
  5
BED
100
AcDbEntity
  8
LAYER_01
100
AcDbVertex
  6
BYLAYER
100
AcDb3dPolylineVertex
 10
-40.5773530647751
 20
0.113429617175563
 30
9.152112015627E-15
 70
0
  0
VERTEX
  5
BEE
100
AcDbEntity
  8
LAYER_01
100
AcDbVertex
  6
BYLAYER
100
AcDb3dPolylineVertex
 10
-67.6459533076353
 20
0.765197427371498
 30
8.99788345039367E-15
 70
0
  0
VERTEX
  5
BEF
100
AcDbEntity
  8
LAYER_01
100
AcDbVertex
  6
BYLAYER
100
AcDb3dPolylineVertex
 10
-87.5617373531906
 20
1.67981810732237
 30
8.80845594550168E-15
 70
0
  0
VERTEX
  5
BF0
100
AcDbEntity
  8
LAYER_01
100
AcDbVertex
  6
BYLAYER
100
AcDb3dPolylineVertex
 10
-113.979329372296
 20
3.55881710619225
 30
8.68331217901975E-15
 70
0
  0
VERTEX
  5
BF1
100
AcDbEntity
  8
LAYER_01
100
AcDbVertex
  6
BYLAYER
100
AcDb3dPolylineVertex
 10
-140.341000133648
 20
6.1858830956397
 30
8.69461609449925E-15
 70
0
  0
VERTEX
  5
BF2
100
AcDbEntity
  8
LAYER_01
100
AcDbVertex
  6
BYLAYER
100
AcDb3dPolylineVertex
 10
-166.620642130631
 20
9.52630705370358
 30
8.76275788475258E-15
 70
0
  0
VERTEX
  5
BF3
100
AcDbEntity
  8
LAYER_01
100
AcDbVertex
  6
BYLAYER
100
AcDb3dPolylineVertex
 10
-192.792147856628
 20
13.5453799584228
 30
8.80812774259212E-15
 70
0
  0
VERTEX
  5
BF4
100
AcDbEntity
  8
LAYER_01
100
AcDbVertex
  6
BYLAYER
100
AcDb3dPolylineVertex
 10
-212.663559569389
 20
17.0545978825263
 30
8.79730111351192E-15
 70
0
  0
VERTEX
  5
BF5
100
AcDbEntity
  8
LAYER_01
100
AcDbVertex
  6
BYLAYER
100
AcDb3dPolylineVertex
 10
-232.473741245911
 20
20.9839036006917
 30
8.80649128132693E-15
 70
0
  0
VERTEX
  5
BF6
100
AcDbEntity
  8
LAYER_01
100
AcDbVertex
  6
BYLAYER
100
AcDb3dPolylineVertex
 10
-245.136509222463
 20
23.7468489757994
 30
8.85376361909205E-15
 70
0
  0
VERTEX
  5
BF7
100
AcDbEntity
  8
LAYER_01
100
AcDbVertex
  6
BYLAYER
100
AcDb3dPolylineVertex
 10
-257.758768391149
 20
26.7350036520293
 30
8.92722823028555E-15
 70
0
  0
VERTEX
  5
BF8
100
AcDbEntity
  8
LAYER_01
100
AcDbVertex
  6
BYLAYER
100
AcDb3dPolylineVertex
 10
-270.318238748134
 20
29.9823926379932
 30
9.01221438823265E-15
 70
0
  0
VERTEX
  5
BF9
100
AcDbEntity
  8
LAYER_01
100
AcDbVertex
  6
BYLAYER
100
AcDb3dPolylineVertex
 10
-282.792640289586
 20
33.5230409423027
 30
9.09405136625857E-15
 70
0
  0
VERTEX
  5
BFA
100
AcDbEntity
  8
LAYER_01
100
AcDbVertex
  6
BYLAYER
100
AcDb3dPolylineVertex
 10
-295.159693011669
 20
37.3909735735696
 30
9.15806843768854E-15
 70
0
  0
VERTEX
  5
BFB
100
AcDbEntity
  8
LAYER_01
100
AcDbVertex
  6
BYLAYER
100
AcDb3dPolylineVertex
 10
-307.397116910552
 20
41.6202155404054
 30
9.18959487584777E-15
 70
0
  0
VERTEX
  5
BFC
100
AcDbEntity
  8
LAYER_01
100
AcDbVertex
  6
BYLAYER
100
AcDb3dPolylineVertex
 10
-319.4826319824
 20
46.244791851422
 30
9.17395995406149E-15
 70
0
  0
VERTEX
  5
BFD
100
AcDbEntity
  8
LAYER_01
100
AcDbVertex
  6
BYLAYER
100
AcDb3dPolylineVertex
 10
-325.461461206989
 20
48.7159632011891
 30
9.14387238110292E-15
 70
0
  0
VERTEX
  5
BFE
100
AcDbEntity
  8
LAYER_01
100
AcDbVertex
  6
BYLAYER
100
AcDb3dPolylineVertex
 10
-331.393958223381
 20
51.2987275152309
 30
9.09649294565493E-15
 70
0
  0
VERTEX
  5
BFF
100
AcDbEntity
  8
LAYER_01
100
AcDbVertex
  6
BYLAYER
100
AcDb3dPolylineVertex
 10
-339.329445584853
 20
54.9772120161849
 30
9.00685670714512E-15
 70
0
  0
VERTEX
  5
C00
100
AcDbEntity
  8
LAYER_01
100
AcDbVertex
  6
BYLAYER
100
AcDb3dPolylineVertex
 10
-347.148193250489
 20
58.8968225481312
 30
8.90851081433943E-15
 70
0
  0
VERTEX
  5
C01
100
AcDbEntity
  8
LAYER_01
100
AcDbVertex
  6
BYLAYER
100
AcDb3dPolylineVertex
 10
-351.005342000053
 20
60.9562832506245
 30
8.86426590210111E-15
 70
0
  0
VERTEX
  5
C02
100
AcDbEntity
  8
LAYER_01
100
AcDbVertex
  6
BYLAYER
100
AcDb3dPolylineVertex
 10
-354.82316858888
 20
63.0871052707436
 30
8.8276765617194E-15
 70
0
  0
VERTEX
  5
C03
100
AcDbEntity
  8
LAYER_01
100
AcDbVertex
  6
BYLAYER
100
AcDb3dPolylineVertex
 10
-358.598293938044
 20
65.2929818784477
 30
8.80202045500448E-15
 70
0
  0
VERTEX
  5
C04
100
AcDbEntity
  8
LAYER_01
100
AcDbVertex
  6
BYLAYER
100
AcDb3dPolylineVertex
 10
-362.32733896862
 20
67.577606343696
 30
8.79057524376655E-15
 70
0
  0
VERTEX
  5
C05
100
AcDbEntity
  8
LAYER_01
100
AcDbVertex
  6
BYLAYER
100
AcDb3dPolylineVertex
 10
-366.663128424428
 20
70.3819828850865
 30
8.79680684933883E-15
 70
0
  0
VERTEX
  5
C06
100
AcDbEntity
  8
LAYER_01
100
AcDbVertex
  6
BYLAYER
100
AcDb3dPolylineVertex
 10
-370.912176228591
 20
73.3147573156414
 30
8.81469132630685E-15
 70
0
  0
VERTEX
  5
C07
100
AcDbEntity
  8
LAYER_01
100
AcDbVertex
  6
BYLAYER
100
AcDb3dPolylineVertex
 10
-372.998600650713
 20
74.8335219062154
 30
8.82403011886078E-15
 70
0
  0
VERTEX
  5
C08
100
AcDbEntity
  8
LAYER_01
100
AcDbVertex
  6
BYLAYER
100
AcDb3dPolylineVertex
 10
-375.056654027213
 20
76.3894597693123
 30
8.83151420201949E-15
 70
0
  0
VERTEX
  5
C09
100
AcDbEntity
  8
LAYER_01
100
AcDbVertex
  6
BYLAYER
100
AcDb3dPolylineVertex
 10
-377.084107813854
 20
77.9842621716762
 30
8.83555426670157E-15
 70
0
  0
VERTEX
  5
C0A
100
AcDbEntity
  8
LAYER_01
100
AcDbVertex
  6
BYLAYER
100
AcDb3dPolylineVertex
 10
-379.0787334664
 20
79.6196203800509
 30
8.83456100382563E-15
 70
0
  0
VERTEX
  5
C0B
100
AcDbEntity
  8
LAYER_01
100
AcDbVertex
  6
BYLAYER
100
AcDb3dPolylineVertex
 10
-381.06694851467
 20
81.3211935423559
 30
8.8273804788778E-15
 70
0
  0
VERTEX
  5
C0C
100
AcDbEntity
  8
LAYER_01
100
AcDbVertex
  6
BYLAYER
100
AcDb3dPolylineVertex
 10
-383.019809084109
 20
83.0639945584419
 30
8.81533840614889E-15
 70
0
  0
VERTEX
  5
C0D
100
AcDbEntity
  8
LAYER_01
100
AcDbVertex
  6
BYLAYER
100
AcDb3dPolylineVertex
 10
-384.938041109126
 20
84.8457704985174
 30
8.80038927058206E-15
 70
0
  0
VERTEX
  5
C0E
100
AcDbEntity
  8
LAYER_01
100
AcDbVertex
  6
BYLAYER
100
AcDb3dPolylineVertex
 10
-386.822370524133
 20
86.6642684327906
 30
8.78448755712042E-15
 70
0
  0
VERTEX
  5
C0F
100
AcDbEntity
  8
LAYER_01
100
AcDbVertex
  6
BYLAYER
100
AcDb3dPolylineVertex
 10
-388.673523263543
 20
88.51723543147
 30
8.76958775070712E-15
 70
0
  0
VERTEX
  5
C10
100
AcDbEntity
  8
LAYER_01
100
AcDbVertex
  6
BYLAYER
100
AcDb3dPolylineVertex
 10
-390.492225261765
 20
90.4024185647639
 30
8.75764433628529E-15
 70
0
  0
VERTEX
  5
C11
100
AcDbEntity
  8
LAYER_01
100
AcDbVertex
  6
BYLAYER
100
AcDb3dPolylineVertex
 10
-394.035180772296
 20
94.2604215160288
 30
8.75044462318857E-15
 70
0
  0
VERTEX
  5
C12
100
AcDbEntity
  8
LAYER_01
100
AcDbVertex
  6
BYLAYER
100
AcDb3dPolylineVertex
 10
-396.33763324909
 20
96.9016227996911
 30
8.76267687931292E-15
 70
0
  0
VERTEX
  5
C13
100
AcDbEntity
  8
LAYER_01
100
AcDbVertex
  6
BYLAYER
100
AcDb3dPolylineVertex
 10
-398.583012736444
 20
99.5898792366088
 30
8.78523862462938E-15
 70
0
  0
VERTEX
  5
C14
100
AcDbEntity
  8
LAYER_01
100
AcDbVertex
  6
BYLAYER
100
AcDb3dPolylineVertex
 10
-400.768486892619
 20
102.326633529184
 30
8.81265664675769E-15
 70
0
  0
VERTEX
  5
C15
100
AcDbEntity
  8
LAYER_01
100
AcDbVertex
  6
BYLAYER
100
AcDb3dPolylineVertex
 10
-402.891223375875
 20
105.113328379819
 30
8.83945773331756E-15
 70
0
  0
VERTEX
  5
C16
100
AcDbEntity
  8
LAYER_01
100
AcDbVertex
  6
BYLAYER
100
AcDb3dPolylineVertex
 10
-404.973888164892
 20
107.987158188724
 30
8.86152671282078E-15
 70
0
  0
VERTEX
  5
C17
100
AcDbEntity
  8
LAYER_01
100
AcDbVertex
  6
BYLAYER
100
AcDb3dPolylineVertex
 10
-406.98608765506
 20
110.912643500409
 30
8.87862109762684E-15
 70
0
  0
VERTEX
  5
C18
100
AcDbEntity
  8
LAYER_01
100
AcDbVertex
  6
BYLAYER
100
AcDb3dPolylineVertex
 10
-408.92459303998
 20
113.888750639191
 30
8.89201122357118E-15
 70
0
  0
VERTEX
  5
C19
100
AcDbEntity
  8
LAYER_01
100
AcDbVertex
  6
BYLAYER
100
AcDb3dPolylineVertex
 10
-410.786175513252
 20
116.91444592939
 30
8.90296742648919E-15
 70
0
  0
VERTEX
  5
C1A
100
AcDbEntity
  8
LAYER_01
100
AcDbVertex
  6
BYLAYER
100
AcDb3dPolylineVertex
 10
-412.567606268475
 20
119.988695695323
 30
8.9127600422163E-15
 70
0
  0
VERTEX
  5
C1B
100
AcDbEntity
  8
LAYER_01
100
AcDbVertex
  6
BYLAYER
100
AcDb3dPolylineVertex
 10
-414.265656499249
 20
123.11046626131
 30
8.92265940658792E-15
 70
0
  0
VERTEX
  5
C1C
100
AcDbEntity
  8
LAYER_01
100
AcDbVertex
  6
BYLAYER
100
AcDb3dPolylineVertex
 10
-415.877097399174
 20
126.278723951668
 30
8.93393585543947E-15
 70
0
  0
VERTEX
  5
C1D
100
AcDbEntity
  8
LAYER_01
100
AcDbVertex
  6
BYLAYER
100
AcDb3dPolylineVertex
 10
-417.398700161849
 20
129.492435090716
 30
8.94785972460637E-15
 70
0
  0
VERTEX
  5
C1E
100
AcDbEntity
  8
LAYER_01
100
AcDbVertex
  6
BYLAYER
100
AcDb3dPolylineVertex
 10
-418.798639559312
 20
132.68272118224
 30
8.96463432348823E-15
 70
0
  0
VERTEX
  5
C1F
100
AcDbEntity
  8
LAYER_01
100
AcDbVertex
  6
BYLAYER
100
AcDb3dPolylineVertex
 10
-420.105505758253
 20
135.912941296632
 30
8.98245136625717E-15
 70
0
  0
VERTEX
  5
C20
100
AcDbEntity
  8
LAYER_01
100
AcDbVertex
  6
BYLAYER
100
AcDb3dPolylineVertex
 10
-421.315497516528
 20
139.180420987168
 30
8.99859529484523E-15
 70
0
  0
VERTEX
  5
C21
100
AcDbEntity
  8
LAYER_01
100
AcDbVertex
  6
BYLAYER
100
AcDb3dPolylineVertex
 10
-422.424813591992
 20
142.482485807126
 30
9.01035055118444E-15
 70
0
  0
VERTEX
  5
C22
100
AcDbEntity
  8
LAYER_01
100
AcDbVertex
  6
BYLAYER
100
AcDb3dPolylineVertex
 10
-423.4296527425
 20
145.816461309784
 30
9.01500157720684E-15
 70
0
  0
VERTEX
  5
C23
100
AcDbEntity
  8
LAYER_01
100
AcDbVertex
  6
BYLAYER
100
AcDb3dPolylineVertex
 10
-424.326213725907
 20
149.17967304842
 30
9.00983281484446E-15
 70
0
  0
VERTEX
  5
C24
100
AcDbEntity
  8
LAYER_01
100
AcDbVertex
  6
BYLAYER
100
AcDb3dPolylineVertex
 10
-425.11069530007
 20
152.569446576311
 30
8.99212870602932E-15
 70
0
  0
VERTEX
  5
C25
100
AcDbEntity
  8
LAYER_01
100
AcDbVertex
  6
BYLAYER
100
AcDb3dPolylineVertex
 10
-425.779296222842
 20
155.983107446734
 30
8.95917369269348E-15
 70
0
  0
VERTEX
  5
C26
100
AcDbEntity
  8
LAYER_01
100
AcDbVertex
  6
BYLAYER
100
AcDb3dPolylineVertex
 10
-426.186866880599
 20
158.453419136216
 30
8.9251511719147E-15
 70
0
  0
VERTEX
  5
C27
100
AcDbEntity
  8
LAYER_01
100
AcDbVertex
  6
BYLAYER
100
AcDb3dPolylineVertex
 10
-426.532068666247
 20
160.933209345454
 30
8.8847755321267E-15
 70
0
  0
VERTEX
  5
C28
100
AcDbEntity
  8
LAYER_01
100
AcDbVertex
  6
BYLAYER
100
AcDb3dPolylineVertex
 10
-426.814539327481
 20
163.420966293779
 30
8.84100199313455E-15
 70
0
  0
VERTEX
  5
C29
100
AcDbEntity
  8
LAYER_01
100
AcDbVertex
  6
BYLAYER
100
AcDb3dPolylineVertex
 10
-427.033916611993
 20
165.91517820052
 30
8.79678577474333E-15
 70
0
  0
VERTEX
  5
C2A
100
AcDbEntity
  8
LAYER_01
100
AcDbVertex
  6
BYLAYER
100
AcDb3dPolylineVertex
 10
-427.189838267479
 20
168.41433328501
 30
8.75508209675813E-15
 70
0
  0
VERTEX
  5
C2B
100
AcDbEntity
  8
LAYER_01
100
AcDbVertex
  6
BYLAYER
100
AcDb3dPolylineVertex
 10
-427.281942041634
 20
170.916919766578
 30
8.71884617898402E-15
 70
0
  0
VERTEX
  5
C2C
100
AcDbEntity
  8
LAYER_01
100
AcDbVertex
  6
BYLAYER
100
AcDb3dPolylineVertex
 10
-427.309865682152
 20
173.421425864555
 30
8.69103324122607E-15
 70
0
  0
VERTEX
  5
C2D
100
AcDbEntity
  8
LAYER_01
100
AcDbVertex
  6
BYLAYER
100
AcDb3dPolylineVertex
 10
-427.273246936727
 20
175.926339798271
 30
8.67459850328938E-15
 70
0
  0
VERTEX
  5
C2E
100
AcDbEntity
  8
LAYER_01
100
AcDbVertex
  6
BYLAYER
100
AcDb3dPolylineVertex
 10
-427.123655451155
 20
179.265410790707
 30
8.67343726094284E-15
 70
0
  0
VERTEX
  5
C2F
100
AcDbEntity
  8
LAYER_01
100
AcDbVertex
  6
BYLAYER
100
AcDb3dPolylineVertex
 10
-426.859747621578
 20
182.598512020487
 30
8.6924209858151E-15
 70
0
  0
VERTEX
  5
C30
100
AcDbEntity
  8
LAYER_01
100
AcDbVertex
  6
BYLAYER
100
AcDb3dPolylineVertex
 10
-426.482678514072
 20
185.921637746036
 30
8.72619415363138E-15
 70
0
  0
VERTEX
  5
C31
100
AcDbEntity
  8
LAYER_01
100
AcDbVertex
  6
BYLAYER
100
AcDb3dPolylineVertex
 10
-425.993603194716
 20
189.230782225778
 30
8.76940124011692E-15
 70
0
  0
VERTEX
  5
C32
100
AcDbEntity
  8
LAYER_01
100
AcDbVertex
  6
BYLAYER
100
AcDb3dPolylineVertex
 10
-425.393676729585
 20
192.521939718139
 30
8.81668672099692E-15
 70
0
  0
VERTEX
  5
C33
100
AcDbEntity
  8
LAYER_01
100
AcDbVertex
  6
BYLAYER
100
AcDb3dPolylineVertex
 10
-424.684054184756
 20
195.791104481541
 30
8.8626950719966E-15
 70
0
  0
VERTEX
  5
C34
100
AcDbEntity
  8
LAYER_01
100
AcDbVertex
  6
BYLAYER
100
AcDb3dPolylineVertex
 10
-423.865890626307
 20
199.03427077441
 30
8.90207076884119E-15
 70
0
  0
VERTEX
  5
C35
100
AcDbEntity
  8
LAYER_01
100
AcDbVertex
  6
BYLAYER
100
AcDb3dPolylineVertex
 10
-422.940341120313
 20
202.247432855171
 30
8.9294582872559E-15
 70
0
  0
VERTEX
  5
C36
100
AcDbEntity
  8
LAYER_01
100
AcDbVertex
  6
BYLAYER
100
AcDb3dPolylineVertex
 10
-421.846485281124
 20
205.60891960823
 30
8.94111675599588E-15
 70
0
  0
VERTEX
  5
C37
100
AcDbEntity
  8
LAYER_01
100
AcDbVertex
  6
BYLAYER
100
AcDb3dPolylineVertex
 10
-420.638290750146
 20
208.930491868498
 30
8.9371003643718E-15
 70
0
  0
VERTEX
  5
C38
100
AcDbEntity
  8
LAYER_01
100
AcDbVertex
  6
BYLAYER
100
AcDb3dPolylineVertex
 10
-419.320229877438
 20
212.210272651434
 30
8.92113184487918E-15
 70
0
  0
VERTEX
  5
C39
100
AcDbEntity
  8
LAYER_01
100
AcDbVertex
  6
BYLAYER
100
AcDb3dPolylineVertex
 10
-417.896775013055
 20
215.446384972498
 30
8.89693393001356E-15
 70
0
  0
VERTEX
  5
C3A
100
AcDbEntity
  8
LAYER_01
100
AcDbVertex
  6
BYLAYER
100
AcDb3dPolylineVertex
 10
-416.372398507058
 20
218.63695184715
 30
8.86822935227047E-15
 70
0
  0
VERTEX
  5
C3B
100
AcDbEntity
  8
LAYER_01
100
AcDbVertex
  6
BYLAYER
100
AcDb3dPolylineVertex
 10
-414.751572709503
 20
221.78009629085
 30
8.83874084414544E-15
 70
0
  0
VERTEX
  5
C3C
100
AcDbEntity
  8
LAYER_01
100
AcDbVertex
  6
BYLAYER
100
AcDb3dPolylineVertex
 10
-413.038769970449
 20
224.873941319059
 30
8.812191138134E-15
 70
0
  0
VERTEX
  5
C3D
100
AcDbEntity
  8
LAYER_01
100
AcDbVertex
  6
BYLAYER
100
AcDb3dPolylineVertex
 10
-411.238462639953
 20
227.916609947235
 30
8.7923029667317E-15
 70
0
  0
VERTEX
  5
C3E
100
AcDbEntity
  8
LAYER_01
100
AcDbVertex
  6
BYLAYER
100
AcDb3dPolylineVertex
 10
-409.386456826624
 20
230.857846395579
 30
8.78193859358148E-15
 70
0
  0
VERTEX
  5
C3F
100
AcDbEntity
  8
LAYER_01
100
AcDbVertex
  6
BYLAYER
100
AcDb3dPolylineVertex
 10
-407.457041956113
 20
233.747468224855
 30
8.7796862550549E-15
 70
0
  0
VERTEX
  5
C40
100
AcDbEntity
  8
LAYER_01
100
AcDbVertex
  6
BYLAYER
100
AcDb3dPolylineVertex
 10
-405.453138068428
 20
236.585187028735
 30
8.78361178218512E-15
 70
0
  0
VERTEX
  5
C41
100
AcDbEntity
  8
LAYER_01
100
AcDbVertex
  6
BYLAYER
100
AcDb3dPolylineVertex
 10
-403.377665203579
 20
239.370714400893
 30
8.79178100600531E-15
 70
0
  0
VERTEX
  5
C42
100
AcDbEntity
  8
LAYER_01
100
AcDbVertex
  6
BYLAYER
100
AcDb3dPolylineVertex
 10
-401.233543401575
 20
242.103761935002
 30
8.80225975754861E-15
 70
0
  0
VERTEX
  5
C43
100
AcDbEntity
  8
LAYER_01
100
AcDbVertex
  6
BYLAYER
100
AcDb3dPolylineVertex
 10
-399.023692702426
 20
244.784041224734
 30
8.81311386784818E-15
 70
0
  0
VERTEX
  5
C44
100
AcDbEntity
  8
LAYER_01
100
AcDbVertex
  6
BYLAYER
100
AcDb3dPolylineVertex
 10
-396.751033146141
 20
247.411263863763
 30
8.82240916793719E-15
 70
0
  0
VERTEX
  5
C45
100
AcDbEntity
  8
LAYER_01
100
AcDbVertex
  6
BYLAYER
100
AcDb3dPolylineVertex
 10
-394.418484772729
 20
249.985141445762
 30
8.82821148884878E-15
 70
0
  0
VERTEX
  5
C46
100
AcDbEntity
  8
LAYER_01
100
AcDbVertex
  6
BYLAYER
100
AcDb3dPolylineVertex
 10
-391.305886753071
 20
253.246652500144
 30
8.8285154886748E-15
 70
0
  0
VERTEX
  5
C47
100
AcDbEntity
  8
LAYER_01
100
AcDbVertex
  6
BYLAYER
100
AcDb3dPolylineVertex
 10
-388.102788980719
 20
256.419396700749
 30
8.82236599732897E-15
 70
0
  0
VERTEX
  5
C48
100
AcDbEntity
  8
LAYER_01
100
AcDbVertex
  6
BYLAYER
100
AcDb3dPolylineVertex
 10
-384.81468941421
 20
259.504984589775
 30
8.81245477524436E-15
 70
0
  0
VERTEX
  5
C49
100
AcDbEntity
  8
LAYER_01
100
AcDbVertex
  6
BYLAYER
100
AcDb3dPolylineVertex
 10
-381.447086012082
 20
262.505026709419
 30
8.80147358285405E-15
 70
0
  0
VERTEX
  5
C4A
100
AcDbEntity
  8
LAYER_01
100
AcDbVertex
  6
BYLAYER
100
AcDb3dPolylineVertex
 10
-378.005476732874
 20
265.421133601879
 30
8.79211418059111E-15
 70
0
  0
VERTEX
  5
C4B
100
AcDbEntity
  8
LAYER_01
100
AcDbVertex
  6
BYLAYER
100
AcDb3dPolylineVertex
 10
-374.495359535122
 20
268.254915809352
 30
8.7870683288886E-15
 70
0
  0
VERTEX
  5
C4C
100
AcDbEntity
  8
LAYER_01
100
AcDbVertex
  6
BYLAYER
100
AcDb3dPolylineVertex
 10
-370.922232377364
 20
271.007983874037
 30
8.78902778817958E-15
 70
0
  0
VERTEX
  5
C4D
100
AcDbEntity
  8
LAYER_01
100
AcDbVertex
  6
BYLAYER
100
AcDb3dPolylineVertex
 10
-367.291593218138
 20
273.681948338131
 30
8.80068431889713E-15
 70
0
  0
VERTEX
  5
C4E
100
AcDbEntity
  8
LAYER_01
100
AcDbVertex
  6
BYLAYER
100
AcDb3dPolylineVertex
 10
-361.229041512124
 20
277.896243255583
 30
8.84314571066797E-15
 70
0
  0
VERTEX
  5
C4F
100
AcDbEntity
  8
LAYER_01
100
AcDbVertex
  6
BYLAYER
100
AcDb3dPolylineVertex
 10
-355.03253774109
 20
281.905063699381
 30
8.9027349566364E-15
 70
0
  0
VERTEX
  5
C50
100
AcDbEntity
  8
LAYER_01
100
AcDbVertex
  6
BYLAYER
100
AcDb3dPolylineVertex
 10
-348.707806039646
 20
285.711031611463
 30
8.96331149242363E-15
 70
0
  0
VERTEX
  5
C51
100
AcDbEntity
  8
LAYER_01
100
AcDbVertex
  6
BYLAYER
100
AcDb3dPolylineVertex
 10
-342.260570542406
 20
289.31676893377
 30
9.00873475365084E-15
 70
0
  0
VERTEX
  5
C52
100
AcDbEntity
  8
LAYER_01
100
AcDbVertex
  6
BYLAYER
100
AcDb3dPolylineVertex
 10
-338.061103630626
 20
291.525237320696
 30
9.02347731264231E-15
 70
0
  0
VERTEX
  5
C53
100
AcDbEntity
  8
LAYER_01
100
AcDbVertex
  6
BYLAYER
100
AcDb3dPolylineVertex
 10
-333.814528863496
 20
293.645562383513
 30
9.02743974804827E-15
 70
0
  0
VERTEX
  5
C54
100
AcDbEntity
  8
LAYER_01
100
AcDbVertex
  6
BYLAYER
100
AcDb3dPolylineVertex
 10
-329.52183297431
 20
295.670984033292
 30
9.0227300051101E-15
 70
0
  0
VERTEX
  5
C55
100
AcDbEntity
  8
LAYER_01
100
AcDbVertex
  6
BYLAYER
100
AcDb3dPolylineVertex
 10
-325.184002696363
 20
297.594742181106
 30
9.01145602906919E-15
 70
0
  0
VERTEX
  5
C56
100
AcDbEntity
  8
LAYER_01
100
AcDbVertex
  6
BYLAYER
100
AcDb3dPolylineVertex
 10
-320.802024762951
 20
299.410076738026
 30
8.99572576516691E-15
 70
0
  0
VERTEX
  5
C57
100
AcDbEntity
  8
LAYER_01
100
AcDbVertex
  6
BYLAYER
100
AcDb3dPolylineVertex
 10
-316.376885907368
 20
301.110227615125
 30
8.97764715864466E-15
 70
0
  0
VERTEX
  5
C58
100
AcDbEntity
  8
LAYER_01
100
AcDbVertex
  6
BYLAYER
100
AcDb3dPolylineVertex
 10
-311.90957286291
 20
302.688434723475
 30
8.95932815474382E-15
 70
0
  0
VERTEX
  5
C59
100
AcDbEntity
  8
LAYER_01
100
AcDbVertex
  6
BYLAYER
100
AcDb3dPolylineVertex
 10
-307.401072362871
 20
304.137937974147
 30
8.94287669870577E-15
 70
0
  0
VERTEX
  5
C5A
100
AcDbEntity
  8
LAYER_01
100
AcDbVertex
  6
BYLAYER
100
AcDb3dPolylineVertex
 10
-303.165031216241
 20
305.368749663133
 30
8.93066238643558E-15
 70
0
  0
VERTEX
  5
C5B
100
AcDbEntity
  8
LAYER_01
100
AcDbVertex
  6
BYLAYER
100
AcDb3dPolylineVertex
 10
-298.897807761306
 20
306.489347002921
 30
8.92107534494095E-15
 70
0
  0
VERTEX
  5
C5C
100
AcDbEntity
  8
LAYER_01
100
AcDbVertex
  6
BYLAYER
100
AcDb3dPolylineVertex
 10
-294.603112596649
 20
307.507093901787
 30
8.91329224752488E-15
 70
0
  0
VERTEX
  5
C5D
100
AcDbEntity
  8
LAYER_01
100
AcDbVertex
  6
BYLAYER
100
AcDb3dPolylineVertex
 10
-290.284656320854
 20
308.429354268007
 30
8.90648976749036E-15
 70
0
  0
VERTEX
  5
C5E
100
AcDbEntity
  8
LAYER_01
100
AcDbVertex
  6
BYLAYER
100
AcDb3dPolylineVertex
 10
-285.946149532501
 20
309.263492009855
 30
8.89984457814038E-15
 70
0
  0
VERTEX
  5
C5F
100
AcDbEntity
  8
LAYER_01
100
AcDbVertex
  6
BYLAYER
100
AcDb3dPolylineVertex
 10
-281.591302830174
 20
310.016871035607
 30
8.89253335277792E-15
 70
0
  0
VERTEX
  5
C60
100
AcDbEntity
  8
LAYER_01
100
AcDbVertex
  6
BYLAYER
100
AcDb3dPolylineVertex
 10
-272.847432077927
 20
311.31080857192
 30
8.87261948722754E-15
 70
0
  0
VERTEX
  5
C61
100
AcDbEntity
  8
LAYER_01
100
AcDbVertex
  6
BYLAYER
100
AcDb3dPolylineVertex
 10
-263.462707609855
 20
312.428669231552
 30
8.84081591061692E-15
 70
0
  0
VERTEX
  5
C62
100
AcDbEntity
  8
LAYER_01
100
AcDbVertex
  6
BYLAYER
100
AcDb3dPolylineVertex
 10
-254.058367191196
 20
313.299508706899
 30
8.80800621960667E-15
 70
0
  0
VERTEX
  5
C63
100
AcDbEntity
  8
LAYER_01
100
AcDbVertex
  6
BYLAYER
100
AcDb3dPolylineVertex
 10
-244.638651680575
 20
313.945041498358
 30
8.78754943795216E-15
 70
0
  0
VERTEX
  5
C64
100
AcDbEntity
  8
LAYER_01
100
AcDbVertex
  6
BYLAYER
100
AcDb3dPolylineVertex
 10
-235.207801936614
 20
314.386982106327
 30
8.79280458940879E-15
 70
0
  0
VERTEX
  5
C65
100
AcDbEntity
  8
LAYER_01
100
AcDbVertex
  6
BYLAYER
100
AcDb3dPolylineVertex
 10
-225.18510560108
 20
314.656522642573
 30
8.83533032980826E-15
 70
0
  0
VERTEX
  5
C66
100
AcDbEntity
  8
LAYER_01
100
AcDbVertex
  6
BYLAYER
100
AcDb3dPolylineVertex
 10
-215.157967658576
 20
314.740127859415
 30
8.90111945256849E-15
 70
0
  0
VERTEX
  5
C67
100
AcDbEntity
  8
LAYER_01
100
AcDbVertex
  6
BYLAYER
100
AcDb3dPolylineVertex
 10
-195.103695352317
 20
314.426209998664
 30
9.01929900926953E-15
 70
0
  0
VERTEX
  5
C68
100
AcDbEntity
  8
LAYER_01
100
AcDbVertex
  6
BYLAYER
100
AcDb3dPolylineVertex
 10
-174.46798496271
 20
313.554488170754
 30
9.02621204734072E-15
 70
0
  0
VERTEX
  5
C69
100
AcDbEntity
  8
LAYER_01
100
AcDbVertex
  6
BYLAYER
100
AcDb3dPolylineVertex
 10
-153.857529824289
 20
312.227391274616
 30
8.98858400114604E-15
 70
0
  0
VERTEX
  5
C6A
100
AcDbEntity
  8
LAYER_01
100
AcDbVertex
  6
BYLAYER
100
AcDb3dPolylineVertex
 10
-92.7455780505673
 20
306.491648909883
 30
9.05281036651371E-15
 70
0
  0
VERTEX
  5
C6B
100
AcDbEntity
  8
LAYER_01
100
AcDbVertex
  6
BYLAYER
100
AcDb3dPolylineVertex
 10
-20.2421026621038
 20
298.365667916459
 30
9.00715276588136E-15
 70
0
  0
VERTEX
  5
C6C
100
AcDbEntity
  8
LAYER_01
100
AcDbVertex
  6
BYLAYER
100
AcDb3dPolylineVertex
 10
-4.95061819473281
 20
297.023117247689
 30
9.03782780987839E-15
 70
0
  0
VERTEX
  5
C6D
100
AcDbEntity
  8
LAYER_01
100
AcDbVertex
  6
BYLAYER
100
AcDb3dPolylineVertex
 10
2.70259953464774
 20
296.528081903883
 30
9.05040677965416E-15
 70
0
  0
VERTEX
  5
C6E
100
AcDbEntity
  8
LAYER_01
100
AcDbVertex
  6
BYLAYER
100
AcDb3dPolylineVertex
 10
10.3614965702734
 20
296.181818372561
 30
9.05856260700595E-15
 70
0
  0
VERTEX
  5
C6F
100
AcDbEntity
  8
LAYER_01
100
AcDbVertex
  6
BYLAYER
100
AcDb3dPolylineVertex
 10
18.1851744014296
 20
295.999407284105
 30
9.0608634921521E-15
 70
0
  0
VERTEX
  5
C70
100
AcDbEntity
  8
LAYER_01
100
AcDbVertex
  6
BYLAYER
100
AcDb3dPolylineVertex
 10
26.0136594339151
 20
295.980828293638
 30
9.05777671953155E-15
 70
0
  0
VERTEX
  5
C71
100
AcDbEntity
  8
LAYER_01
100
AcDbVertex
  6
BYLAYER
100
AcDb3dPolylineVertex
 10
41.67843684188
 20
296.372716985239
 30
9.04040021362897E-15
 70
0
  0
VERTEX
  5
C72
100
AcDbEntity
  8
LAYER_01
100
AcDbVertex
  6
BYLAYER
100
AcDb3dPolylineVertex
 10
57.3426002721806
 20
297.232585204504
 30
9.01635311457538E-15
 70
0
  0
VERTEX
  5
C73
100
AcDbEntity
  8
LAYER_01
100
AcDbVertex
  6
BYLAYER
100
AcDb3dPolylineVertex
 10
72.9929212028298
 20
298.435533708574
 30
8.99555544764795E-15
 70
0
  0
VERTEX
  5
C74
100
AcDbEntity
  8
LAYER_01
100
AcDbVertex
  6
BYLAYER
100
AcDb3dPolylineVertex
 10
103.685726798869
 20
301.482010185078
 30
8.98461847004783E-15
 70
0
  0
VERTEX
  5
C75
100
AcDbEntity
  8
LAYER_01
100
AcDbVertex
  6
BYLAYER
100
AcDb3dPolylineVertex
 10
134.256651712574
 20
305.397289205623
 30
8.99341326668128E-15
 70
0
  0
VERTEX
  5
C76
100
AcDbEntity
  8
LAYER_01
100
AcDbVertex
  6
BYLAYER
100
AcDb3dPolylineVertex
 10
164.68846086899
 20
310.206773757422
 30
8.99076382236736E-15
 70
0
  0
VERTEX
  5
C77
100
AcDbEntity
  8
LAYER_01
100
AcDbVertex
  6
BYLAYER
100
AcDb3dPolylineVertex
 10
194.963919193164
 20
315.935866827689
 30
8.94549412192514E-15
 70
0
  0
VERTEX
  5
C78
100
AcDbEntity
  8
LAYER_01
100
AcDbVertex
  6
BYLAYER
100
AcDb3dPolylineVertex
 10
220.53697981254
 20
321.569444465913
 30
8.86077535125243E-15
 70
0
  0
VERTEX
  5
C79
100
AcDbEntity
  8
LAYER_01
100
AcDbVertex
  6
BYLAYER
100
AcDb3dPolylineVertex
 10
233.252819919578
 20
324.694081494826
 30
8.81213046638297E-15
 70
0
  0
VERTEX
  5
C7A
100
AcDbEntity
  8
LAYER_01
100
AcDbVertex
  6
BYLAYER
100
AcDb3dPolylineVertex
 10
245.908886682752
 20
328.051736085243
 30
8.7665945273363E-15
 70
0
  0
VERTEX
  5
C7B
100
AcDbEntity
  8
LAYER_01
100
AcDbVertex
  6
BYLAYER
100
AcDb3dPolylineVertex
 10
258.495695195488
 20
331.663247303393
 30
8.72964199324609E-15
 70
0
  0
VERTEX
  5
C7C
100
AcDbEntity
  8
LAYER_01
100
AcDbVertex
  6
BYLAYER
100
AcDb3dPolylineVertex
 10
271.003760551211
 20
335.549454215505
 30
8.70674732324598E-15
 70
0
  0
VERTEX
  5
C7D
100
AcDbEntity
  8
LAYER_01
100
AcDbVertex
  6
BYLAYER
100
AcDb3dPolylineVertex
 10
283.423597843348
 20
339.731195887807
 30
8.70338497646962E-15
 70
0
  0
VERTEX
  5
C7E
100
AcDbEntity
  8
LAYER_01
100
AcDbVertex
  6
BYLAYER
100
AcDb3dPolylineVertex
 10
295.745722165325
 20
344.229311386527
 30
8.72502941205067E-15
 70
0
  0
VERTEX
  5
C7F
100
AcDbEntity
  8
LAYER_01
100
AcDbVertex
  6
BYLAYER
100
AcDb3dPolylineVertex
 10
304.660769229999
 20
347.721545440809
 30
8.75851142284933E-15
 70
0
  0
VERTEX
  5
C80
100
AcDbEntity
  8
LAYER_01
100
AcDbVertex
  6
BYLAYER
100
AcDb3dPolylineVertex
 10
313.501020245048
 20
351.407934206189
 30
8.80310338839969E-15
 70
0
  0
VERTEX
  5
C81
100
AcDbEntity
  8
LAYER_01
100
AcDbVertex
  6
BYLAYER
100
AcDb3dPolylineVertex
 10
322.248668918519
 20
355.303359430342
 30
8.8537104782564E-15
 70
0
  0
VERTEX
  5
C82
100
AcDbEntity
  8
LAYER_01
100
AcDbVertex
  6
BYLAYER
100
AcDb3dPolylineVertex
 10
330.885908958456
 20
359.422702860939
 30
8.90523786197408E-15
 70
0
  0
VERTEX
  5
C83
100
AcDbEntity
  8
LAYER_01
100
AcDbVertex
  6
BYLAYER
100
AcDb3dPolylineVertex
 10
339.394934072906
 20
363.780846245653
 30
8.95259070910737E-15
 70
0
  0
VERTEX
  5
C84
100
AcDbEntity
  8
LAYER_01
100
AcDbVertex
  6
BYLAYER
100
AcDb3dPolylineVertex
 10
347.757937969913
 20
368.392671332158
 30
8.99067418921092E-15
 70
0
  0
VERTEX
  5
C85
100
AcDbEntity
  8
LAYER_01
100
AcDbVertex
  6
BYLAYER
100
AcDb3dPolylineVertex
 10
355.957114357523
 20
373.273059868124
 30
9.01439347183935E-15
 70
0
  0
VERTEX
  5
C86
100
AcDbEntity
  8
LAYER_01
100
AcDbVertex
  6
BYLAYER
100
AcDb3dPolylineVertex
 10
359.989702769068
 20
375.818615975804
 30
9.01927440458622E-15
 70
0
  0
VERTEX
  5
C87
100
AcDbEntity
  8
LAYER_01
100
AcDbVertex
  6
BYLAYER
100
AcDb3dPolylineVertex
 10
363.974656943781
 20
378.436893601226
 30
9.01865372654731E-15
 70
0
  0
VERTEX
  5
C88
100
AcDbEntity
  8
LAYER_01
100
AcDbVertex
  6
BYLAYER
100
AcDb3dPolylineVertex
 10
369.813508809158
 20
382.471985154017
 30
9.00736486969929E-15
 70
0
  0
VERTEX
  5
C89
100
AcDbEntity
  8
LAYER_01
100
AcDbVertex
  6
BYLAYER
100
AcDb3dPolylineVertex
 10
375.536933517222
 20
386.673584921439
 30
8.98754866644714E-15
 70
0
  0
VERTEX
  5
C8A
100
AcDbEntity
  8
LAYER_01
100
AcDbVertex
  6
BYLAYER
100
AcDb3dPolylineVertex
 10
381.139970277944
 20
391.042963059358
 30
8.96427772158815E-15
 70
0
  0
VERTEX
  5
C8B
100
AcDbEntity
  8
LAYER_01
100
AcDbVertex
  6
BYLAYER
100
AcDb3dPolylineVertex
 10
386.6176583013
 20
395.581389723646
 30
8.94262463991959E-15
 70
0
  0
VERTEX
  5
C8C
100
AcDbEntity
  8
LAYER_01
100
AcDbVertex
  6
BYLAYER
100
AcDb3dPolylineVertex
 10
390.455522151433
 20
398.93562599428
 30
8.93048505426871E-15
 70
0
  0
VERTEX
  5
C8D
100
AcDbEntity
  8
LAYER_01
100
AcDbVertex
  6
BYLAYER
100
AcDb3dPolylineVertex
 10
394.208242211533
 20
402.387302785879
 30
8.92090122786277E-15
 70
0
  0
VERTEX
  5
C8E
100
AcDbEntity
  8
LAYER_01
100
AcDbVertex
  6
BYLAYER
100
AcDb3dPolylineVertex
 10
397.857421359503
 20
405.946620608996
 30
8.91300195298535E-15
 70
0
  0
VERTEX
  5
C8F
100
AcDbEntity
  8
LAYER_01
100
AcDbVertex
  6
BYLAYER
100
AcDb3dPolylineVertex
 10
399.637433990785
 20
407.76983256692
 30
8.90941176995845E-15
 70
0
  0
VERTEX
  5
C90
100
AcDbEntity
  8
LAYER_01
100
AcDbVertex
  6
BYLAYER
100
AcDb3dPolylineVertex
 10
401.384662473249
 20
409.62377997418
 30
8.90591602192001E-15
 70
0
  0
VERTEX
  5
C91
100
AcDbEntity
  8
LAYER_01
100
AcDbVertex
  6
BYLAYER
100
AcDb3dPolylineVertex
 10
403.096807166633
 20
411.509737894595
 30
8.90240580790549E-15
 70
0
  0
VERTEX
  5
C92
100
AcDbEntity
  8
LAYER_01
100
AcDbVertex
  6
BYLAYER
100
AcDb3dPolylineVertex
 10
404.771568430674
 20
413.428981391983
 30
8.89877222695033E-15
 70
0
  0
VERTEX
  5
C93
100
AcDbEntity
  8
LAYER_01
100
AcDbVertex
  6
BYLAYER
100
AcDb3dPolylineVertex
 10
406.406646625112
 20
415.382785530164
 30
8.89490637808998E-15
 70
0
  0
VERTEX
  5
C94
100
AcDbEntity
  8
LAYER_01
100
AcDbVertex
  6
BYLAYER
100
AcDb3dPolylineVertex
 10
407.999742109684
 20
417.372425372956
 30
8.89069936035988E-15
 70
0
  0
VERTEX
  5
C95
100
AcDbEntity
  8
LAYER_01
100
AcDbVertex
  6
BYLAYER
100
AcDb3dPolylineVertex
 10
409.548555244128
 20
419.399175984178
 30
8.88604227279548E-15
 70
0
  0
VERTEX
  5
C96
100
AcDbEntity
  8
LAYER_01
100
AcDbVertex
  6
BYLAYER
100
AcDb3dPolylineVertex
 10
411.050786388182
 20
421.46431242765
 30
8.88082621443223E-15
 70
0
  0
VERTEX
  5
C97
100
AcDbEntity
  8
LAYER_01
100
AcDbVertex
  6
BYLAYER
100
AcDb3dPolylineVertex
 10
412.504135901585
 20
423.569109767189
 30
8.87494228430557E-15
 70
0
  0
VERTEX
  5
C98
100
AcDbEntity
  8
LAYER_01
100
AcDbVertex
  6
BYLAYER
100
AcDb3dPolylineVertex
 10
413.906304144074
 20
425.714843066614
 30
8.86828158145094E-15
 70
0
  0
VERTEX
  5
C99
100
AcDbEntity
  8
LAYER_01
100
AcDbVertex
  6
BYLAYER
100
AcDb3dPolylineVertex
 10
415.22872809044
 20
427.858562766633
 30
8.86095896083722E-15
 70
0
  0
VERTEX
  5
C9A
100
AcDbEntity
  8
LAYER_01
100
AcDbVertex
  6
BYLAYER
100
AcDb3dPolylineVertex
 10
416.49676209752
 20
430.040665094748
 30
8.85307471599499E-15
 70
0
  0
VERTEX
  5
C9B
100
AcDbEntity
  8
LAYER_01
100
AcDbVertex
  6
BYLAYER
100
AcDb3dPolylineVertex
 10
417.707403930634
 20
432.258973766174
 30
8.84491823172099E-15
 70
0
  0
VERTEX
  5
C9C
100
AcDbEntity
  8
LAYER_01
100
AcDbVertex
  6
BYLAYER
100
AcDb3dPolylineVertex
 10
418.857651355103
 20
434.511312496123
 30
8.83677889281197E-15
 70
0
  0
VERTEX
  5
C9D
100
AcDbEntity
  8
LAYER_01
100
AcDbVertex
  6
BYLAYER
100
AcDb3dPolylineVertex
 10
419.944502136247
 20
436.795504999809
 30
8.82894608406469E-15
 70
0
  0
VERTEX
  5
C9E
100
AcDbEntity
  8
LAYER_01
100
AcDbVertex
  6
BYLAYER
100
AcDb3dPolylineVertex
 10
420.964954039386
 20
439.109374992443
 30
8.82170919027589E-15
 70
0
  0
VERTEX
  5
C9F
100
AcDbEntity
  8
LAYER_01
100
AcDbVertex
  6
BYLAYER
100
AcDb3dPolylineVertex
 10
421.916004829843
 20
441.45074618924
 30
8.81535759624231E-15
 70
0
  0
VERTEX
  5
CA0
100
AcDbEntity
  8
LAYER_01
100
AcDbVertex
  6
BYLAYER
100
AcDb3dPolylineVertex
 10
422.794652272937
 20
443.817442305412
 30
8.81018068676071E-15
 70
0
  0
VERTEX
  5
CA1
100
AcDbEntity
  8
LAYER_01
100
AcDbVertex
  6
BYLAYER
100
AcDb3dPolylineVertex
 10
423.597894133989
 20
446.207287056171
 30
8.80646784662784E-15
 70
0
  0
VERTEX
  5
CA2
100
AcDbEntity
  8
LAYER_01
100
AcDbVertex
  6
BYLAYER
100
AcDb3dPolylineVertex
 10
424.32272817832
 20
448.618104156732
 30
8.80450846064043E-15
 70
0
  0
VERTEX
  5
CA3
100
AcDbEntity
  8
LAYER_01
100
AcDbVertex
  6
BYLAYER
100
AcDb3dPolylineVertex
 10
424.96615217125
 20
451.047717322306
 30
8.80459191359525E-15
 70
0
  0
VERTEX
  5
CA4
100
AcDbEntity
  8
LAYER_01
100
AcDbVertex
  6
BYLAYER
100
AcDb3dPolylineVertex
 10
425.5251638781
 20
453.493950268107
 30
8.80700759028903E-15
 70
0
  0
VERTEX
  5
CA5
100
AcDbEntity
  8
LAYER_01
100
AcDbVertex
  6
BYLAYER
100
AcDb3dPolylineVertex
 10
425.772076925908
 20
454.722619069596
 30
8.80918044528702E-15
 70
0
  0
VERTEX
  5
CA6
100
AcDbEntity
  8
LAYER_01
100
AcDbVertex
  6
BYLAYER
100
AcDb3dPolylineVertex
 10
425.996761064191
 20
455.954626709347
 30
8.81204487551853E-15
 70
0
  0
VERTEX
  5
CA7
100
AcDbEntity
  8
LAYER_01
100
AcDbVertex
  6
BYLAYER
100
AcDb3dPolylineVertex
 10
426.198841013615
 20
457.189701151761
 30
8.81563705408315E-15
 70
0
  0
VERTEX
  5
CA8
100
AcDbEntity
  8
LAYER_01
100
AcDbVertex
  6
BYLAYER
100
AcDb3dPolylineVertex
 10
426.377941494844
 20
458.42757036124
 30
8.81999315408049E-15
 70
0
  0
VERTEX
  5
CA9
100
AcDbEntity
  8
LAYER_01
100
AcDbVertex
  6
BYLAYER
100
AcDb3dPolylineVertex
 10
426.533687228543
 20
459.667962302185
 30
8.82514934861012E-15
 70
0
  0
VERTEX
  5
CAA
100
AcDbEntity
  8
LAYER_01
100
AcDbVertex
  6
BYLAYER
100
AcDb3dPolylineVertex
 10
426.665702935378
 20
460.910604938998
 30
8.83114181077166E-15
 70
0
  0
VERTEX
  5
CAB
100
AcDbEntity
  8
LAYER_01
100
AcDbVertex
  6
BYLAYER
100
AcDb3dPolylineVertex
 10
426.773613336014
 20
462.155226236081
 30
8.83800671366468E-15
 70
0
  0
VERTEX
  5
CAC
100
AcDbEntity
  8
LAYER_01
100
AcDbVertex
  6
BYLAYER
100
AcDb3dPolylineVertex
 10
426.857043151115
 20
463.401554157835
 30
8.84578023038879E-15
 70
0
  0
VERTEX
  5
CAD
100
AcDbEntity
  8
LAYER_01
100
AcDbVertex
  6
BYLAYER
100
AcDb3dPolylineVertex
 10
426.916040827868
 20
464.657999815524
 30
8.85454152775561E-15
 70
0
  0
VERTEX
  5
CAE
100
AcDbEntity
  8
LAYER_01
100
AcDbVertex
  6
BYLAYER
100
AcDb3dPolylineVertex
 10
426.950074922842
 20
465.915552948364
 30
8.86417100401348E-15
 70
0
  0
VERTEX
  5
CAF
100
AcDbEntity
  8
LAYER_01
100
AcDbVertex
  6
BYLAYER
100
AcDb3dPolylineVertex
 10
426.959385153333
 20
467.173866389809
 30
8.8745788449319E-15
 70
0
  0
VERTEX
  5
CB0
100
AcDbEntity
  8
LAYER_01
100
AcDbVertex
  6
BYLAYER
100
AcDb3dPolylineVertex
 10
426.944211236635
 20
468.432592973311
 30
8.88567523628037E-15
 70
0
  0
VERTEX
  5
CB1
100
AcDbEntity
  8
LAYER_01
100
AcDbVertex
  6
BYLAYER
100
AcDb3dPolylineVertex
 10
426.904792890042
 20
469.691385532325
 30
8.8973703638284E-15
 70
0
  0
VERTEX
  5
CB2
100
AcDbEntity
  8
LAYER_01
100
AcDbVertex
  6
BYLAYER
100
AcDb3dPolylineVertex
 10
426.841369830851
 20
470.949896900304
 30
8.9095744133455E-15
 70
0
  0
VERTEX
  5
CB3
100
AcDbEntity
  8
LAYER_01
100
AcDbVertex
  6
BYLAYER
100
AcDb3dPolylineVertex
 10
426.754181776355
 20
472.207779910701
 30
8.92219757060116E-15
 70
0
  0
VERTEX
  5
CB4
100
AcDbEntity
  8
LAYER_01
100
AcDbVertex
  6
BYLAYER
100
AcDb3dPolylineVertex
 10
426.64346844385
 20
473.464687396972
 30
8.9351500213649E-15
 70
0
  0
VERTEX
  5
CB5
100
AcDbEntity
  8
LAYER_01
100
AcDbVertex
  6
BYLAYER
100
AcDb3dPolylineVertex
 10
426.509469550631
 20
474.720272192569
 30
8.94834195140622E-15
 70
0
  0
VERTEX
  5
CB6
100
AcDbEntity
  8
LAYER_01
100
AcDbVertex
  6
BYLAYER
100
AcDb3dPolylineVertex
 10
426.352424813992
 20
475.974187130945
 30
8.96168354649462E-15
 70
0
  0
VERTEX
  5
CB7
100
AcDbEntity
  8
LAYER_01
100
AcDbVertex
  6
BYLAYER
100
AcDb3dPolylineVertex
 10
426.172573951228
 20
477.226085045556
 30
8.97508499239961E-15
 70
0
  0
VERTEX
  5
CB8
100
AcDbEntity
  8
LAYER_01
100
AcDbVertex
  6
BYLAYER
100
AcDb3dPolylineVertex
 10
425.970156679635
 20
478.475618769854
 30
8.9884564748907E-15
 70
0
  0
VERTEX
  5
CB9
100
AcDbEntity
  8
LAYER_01
100
AcDbVertex
  6
BYLAYER
100
AcDb3dPolylineVertex
 10
425.745412716506
 20
479.722441137292
 30
9.00170817973738E-15
 70
0
  0
VERTEX
  5
CBA
100
AcDbEntity
  8
LAYER_01
100
AcDbVertex
  6
BYLAYER
100
AcDb3dPolylineVertex
 10
425.498581779138
 20
480.966204981326
 30
9.01475029270917E-15
 70
0
  0
VERTEX
  5
CBB
100
AcDbEntity
  8
LAYER_01
100
AcDbVertex
  6
BYLAYER
100
AcDb3dPolylineVertex
 10
424.93961785086
 20
483.443168432992
 30
9.03984648610608E-15
 70
0
  0
VERTEX
  5
CBC
100
AcDbEntity
  8
LAYER_01
100
AcDbVertex
  6
BYLAYER
100
AcDb3dPolylineVertex
 10
424.295182633161
 20
485.903731792481
 30
9.06302654123747E-15
 70
0
  0
VERTEX
  5
CBD
100
AcDbEntity
  8
LAYER_01
100
AcDbVertex
  6
BYLAYER
100
AcDb3dPolylineVertex
 10
423.567193864399
 20
488.345117727422
 30
9.08357194425937E-15
 70
0
  0
VERTEX
  5
CBE
100
AcDbEntity
  8
LAYER_01
100
AcDbVertex
  6
BYLAYER
100
AcDb3dPolylineVertex
 10
422.757569282933
 20
490.764548905446
 30
9.10076418132783E-15
 70
0
  0
VERTEX
  5
CBF
100
AcDbEntity
  8
LAYER_01
100
AcDbVertex
  6
BYLAYER
100
AcDb3dPolylineVertex
 10
421.868226627122
 20
493.15924799418
 30
9.11388473859888E-15
 70
0
  0
VERTEX
  5
CC0
100
AcDbEntity
  8
LAYER_01
100
AcDbVertex
  6
BYLAYER
100
AcDb3dPolylineVertex
 10
420.901083635326
 20
495.526437661256
 30
9.12221510222856E-15
 70
0
  0
VERTEX
  5
CC1
100
AcDbEntity
  8
LAYER_01
100
AcDbVertex
  6
BYLAYER
100
AcDb3dPolylineVertex
 10
419.858058045903
 20
497.863340574302
 30
9.12503675837293E-15
 70
0
  0
VERTEX
  5
CC2
100
AcDbEntity
  8
LAYER_01
100
AcDbVertex
  6
BYLAYER
100
AcDb3dPolylineVertex
 10
418.741067597212
 20
500.167179400948
 30
9.12163119318801E-15
 70
0
  0
VERTEX
  5
CC3
100
AcDbEntity
  8
LAYER_01
100
AcDbVertex
  6
BYLAYER
100
AcDb3dPolylineVertex
 10
417.552030027613
 20
502.435176808823
 30
9.11127989282984E-15
 70
0
  0
VERTEX
  5
CC4
100
AcDbEntity
  8
LAYER_01
100
AcDbVertex
  6
BYLAYER
100
AcDb3dPolylineVertex
 10
416.74091753486
 20
503.889280944903
 30
9.10058525662383E-15
 70
0
  0
VERTEX
  5
CC5
100
AcDbEntity
  8
LAYER_01
100
AcDbVertex
  6
BYLAYER
100
AcDb3dPolylineVertex
 10
415.899794263351
 20
505.325112238779
 30
9.08707733661756E-15
 70
0
  0
VERTEX
  5
CC6
100
AcDbEntity
  8
LAYER_01
100
AcDbVertex
  6
BYLAYER
100
AcDb3dPolylineVertex
 10
415.028305253827
 20
506.740728673805
 30
9.0711838526694E-15
 70
0
  0
VERTEX
  5
CC7
100
AcDbEntity
  8
LAYER_01
100
AcDbVertex
  6
BYLAYER
100
AcDb3dPolylineVertex
 10
414.126095547026
 20
508.134188233338
 30
9.05333252463775E-15
 70
0
  0
VERTEX
  5
CC8
100
AcDbEntity
  8
LAYER_01
100
AcDbVertex
  6
BYLAYER
100
AcDb3dPolylineVertex
 10
413.19281018369
 20
509.503548900732
 30
9.03395107238097E-15
 70
0
  0
VERTEX
  5
CC9
100
AcDbEntity
  8
LAYER_01
100
AcDbVertex
  6
BYLAYER
100
AcDb3dPolylineVertex
 10
412.228094204557
 20
510.846868659341
 30
9.01346721575745E-15
 70
0
  0
VERTEX
  5
CCA
100
AcDbEntity
  8
LAYER_01
100
AcDbVertex
  6
BYLAYER
100
AcDb3dPolylineVertex
 10
411.231592650367
 20
512.162205492521
 30
8.99230867462556E-15
 70
0
  0
VERTEX
  5
CCB
100
AcDbEntity
  8
LAYER_01
100
AcDbVertex
  6
BYLAYER
100
AcDb3dPolylineVertex
 10
410.20295056186
 20
513.447617383628
 30
8.97090316884369E-15
 70
0
  0
VERTEX
  5
CCC
100
AcDbEntity
  8
LAYER_01
100
AcDbVertex
  6
BYLAYER
100
AcDb3dPolylineVertex
 10
409.141812979776
 20
514.701162316015
 30
8.94967841827021E-15
 70
0
  0
VERTEX
  5
CCD
100
AcDbEntity
  8
LAYER_01
100
AcDbVertex
  6
BYLAYER
100
AcDb3dPolylineVertex
 10
408.047824944855
 20
515.920898273038
 30
8.9290621427635E-15
 70
0
  0
VERTEX
  5
CCE
100
AcDbEntity
  8
LAYER_01
100
AcDbVertex
  6
BYLAYER
100
AcDb3dPolylineVertex
 10
406.920631497836
 20
517.104883238052
 30
8.90948206218194E-15
 70
0
  0
VERTEX
  5
CCF
100
AcDbEntity
  8
LAYER_01
100
AcDbVertex
  6
BYLAYER
100
AcDb3dPolylineVertex
 10
405.759877679459
 20
518.251175194411
 30
8.89136589638391E-15
 70
0
  0
VERTEX
  5
CD0
100
AcDbEntity
  8
LAYER_01
100
AcDbVertex
  6
BYLAYER
100
AcDb3dPolylineVertex
 10
404.565208530464
 20
519.357832125472
 30
8.87514136522779E-15
 70
0
  0
VERTEX
  5
CD1
100
AcDbEntity
  8
LAYER_01
100
AcDbVertex
  6
BYLAYER
100
AcDb3dPolylineVertex
 10
403.336269091591
 20
520.422912014588
 30
8.86123618857195E-15
 70
0
  0
VERTEX
  5
CD2
100
AcDbEntity
  8
LAYER_01
100
AcDbVertex
  6
BYLAYER
100
AcDb3dPolylineVertex
 10
402.072704403579
 20
521.444472845115
 30
8.85007808627478E-15
 70
0
  0
VERTEX
  5
CD3
100
AcDbEntity
  8
LAYER_01
100
AcDbVertex
  6
BYLAYER
100
AcDb3dPolylineVertex
 10
401.427826666378
 20
521.938326733206
 30
8.84566285046643E-15
 70
0
  0
VERTEX
  5
CD4
100
AcDbEntity
  8
LAYER_01
100
AcDbVertex
  6
BYLAYER
100
AcDb3dPolylineVertex
 10
400.774159507169
 20
522.420572600408
 30
8.84209477819464E-15
 70
0
  0
VERTEX
  5
CD5
100
AcDbEntity
  8
LAYER_01
100
AcDbVertex
  6
BYLAYER
100
AcDb3dPolylineVertex
 10
400.096157361007
 20
522.901854627122
 30
8.8393595651121E-15
 70
0
  0
VERTEX
  5
CD6
100
AcDbEntity
  8
LAYER_01
100
AcDbVertex
  6
BYLAYER
100
AcDb3dPolylineVertex
 10
399.409172823684
 20
523.370836814194
 30
8.83752428969083E-15
 70
0
  0
VERTEX
  5
CD7
100
AcDbEntity
  8
LAYER_01
100
AcDbVertex
  6
BYLAYER
100
AcDb3dPolylineVertex
 10
398.713474068231
 20
523.827629206342
 30
8.83654577003392E-15
 70
0
  0
VERTEX
  5
CD8
100
AcDbEntity
  8
LAYER_01
100
AcDbVertex
  6
BYLAYER
100
AcDb3dPolylineVertex
 10
398.009329267679
 20
524.272341848282
 30
8.83638082424446E-15
 70
0
  0
VERTEX
  5
CD9
100
AcDbEntity
  8
LAYER_01
100
AcDbVertex
  6
BYLAYER
100
AcDb3dPolylineVertex
 10
396.576774223407
 20
525.125968060401
 30
8.8383189266802E-15
 70
0
  0
VERTEX
  5
CDA
100
AcDbEntity
  8
LAYER_01
100
AcDbVertex
  6
BYLAYER
100
AcDb3dPolylineVertex
 10
395.113653075121
 20
525.932595808282
 30
8.84299314182269E-15
 70
0
  0
VERTEX
  5
CDB
100
AcDbEntity
  8
LAYER_01
100
AcDbVertex
  6
BYLAYER
100
AcDb3dPolylineVertex
 10
393.622111207074
 20
526.693105449655
 30
8.85005801449657E-15
 70
0
  0
VERTEX
  5
CDC
100
AcDbEntity
  8
LAYER_01
100
AcDbVertex
  6
BYLAYER
100
AcDb3dPolylineVertex
 10
392.104294003517
 20
527.40837734225
 30
8.85916808952651E-15
 70
0
  0
VERTEX
  5
CDD
100
AcDbEntity
  8
LAYER_01
100
AcDbVertex
  6
BYLAYER
100
AcDb3dPolylineVertex
 10
390.562346848705
 20
528.079291843797
 30
8.86997791173715E-15
 70
0
  0
VERTEX
  5
CDE
100
AcDbEntity
  8
LAYER_01
100
AcDbVertex
  6
BYLAYER
100
AcDb3dPolylineVertex
 10
388.99841512689
 20
528.706729312025
 30
8.88214202595313E-15
 70
0
  0
VERTEX
  5
CDF
100
AcDbEntity
  8
LAYER_01
100
AcDbVertex
  6
BYLAYER
100
AcDb3dPolylineVertex
 10
387.414644222325
 20
529.291570104665
 30
8.89531497699911E-15
 70
0
  0
VERTEX
  5
CE0
100
AcDbEntity
  8
LAYER_01
100
AcDbVertex
  6
BYLAYER
100
AcDb3dPolylineVertex
 10
385.813179519262
 20
529.834694579446
 30
8.90915130969974E-15
 70
0
  0
VERTEX
  5
CE1
100
AcDbEntity
  8
LAYER_01
100
AcDbVertex
  6
BYLAYER
100
AcDb3dPolylineVertex
 10
384.196166401955
 20
530.336983094099
 30
8.92330556887966E-15
 70
0
  0
VERTEX
  5
CE2
100
AcDbEntity
  8
LAYER_01
100
AcDbVertex
  6
BYLAYER
100
AcDb3dPolylineVertex
 10
382.565750254656
 20
530.799316006354
 30
8.93743229936352E-15
 70
0
  0
VERTEX
  5
CE3
100
AcDbEntity
  8
LAYER_01
100
AcDbVertex
  6
BYLAYER
100
AcDb3dPolylineVertex
 10
380.924076461619
 20
531.22257367394
 30
8.95118604597598E-15
 70
0
  0
VERTEX
  5
CE4
100
AcDbEntity
  8
LAYER_01
100
AcDbVertex
  6
BYLAYER
100
AcDb3dPolylineVertex
 10
379.273290407095
 20
531.607636454587
 30
8.96422135354168E-15
 70
0
  0
VERTEX
  5
CE5
100
AcDbEntity
  8
LAYER_01
100
AcDbVertex
  6
BYLAYER
100
AcDb3dPolylineVertex
 10
377.615537475338
 20
531.955384706026
 30
8.97619276688526E-15
 70
0
  0
VERTEX
  5
CE6
100
AcDbEntity
  8
LAYER_01
100
AcDbVertex
  6
BYLAYER
100
AcDb3dPolylineVertex
 10
375.952963050601
 20
532.266698785986
 30
8.98675483083139E-15
 70
0
  0
VERTEX
  5
CE7
100
AcDbEntity
  8
LAYER_01
100
AcDbVertex
  6
BYLAYER
100
AcDb3dPolylineVertex
 10
373.413294126157
 20
532.6730751743
 30
8.99962198149431E-15
 70
0
  0
VERTEX
  5
CE8
100
AcDbEntity
  8
LAYER_01
100
AcDbVertex
  6
BYLAYER
100
AcDb3dPolylineVertex
 10
370.868444850916
 20
532.999742936983
 30
9.00874928748416E-15
 70
0
  0
VERTEX
  5
CE9
100
AcDbEntity
  8
LAYER_01
100
AcDbVertex
  6
BYLAYER
100
AcDb3dPolylineVertex
 10
368.319452229679
 20
533.249594988737
 30
9.01447381024308E-15
 70
0
  0
VERTEX
  5
CEA
100
AcDbEntity
  8
LAYER_01
100
AcDbVertex
  6
BYLAYER
100
AcDb3dPolylineVertex
 10
365.767353267248
 20
533.42552424426
 30
9.01713261121321E-15
 70
0
  0
VERTEX
  5
CEB
100
AcDbEntity
  8
LAYER_01
100
AcDbVertex
  6
BYLAYER
100
AcDb3dPolylineVertex
 10
363.213184968425
 20
533.530423618254
 30
9.01706275183669E-15
 70
0
  0
VERTEX
  5
CEC
100
AcDbEntity
  8
LAYER_01
100
AcDbVertex
  6
BYLAYER
100
AcDb3dPolylineVertex
 10
360.657984338011
 20
533.567186025416
 30
9.01460129355567E-15
 70
0
  0
VERTEX
  5
CED
100
AcDbEntity
  8
LAYER_01
100
AcDbVertex
  6
BYLAYER
100
AcDb3dPolylineVertex
 10
358.102788380809
 20
533.538704380447
 30
9.01008529781229E-15
 70
0
  0
VERTEX
  5
CEE
100
AcDbEntity
  8
LAYER_01
100
AcDbVertex
  6
BYLAYER
100
AcDb3dPolylineVertex
 10
355.548634101619
 20
533.447871598047
 30
9.00385182604869E-15
 70
0
  0
VERTEX
  5
CEF
100
AcDbEntity
  8
LAYER_01
100
AcDbVertex
  6
BYLAYER
100
AcDb3dPolylineVertex
 10
352.996558505244
 20
533.297580592915
 30
8.99623793970702E-15
 70
0
  0
VERTEX
  5
CF0
100
AcDbEntity
  8
LAYER_01
100
AcDbVertex
  6
BYLAYER
100
AcDb3dPolylineVertex
 10
350.447598596486
 20
533.090724279751
 30
8.98758070022941E-15
 70
0
  0
VERTEX
  5
CF1
100
AcDbEntity
  8
LAYER_01
100
AcDbVertex
  6
BYLAYER
100
AcDb3dPolylineVertex
 10
347.902791380145
 20
532.830195573255
 30
8.97821716905801E-15
 70
0
  0
VERTEX
  5
CF2
100
AcDbEntity
  8
LAYER_01
100
AcDbVertex
  6
BYLAYER
100
AcDb3dPolylineVertex
 10
345.363173861025
 20
532.518887388127
 30
8.96848440763496E-15
 70
0
  0
VERTEX
  5
CF3
100
AcDbEntity
  8
LAYER_01
100
AcDbVertex
  6
BYLAYER
100
AcDb3dPolylineVertex
 10
342.829783043927
 20
532.159692639065
 30
8.95871947740241E-15
 70
0
  0
VERTEX
  5
CF4
100
AcDbEntity
  8
LAYER_01
100
AcDbVertex
  6
BYLAYER
100
AcDb3dPolylineVertex
 10
340.303655933652
 20
531.75550424077
 30
8.94925943980249E-15
 70
0
  0
VERTEX
  5
CF5
100
AcDbEntity
  8
LAYER_01
100
AcDbVertex
  6
BYLAYER
100
AcDb3dPolylineVertex
 10
335.277340852779
 20
530.823718155281
 30
8.93260228826912E-15
 70
0
  0
VERTEX
  5
CF6
100
AcDbEntity
  8
LAYER_01
100
AcDbVertex
  6
BYLAYER
100
AcDb3dPolylineVertex
 10
331.845296891536
 20
530.097008146831
 30
8.92384466780016E-15
 70
0
  0
VERTEX
  5
CF7
100
AcDbEntity
  8
LAYER_01
100
AcDbVertex
  6
BYLAYER
100
AcDb3dPolylineVertex
 10
328.431962669276
 20
529.305735075862
 30
8.91726349738857E-15
 70
0
  0
VERTEX
  5
CF8
100
AcDbEntity
  8
LAYER_01
100
AcDbVertex
  6
BYLAYER
100
AcDb3dPolylineVertex
 10
321.657829945295
 20
527.545786638447
 30
8.90938682099045E-15
 70
0
  0
VERTEX
  5
CF9
100
AcDbEntity
  8
LAYER_01
100
AcDbVertex
  6
BYLAYER
100
AcDb3dPolylineVertex
 10
314.947755688009
 20
525.576446627212
 30
8.90648488758062E-15
 70
0
  0
VERTEX
  5
CFA
100
AcDbEntity
  8
LAYER_01
100
AcDbVertex
  6
BYLAYER
100
AcDb3dPolylineVertex
 10
308.294552904595
 20
523.430288826331
 30
8.90607032566493E-15
 70
0
  0
VERTEX
  5
CFB
100
AcDbEntity
  8
LAYER_01
100
AcDbVertex
  6
BYLAYER
100
AcDb3dPolylineVertex
 10
301.072254567456
 20
520.91384015156
 30
8.90613275584669E-15
 70
0
  0
VERTEX
  5
CFC
100
AcDbEntity
  8
LAYER_01
100
AcDbVertex
  6
BYLAYER
100
AcDb3dPolylineVertex
 10
293.904238467867
 20
518.242624353607
 30
8.90656976711901E-15
 70
0
  0
VERTEX
  5
CFD
100
AcDbEntity
  8
LAYER_01
100
AcDbVertex
  6
BYLAYER
100
AcDb3dPolylineVertex
 10
279.710255899781
 20
512.507569847058
 30
8.91006585729762E-15
 70
0
  0
VERTEX
  5
CFE
100
AcDbEntity
  8
LAYER_01
100
AcDbVertex
  6
BYLAYER
100
AcDb3dPolylineVertex
 10
265.67101103723
 20
506.368482224486
 30
8.91955524492527E-15
 70
0
  0
VERTEX
  5
CFF
100
AcDbEntity
  8
LAYER_01
100
AcDbVertex
  6
BYLAYER
100
AcDb3dPolylineVertex
 10
156.409690622603
 20
454.520076452006
 30
8.91774898080212E-15
 70
0
  0
VERTEX
  5
D00
100
AcDbEntity
  8
LAYER_01
100
AcDbVertex
  6
BYLAYER
100
AcDb3dPolylineVertex
 10
137.075055806054
 20
445.844447056185
 30
8.83596188435006E-15
 70
0
  0
VERTEX
  5
D01
100
AcDbEntity
  8
LAYER_01
100
AcDbVertex
  6
BYLAYER
100
AcDb3dPolylineVertex
 10
117.565244882285
 20
437.564732984411
 30
8.76363055871808E-15
 70
0
  0
VERTEX
  5
D02
100
AcDbEntity
  8
LAYER_01
100
AcDbVertex
  6
BYLAYER
100
AcDb3dPolylineVertex
 10
98.1137571963386
 20
429.886282007882
 30
8.72048353342116E-15
 70
0
  0
VERTEX
  5
D03
100
AcDbEntity
  8
LAYER_01
100
AcDbVertex
  6
BYLAYER
100
AcDb3dPolylineVertex
 10
78.4458213067562
 20
422.775573477124
 30
8.71697249876095E-15
 70
0
  0
VERTEX
  5
D04
100
AcDbEntity
  8
LAYER_01
100
AcDbVertex
  6
BYLAYER
100
AcDb3dPolylineVertex
 10
58.5573298212925
 20
416.310564419984
 30
8.76288163113231E-15
 70
0
  0
VERTEX
  5
D05
100
AcDbEntity
  8
LAYER_01
100
AcDbVertex
  6
BYLAYER
100
AcDb3dPolylineVertex
 10
48.5290921700284
 20
413.344558765223
 30
8.80742631507823E-15
 70
0
  0
VERTEX
  5
D06
100
AcDbEntity
  8
LAYER_01
100
AcDbVertex
  6
BYLAYER
100
AcDb3dPolylineVertex
 10
38.444175347702
 20
410.569211864309
 30
8.86799510693013E-15
 70
0
  0
VERTEX
  5
D07
100
AcDbEntity
  8
LAYER_01
100
AcDbVertex
  6
BYLAYER
100
AcDb3dPolylineVertex
 10
24.9189677609804
 20
407.192065909064
 30
8.9698931718886E-15
 70
0
  0
VERTEX
  5
D08
100
AcDbEntity
  8
LAYER_01
100
AcDbVertex
  6
BYLAYER
100
AcDb3dPolylineVertex
 10
11.2971695486868
 20
404.239858053574
 30
9.07041383808158E-15
 70
0
  0
VERTEX
  5
D09
100
AcDbEntity
  8
LAYER_01
100
AcDbVertex
  6
BYLAYER
100
AcDb3dPolylineVertex
 10
4.45159421082727
 20
402.944717474779
 30
9.11015869132621E-15
 70
0
  0
VERTEX
  5
D0A
100
AcDbEntity
  8
LAYER_01
100
AcDbVertex
  6
BYLAYER
100
AcDb3dPolylineVertex
 10
-2.41627447997323
 20
401.781745294772
 30
9.13756044850171E-15
 70
0
  0
VERTEX
  5
D0B
100
AcDbEntity
  8
LAYER_01
100
AcDbVertex
  6
BYLAYER
100
AcDb3dPolylineVertex
 10
-9.30581842256398
 20
400.759586138171
 30
9.14861952748214E-15
 70
0
  0
VERTEX
  5
D0C
100
AcDbEntity
  8
LAYER_01
100
AcDbVertex
  6
BYLAYER
100
AcDb3dPolylineVertex
 10
-16.2164195157943
 20
399.88688462959
 30
9.13933634614158E-15
 70
0
  0
VERTEX
  5
D0D
100
AcDbEntity
  8
LAYER_01
100
AcDbVertex
  6
BYLAYER
100
AcDb3dPolylineVertex
 10
-21.4883469901072
 20
399.330152858894
 30
9.11694058254641E-15
 70
0
  0
VERTEX
  5
D0E
100
AcDbEntity
  8
LAYER_01
100
AcDbVertex
  6
BYLAYER
100
AcDb3dPolylineVertex
 10
-26.770533833077
 20
398.879955035958
 30
9.083263930843E-15
 70
0
  0
VERTEX
  5
D0F
100
AcDbEntity
  8
LAYER_01
100
AcDbVertex
  6
BYLAYER
100
AcDb3dPolylineVertex
 10
-32.0614052027928
 20
398.551283885614
 30
9.04111943078799E-15
 70
0
  0
VERTEX
  5
D10
100
AcDbEntity
  8
LAYER_01
100
AcDbVertex
  6
BYLAYER
100
AcDb3dPolylineVertex
 10
-37.3593862573439
 20
398.359132132698
 30
8.99332012213802E-15
 70
0
  0
VERTEX
  5
D11
100
AcDbEntity
  8
LAYER_01
100
AcDbVertex
  6
BYLAYER
100
AcDb3dPolylineVertex
 10
-42.6629021548194
 20
398.318492502045
 30
8.94267904464972E-15
 70
0
  0
VERTEX
  5
D12
100
AcDbEntity
  8
LAYER_01
100
AcDbVertex
  6
BYLAYER
100
AcDb3dPolylineVertex
 10
-47.9703780533084
 20
398.444357718487
 30
8.89200923807975E-15
 70
0
  0
VERTEX
  5
D13
100
AcDbEntity
  8
LAYER_01
100
AcDbVertex
  6
BYLAYER
100
AcDb3dPolylineVertex
 10
-50.6251088648359
 20
398.57441487088
 30
8.86754263631308E-15
 70
0
  0
VERTEX
  5
D14
100
AcDbEntity
  8
LAYER_01
100
AcDbVertex
  6
BYLAYER
100
AcDb3dPolylineVertex
 10
-53.2802391109002
 20
398.75172050686
 30
8.84412374218474E-15
 70
0
  0
VERTEX
  5
D15
100
AcDbEntity
  8
LAYER_01
100
AcDbVertex
  6
BYLAYER
100
AcDb3dPolylineVertex
 10
-55.9355719362625
 20
398.978148717031
 30
8.8221041856643E-15
 70
0
  0
VERTEX
  5
D16
100
AcDbEntity
  8
LAYER_01
100
AcDbVertex
  6
BYLAYER
100
AcDb3dPolylineVertex
 10
-58.590910485684
 20
399.255573591998
 30
8.80183559672134E-15
 70
0
  0
VERTEX
  5
D17
100
AcDbEntity
  8
LAYER_01
100
AcDbVertex
  6
BYLAYER
100
AcDb3dPolylineVertex
 10
-61.6329802148314
 20
399.638384552987
 30
8.78110700053945E-15
 70
0
  0
VERTEX
  5
D18
100
AcDbEntity
  8
LAYER_01
100
AcDbVertex
  6
BYLAYER
100
AcDb3dPolylineVertex
 10
-64.6709750936281
 20
400.092082100331
 30
8.76302059980875E-15
 70
0
  0
VERTEX
  5
D19
100
AcDbEntity
  8
LAYER_01
100
AcDbVertex
  6
BYLAYER
100
AcDb3dPolylineVertex
 10
-67.7010712686312
 20
400.618121992149
 30
8.7474574210121E-15
 70
0
  0
VERTEX
  5
D1A
100
AcDbEntity
  8
LAYER_01
100
AcDbVertex
  6
BYLAYER
100
AcDb3dPolylineVertex
 10
-70.7194448863975
 20
401.21795998656
 30
8.73429849063236E-15
 70
0
  0
VERTEX
  5
D1B
100
AcDbEntity
  8
LAYER_01
100
AcDbVertex
  6
BYLAYER
100
AcDb3dPolylineVertex
 10
-73.7222720934841
 20
401.89305184168
 30
8.72342483515241E-15
 70
0
  0
VERTEX
  5
D1C
100
AcDbEntity
  8
LAYER_01
100
AcDbVertex
  6
BYLAYER
100
AcDb3dPolylineVertex
 10
-76.705729036448
 20
402.64485331563
 30
8.71471748105511E-15
 70
0
  0
VERTEX
  5
D1D
100
AcDbEntity
  8
LAYER_01
100
AcDbVertex
  6
BYLAYER
100
AcDb3dPolylineVertex
 10
-79.665991861846
 20
403.474820166528
 30
8.70805745482333E-15
 70
0
  0
VERTEX
  5
D1E
100
AcDbEntity
  8
LAYER_01
100
AcDbVertex
  6
BYLAYER
100
AcDb3dPolylineVertex
 10
-82.5992367162353
 20
404.384408152491
 30
8.70332578293993E-15
 70
0
  0
VERTEX
  5
D1F
100
AcDbEntity
  8
LAYER_01
100
AcDbVertex
  6
BYLAYER
100
AcDb3dPolylineVertex
 10
-85.5016397461727
 20
405.375073031639
 30
8.70040349188779E-15
 70
0
  0
VERTEX
  5
D20
100
AcDbEntity
  8
LAYER_01
100
AcDbVertex
  6
BYLAYER
100
AcDb3dPolylineVertex
 10
-88.3693770982153
 20
406.44827056209
 30
8.69917160814977E-15
 70
0
  0
VERTEX
  5
D21
100
AcDbEntity
  8
LAYER_01
100
AcDbVertex
  6
BYLAYER
100
AcDb3dPolylineVertex
 10
-91.1986249189201
 20
407.605456501962
 30
8.69951115820873E-15
 70
0
  0
VERTEX
  5
D22
100
AcDbEntity
  8
LAYER_01
100
AcDbVertex
  6
BYLAYER
100
AcDb3dPolylineVertex
 10
-93.9855593548439
 20
408.848086609374
 30
8.70130316854755E-15
 70
0
  0
VERTEX
  5
D23
100
AcDbEntity
  8
LAYER_01
100
AcDbVertex
  6
BYLAYER
100
AcDb3dPolylineVertex
 10
-96.7263565525438
 20
410.177616642445
 30
8.7044286656491E-15
 70
0
  0
VERTEX
  5
D24
100
AcDbEntity
  8
LAYER_01
100
AcDbVertex
  6
BYLAYER
100
AcDb3dPolylineVertex
 10
-99.4171926585768
 20
411.595502359292
 30
8.70876867599623E-15
 70
0
  0
VERTEX
  5
D25
100
AcDbEntity
  8
LAYER_01
100
AcDbVertex
  6
BYLAYER
100
AcDb3dPolylineVertex
 10
-100.742680348017
 20
412.338033523544
 30
8.71135694441279E-15
 70
0
  0
VERTEX
  5
D26
100
AcDbEntity
  8
LAYER_01
100
AcDbVertex
  6
BYLAYER
100
AcDb3dPolylineVertex
 10
-102.0542438195
 20
413.103199518034
 30
8.71420422607182E-15
 70
0
  0
VERTEX
  5
D27
100
AcDbEntity
  8
LAYER_01
100
AcDbVertex
  6
BYLAYER
100
AcDb3dPolylineVertex
 10
-103.351405091344
 20
413.891182312528
 30
8.71729564928369E-15
 70
0
  0
VERTEX
  5
D28
100
AcDbEntity
  8
LAYER_01
100
AcDbVertex
  6
BYLAYER
100
AcDb3dPolylineVertex
 10
-104.63368618187
 20
414.70216387679
 30
8.72061634235874E-15
 70
0
  0
VERTEX
  5
D29
100
AcDbEntity
  8
LAYER_01
100
AcDbVertex
  6
BYLAYER
100
AcDb3dPolylineVertex
 10
-107.065576302373
 20
416.332350687323
 30
8.72762085988278E-15
 70
0
  0
VERTEX
  5
D2A
100
AcDbEntity
  8
LAYER_01
100
AcDbVertex
  6
BYLAYER
100
AcDb3dPolylineVertex
 10
-109.440945212039
 20
418.044940714975
 30
8.73532724345808E-15
 70
0
  0
VERTEX
  5
D2B
100
AcDbEntity
  8
LAYER_01
100
AcDbVertex
  6
BYLAYER
100
AcDb3dPolylineVertex
 10
-111.760490843879
 20
419.835973848781
 30
8.74363858652659E-15
 70
0
  0
VERTEX
  5
D2C
100
AcDbEntity
  8
LAYER_01
100
AcDbVertex
  6
BYLAYER
100
AcDb3dPolylineVertex
 10
-114.024911130901
 20
421.701489977778
 30
8.75245798253027E-15
 70
0
  0
VERTEX
  5
D2D
100
AcDbEntity
  8
LAYER_01
100
AcDbVertex
  6
BYLAYER
100
AcDb3dPolylineVertex
 10
-116.234904006118
 20
423.637528991
 30
8.76168852491105E-15
 70
0
  0
VERTEX
  5
D2E
100
AcDbEntity
  8
LAYER_01
100
AcDbVertex
  6
BYLAYER
100
AcDb3dPolylineVertex
 10
-118.39116740254
 20
425.640130777483
 30
8.77123330711089E-15
 70
0
  0
VERTEX
  5
D2F
100
AcDbEntity
  8
LAYER_01
100
AcDbVertex
  6
BYLAYER
100
AcDb3dPolylineVertex
 10
-120.494399253177
 20
427.705335226262
 30
8.78099542257172E-15
 70
0
  0
VERTEX
  5
D30
100
AcDbEntity
  8
LAYER_01
100
AcDbVertex
  6
BYLAYER
100
AcDb3dPolylineVertex
 10
-122.54529749104
 20
429.829182226373
 30
8.79087796473552E-15
 70
0
  0
VERTEX
  5
D31
100
AcDbEntity
  8
LAYER_01
100
AcDbVertex
  6
BYLAYER
100
AcDb3dPolylineVertex
 10
-124.544560049139
 20
432.007711666851
 30
8.80078402704421E-15
 70
0
  0
VERTEX
  5
D32
100
AcDbEntity
  8
LAYER_01
100
AcDbVertex
  6
BYLAYER
100
AcDb3dPolylineVertex
 10
-126.492884860486
 20
434.236963436732
 30
8.81061670293975E-15
 70
0
  0
VERTEX
  5
D33
100
AcDbEntity
  8
LAYER_01
100
AcDbVertex
  6
BYLAYER
100
AcDb3dPolylineVertex
 10
-128.390969858089
 20
436.512977425052
 30
8.82027908586408E-15
 70
0
  0
VERTEX
  5
D34
100
AcDbEntity
  8
LAYER_01
100
AcDbVertex
  6
BYLAYER
100
AcDb3dPolylineVertex
 10
-130.239512974961
 20
438.831793520845
 30
8.82967426925916E-15
 70
0
  0
VERTEX
  5
D35
100
AcDbEntity
  8
LAYER_01
100
AcDbVertex
  6
BYLAYER
100
AcDb3dPolylineVertex
 10
-132.039212144112
 20
441.189451613147
 30
8.83870534656693E-15
 70
0
  0
VERTEX
  5
D36
100
AcDbEntity
  8
LAYER_01
100
AcDbVertex
  6
BYLAYER
100
AcDb3dPolylineVertex
 10
-133.790765298552
 20
443.581991590994
 30
8.84727541122934E-15
 70
0
  0
VERTEX
  5
D37
100
AcDbEntity
  8
LAYER_01
100
AcDbVertex
  6
BYLAYER
100
AcDb3dPolylineVertex
 10
-135.494870371291
 20
446.005453343421
 30
8.85528755668834E-15
 70
0
  0
VERTEX
  5
D38
100
AcDbEntity
  8
LAYER_01
100
AcDbVertex
  6
BYLAYER
100
AcDb3dPolylineVertex
 10
-137.152225295341
 20
448.455876759464
 30
8.86264487638587E-15
 70
0
  0
VERTEX
  5
D39
100
AcDbEntity
  8
LAYER_01
100
AcDbVertex
  6
BYLAYER
100
AcDb3dPolylineVertex
 10
-139.023078939831
 20
451.336595290023
 30
8.87028885805828E-15
 70
0
  0
VERTEX
  5
D3A
100
AcDbEntity
  8
LAYER_01
100
AcDbVertex
  6
BYLAYER
100
AcDb3dPolylineVertex
 10
-140.834535942203
 20
454.246860382914
 30
8.87697866726119E-15
 70
0
  0
VERTEX
  5
D3B
100
AcDbEntity
  8
LAYER_01
100
AcDbVertex
  6
BYLAYER
100
AcDb3dPolylineVertex
 10
-144.291077159091
 20
460.149647634381
 30
8.88775021425033E-15
 70
0
  0
VERTEX
  5
D3C
100
AcDbEntity
  8
LAYER_01
100
AcDbVertex
  6
BYLAYER
100
AcDb3dPolylineVertex
 10
-147.545483223008
 20
466.151473271248
 30
8.89546840933703E-15
 70
0
  0
VERTEX
  5
D3D
100
AcDbEntity
  8
LAYER_01
100
AcDbVertex
  6
BYLAYER
100
AcDb3dPolylineVertex
 10
-150.621388410957
 20
472.239572050895
 30
8.90064214450505E-15
 70
0
  0
VERTEX
  5
D3E
100
AcDbEntity
  8
LAYER_01
100
AcDbVertex
  6
BYLAYER
100
AcDb3dPolylineVertex
 10
-153.54242699994
 20
478.401178730707
 30
8.9037803117381E-15
 70
0
  0
VERTEX
  5
D3F
100
AcDbEntity
  8
LAYER_01
100
AcDbVertex
  6
BYLAYER
100
AcDb3dPolylineVertex
 10
-156.332233266958
 20
484.623528068065
 30
8.90539180301994E-15
 70
0
  0
VERTEX
  5
D40
100
AcDbEntity
  8
LAYER_01
100
AcDbVertex
  6
BYLAYER
100
AcDb3dPolylineVertex
 10
-161.612685943111
 20
497.199393744949
 30
8.90607032566493E-15
 70
0
  0
VERTEX
  5
D41
100
AcDbEntity
  8
LAYER_01
100
AcDbVertex
  6
BYLAYER
100
AcDb3dPolylineVertex
 10
-176.907356959438
 20
535.460537299648
 30
9.08983389336341E-15
 70
0
  0
VERTEX
  5
D42
100
AcDbEntity
  8
LAYER_01
100
AcDbVertex
  6
BYLAYER
100
AcDb3dPolylineVertex
 10
-178.928354922873
 20
540.112662821595
 30
8.96480440994641E-15
 70
0
  0
VERTEX
  5
D43
100
AcDbEntity
  8
LAYER_01
100
AcDbVertex
  6
BYLAYER
100
AcDb3dPolylineVertex
 10
-181.050838954066
 20
544.718232377624
 30
8.81506348243026E-15
 70
0
  0
VERTEX
  5
D44
100
AcDbEntity
  8
LAYER_01
100
AcDbVertex
  6
BYLAYER
100
AcDb3dPolylineVertex
 10
-182.16257635558
 20
546.995555227349
 30
8.75468355038084E-15
 70
0
  0
VERTEX
  5
D45
100
AcDbEntity
  8
LAYER_01
100
AcDbVertex
  6
BYLAYER
100
AcDb3dPolylineVertex
 10
-183.314611006644
 20
549.251634956308
 30
8.71663454520162E-15
 70
0
  0
VERTEX
  5
D46
100
AcDbEntity
  8
LAYER_01
100
AcDbVertex
  6
BYLAYER
100
AcDb3dPolylineVertex
 10
-184.511918151461
 20
551.483270188075
 30
8.71041939619095E-15
 70
0
  0
VERTEX
  5
D47
100
AcDbEntity
  8
LAYER_01
100
AcDbVertex
  6
BYLAYER
100
AcDb3dPolylineVertex
 10
-185.759473034233
 20
553.68725954622
 30
8.74554103264715E-15
 70
0
  0
VERTEX
  5
D48
100
AcDbEntity
  8
LAYER_01
100
AcDbVertex
  6
BYLAYER
100
AcDb3dPolylineVertex
 10
-187.476980202974
 20
556.53400039151
 30
8.85708394619144E-15
 70
0
  0
VERTEX
  5
D49
100
AcDbEntity
  8
LAYER_01
100
AcDbVertex
  6
BYLAYER
100
AcDb3dPolylineVertex
 10
-189.274819464357
 20
559.329868387725
 30
8.9985086305741E-15
 70
0
  0
VERTEX
  5
D4A
100
AcDbEntity
  8
LAYER_01
100
AcDbVertex
  6
BYLAYER
100
AcDb3dPolylineVertex
 10
-191.156023204857
 20
562.100552540107
 30
9.12306559326338E-15
 70
0
  0
VERTEX
  5
D4B
100
AcDbEntity
  8
LAYER_01
100
AcDbVertex
  6
BYLAYER
100
AcDb3dPolylineVertex
 10
-193.098915581826
 20
564.825457744483
 30
9.22167378595322E-15
 70
0
  0
VERTEX
  5
D4C
100
AcDbEntity
  8
LAYER_01
100
AcDbVertex
  6
BYLAYER
100
AcDb3dPolylineVertex
 10
-195.09851195158
 20
567.508253320706
 30
9.2966599712883E-15
 70
0
  0
VERTEX
  5
D4D
100
AcDbEntity
  8
LAYER_01
100
AcDbVertex
  6
BYLAYER
100
AcDb3dPolylineVertex
 10
-197.149827670433
 20
570.152608588632
 30
9.35035091191324E-15
 70
0
  0
VERTEX
  5
D4E
100
AcDbEntity
  8
LAYER_01
100
AcDbVertex
  6
BYLAYER
100
AcDb3dPolylineVertex
 10
-201.387678580703
 20
575.340675479007
 30
9.40315410961131E-15
 70
0
  0
VERTEX
  5
D4F
100
AcDbEntity
  8
LAYER_01
100
AcDbVertex
  6
BYLAYER
100
AcDb3dPolylineVertex
 10
-205.772591163162
 20
580.419012974442
 30
9.39869748020462E-15
 70
0
  0
VERTEX
  5
D50
100
AcDbEntity
  8
LAYER_01
100
AcDbVertex
  6
BYLAYER
100
AcDb3dPolylineVertex
 10
-230.938758196773
 20
607.895602630671
 30
9.16528833563878E-15
 70
0
  0
VERTEX
  5
D51
100
AcDbEntity
  8
LAYER_01
100
AcDbVertex
  6
BYLAYER
100
AcDb3dPolylineVertex
 10
-237.736632818391
 20
615.686049879781
 30
9.18931122760734E-15
 70
0
  0
VERTEX
  5
D52
100
AcDbEntity
  8
LAYER_01
100
AcDbVertex
  6
BYLAYER
100
AcDb3dPolylineVertex
 10
-244.347685754193
 20
623.62249656398
 30
9.20683127225754E-15
 70
0
  0
VERTEX
  5
D53
100
AcDbEntity
  8
LAYER_01
100
AcDbVertex
  6
BYLAYER
100
AcDb3dPolylineVertex
 10
-250.740663668137
 20
631.733937316465
 30
9.17205635126757E-15
 70
0
  0
VERTEX
  5
D54
100
AcDbEntity
  8
LAYER_01
100
AcDbVertex
  6
BYLAYER
100
AcDb3dPolylineVertex
 10
-256.627629799072
 20
639.676500759376
 30
9.0647982222953E-15
 70
0
  0
VERTEX
  5
D55
100
AcDbEntity
  8
LAYER_01
100
AcDbVertex
  6
BYLAYER
100
AcDb3dPolylineVertex
 10
-262.284695691343
 20
647.786334899504
 30
8.93079811060423E-15
 70
0
  0
VERTEX
  5
D56
100
AcDbEntity
  8
LAYER_01
100
AcDbVertex
  6
BYLAYER
100
AcDb3dPolylineVertex
 10
-267.737254940634
 20
656.089973034266
 30
8.83006106922899E-15
 70
0
  0
VERTEX
  5
D57
100
AcDbEntity
  8
LAYER_01
100
AcDbVertex
  6
BYLAYER
100
AcDb3dPolylineVertex
 10
-272.957225301856
 20
664.548499304808
 30
8.81360972264195E-15
 70
0
  0
VERTEX
  5
D58
100
AcDbEntity
  8
LAYER_01
100
AcDbVertex
  6
BYLAYER
100
AcDb3dPolylineVertex
 10
-277.17932132902
 20
671.827466817761
 30
8.88538020838765E-15
 70
0
  0
VERTEX
  5
D59
100
AcDbEntity
  8
LAYER_01
100
AcDbVertex
  6
BYLAYER
100
AcDb3dPolylineVertex
 10
-279.207671425919
 20
675.51461999623
 30
8.93686786382807E-15
 70
0
  0
VERTEX
  5
D5A
100
AcDbEntity
  8
LAYER_01
100
AcDbVertex
  6
BYLAYER
100
AcDb3dPolylineVertex
 10
-281.169845150678
 20
679.236037835336
 30
8.9882136356708E-15
 70
0
  0
VERTEX
  5
D5B
100
AcDbEntity
  8
LAYER_01
100
AcDbVertex
  6
BYLAYER
100
AcDb3dPolylineVertex
 10
-283.057559182533
 20
682.993584119561
 30
9.03150990493377E-15
 70
0
  0
VERTEX
  5
D5C
100
AcDbEntity
  8
LAYER_01
100
AcDbVertex
  6
BYLAYER
100
AcDb3dPolylineVertex
 10
-284.862530200721
 20
686.789122633387
 30
9.05884905263494E-15
 70
0
  0
VERTEX
  5
D5D
100
AcDbEntity
  8
LAYER_01
100
AcDbVertex
  6
BYLAYER
100
AcDb3dPolylineVertex
 10
-286.576474884478
 20
690.624517161295
 30
9.06232345979225E-15
 70
0
  0
VERTEX
  5
D5E
100
AcDbEntity
  8
LAYER_01
100
AcDbVertex
  6
BYLAYER
100
AcDb3dPolylineVertex
 10
-288.191109913042
 20
694.501631487768
 30
9.03402550742365E-15
 70
0
  0
VERTEX
  5
D5F
100
AcDbEntity
  8
LAYER_01
100
AcDbVertex
  6
BYLAYER
100
AcDb3dPolylineVertex
 10
-290.108306190582
 20
699.533778341293
 30
8.94841847426058E-15
 70
0
  0
VERTEX
  5
D60
100
AcDbEntity
  8
LAYER_01
100
AcDbVertex
  6
BYLAYER
100
AcDb3dPolylineVertex
 10
-291.865373557223
 20
704.62652969421
 30
8.83975961368622E-15
 70
0
  0
VERTEX
  5
D61
100
AcDbEntity
  8
LAYER_01
100
AcDbVertex
  6
BYLAYER
100
AcDb3dPolylineVertex
 10
-293.479026642031
 20
709.768854560031
 30
8.75021648461683E-15
 70
0
  0
VERTEX
  5
D62
100
AcDbEntity
  8
LAYER_01
100
AcDbVertex
  6
BYLAYER
100
AcDb3dPolylineVertex
 10
-294.965980074072
 20
714.949721952266
 30
8.72195664596868E-15
 70
0
  0
VERTEX
  5
D63
100
AcDbEntity
  8
LAYER_01
100
AcDbVertex
  6
BYLAYER
100
AcDb3dPolylineVertex
 10
-296.257756136313
 20
719.832766590346
 30
8.77690465324573E-15
 70
0
  0
VERTEX
  5
D64
100
AcDbEntity
  8
LAYER_01
100
AcDbVertex
  6
BYLAYER
100
AcDb3dPolylineVertex
 10
-297.455099197841
 20
724.738257925281
 30
8.88727267012823E-15
 70
0
  0
VERTEX
  5
D65
100
AcDbEntity
  8
LAYER_01
100
AcDbVertex
  6
BYLAYER
100
AcDb3dPolylineVertex
 10
-298.560225407081
 20
729.664466935855
 30
9.01757345149319E-15
 70
0
  0
VERTEX
  5
D66
100
AcDbEntity
  8
LAYER_01
100
AcDbVertex
  6
BYLAYER
100
AcDb3dPolylineVertex
 10
-299.575350912457
 20
734.609664600849
 30
9.13231975221758E-15
 70
0
  0
VERTEX
  5
D67
100
AcDbEntity
  8
LAYER_01
100
AcDbVertex
  6
BYLAYER
100
AcDb3dPolylineVertex
 10
-300.774840811826
 20
741.117512738831
 30
9.21683211103009E-15
 70
0
  0
VERTEX
  5
D68
100
AcDbEntity
  8
LAYER_01
100
AcDbVertex
  6
BYLAYER
100
AcDb3dPolylineVertex
 10
-301.837300051494
 20
747.650109234792
 30
9.23556217049443E-15
 70
0
  0
VERTEX
  5
D69
100
AcDbEntity
  8
LAYER_01
100
AcDbVertex
  6
BYLAYER
100
AcDb3dPolylineVertex
 10
-303.606325363066
 20
760.769919559615
 30
9.16334330004441E-15
 70
0
  0
VERTEX
  5
D6A
100
AcDbEntity
  8
LAYER_01
100
AcDbVertex
  6
BYLAYER
100
AcDb3dPolylineVertex
 10
-304.687261595186
 20
770.788289939778
 30
9.08712031159142E-15
 70
0
  0
VERTEX
  5
D6B
100
AcDbEntity
  8
LAYER_01
100
AcDbVertex
  6
BYLAYER
100
AcDb3dPolylineVertex
 10
-305.574871829676
 20
780.825104360618
 30
9.01731828107677E-15
 70
0
  0
VERTEX
  5
D6C
100
AcDbEntity
  8
LAYER_01
100
AcDbVertex
  6
BYLAYER
100
AcDb3dPolylineVertex
 10
-306.883481077993
 20
800.934868642322
 30
8.92295176011637E-15
 70
0
  0
VERTEX
  5
D6D
100
AcDbEntity
  8
LAYER_01
100
AcDbVertex
  6
BYLAYER
100
AcDb3dPolylineVertex
 10
-309.17836887298
 20
863.59568643965
 30
8.90607032566493E-15
 70
0
  0
VERTEX
  5
D6E
100
AcDbEntity
  8
LAYER_01
100
AcDbVertex
  6
BYLAYER
100
AcDb3dPolylineVertex
 10
-310.498036442325
 20
885.252731839926
 30
8.90607032566493E-15
 70
0
  0
VERTEX
  5
D6F
100
AcDbEntity
  8
LAYER_01
100
AcDbVertex
  6
BYLAYER
100
AcDb3dPolylineVertex
 10
-311.491978556719
 20
896.052913562132
 30
8.90607032566493E-15
 70
0
  0
VERTEX
  5
D70
100
AcDbEntity
  8
LAYER_01
100
AcDbVertex
  6
BYLAYER
100
AcDb3dPolylineVertex
 10
-312.779033164273
 20
906.82011196055
 30
8.90607032566493E-15
 70
0
  0
VERTEX
  5
D71
100
AcDbEntity
  8
LAYER_01
100
AcDbVertex
  6
BYLAYER
100
AcDb3dPolylineVertex
 10
-314.510615921716
 20
918.200463300101
 30
8.90607032566493E-15
 70
0
  0
VERTEX
  5
D72
100
AcDbEntity
  8
LAYER_01
100
AcDbVertex
  6
BYLAYER
100
AcDb3dPolylineVertex
 10
-316.611113701826
 20
929.522547556701
 30
8.90607032566493E-15
 70
0
  0
VERTEX
  5
D73
100
AcDbEntity
  8
LAYER_01
100
AcDbVertex
  6
BYLAYER
100
AcDb3dPolylineVertex
 10
-319.059813385868
 20
940.777154575503
 30
8.90607032566493E-15
 70
0
  0
VERTEX
  5
D74
100
AcDbEntity
  8
LAYER_01
100
AcDbVertex
  6
BYLAYER
100
AcDb3dPolylineVertex
 10
-321.836001855104
 20
951.95507420166
 30
8.90607032566493E-15
 70
0
  0
VERTEX
  5
D75
100
AcDbEntity
  8
LAYER_01
100
AcDbVertex
  6
BYLAYER
100
AcDb3dPolylineVertex
 10
-324.558124531493
 20
961.737999445822
 30
8.9028409074008E-15
 70
0
  0
VERTEX
  5
D76
100
AcDbEntity
  8
LAYER_01
100
AcDbVertex
  6
BYLAYER
100
AcDb3dPolylineVertex
 10
-326.038370619134
 20
966.592823209585
 30
8.89517103902349E-15
 70
0
  0
VERTEX
  5
D77
100
AcDbEntity
  8
LAYER_01
100
AcDbVertex
  6
BYLAYER
100
AcDb3dPolylineVertex
 10
-327.613907659885
 20
971.417045008458
 30
8.88023497955188E-15
 70
0
  0
VERTEX
  5
D78
100
AcDbEntity
  8
LAYER_01
100
AcDbVertex
  6
BYLAYER
100
AcDb3dPolylineVertex
 10
-329.903757615101
 20
977.868484769057
 30
8.8473156688562E-15
 70
0
  0
VERTEX
  5
D79
100
AcDbEntity
  8
LAYER_01
100
AcDbVertex
  6
BYLAYER
100
AcDb3dPolylineVertex
 10
-332.375742109962
 20
984.254647995171
 30
8.80892386130563E-15
 70
0
  0
VERTEX
  5
D7A
100
AcDbEntity
  8
LAYER_01
100
AcDbVertex
  6
BYLAYER
100
AcDb3dPolylineVertex
 10
-335.017061778961
 20
990.574347996188
 30
8.77720977025258E-15
 70
0
  0
VERTEX
  5
D7B
100
AcDbEntity
  8
LAYER_01
100
AcDbVertex
  6
BYLAYER
100
AcDb3dPolylineVertex
 10
-337.814917256596
 20
996.826398081496
 30
8.76432360904952E-15
 70
0
  0
VERTEX
  5
D7C
100
AcDbEntity
  8
LAYER_01
100
AcDbVertex
  6
BYLAYER
100
AcDb3dPolylineVertex
 10
-340.670128756632
 20
1002.8374919472
 30
8.77760570417396E-15
 70
0
  0
VERTEX
  5
D7D
100
AcDbEntity
  8
LAYER_01
100
AcDbVertex
  6
BYLAYER
100
AcDb3dPolylineVertex
 10
-343.640477241449
 20
1008.79145260832
 30
8.80870371008814E-15
 70
0
  0
VERTEX
  5
D7E
100
AcDbEntity
  8
LAYER_01
100
AcDbVertex
  6
BYLAYER
100
AcDb3dPolylineVertex
 10
-349.844193446595
 20
1020.55945992298
 30
8.8785964969159E-15
 70
0
  0
VERTEX
  5
D7F
100
AcDbEntity
  8
LAYER_01
100
AcDbVertex
  6
BYLAYER
100
AcDb3dPolylineVertex
 10
-354.94078279939
 20
1029.7478168974
 30
8.9026360970713E-15
 70
0
  0
VERTEX
  5
D80
100
AcDbEntity
  8
LAYER_01
100
AcDbVertex
  6
BYLAYER
100
AcDb3dPolylineVertex
 10
-362.305925513544
 20
1042.08180038984
 30
8.90607032566493E-15
 70
0
  0
VERTEX
  5
D81
100
AcDbEntity
  8
LAYER_01
100
AcDbVertex
  6
BYLAYER
100
AcDb3dPolylineVertex
 10
-363.258576808112
 20
1043.74560522049
 30
8.90607032566493E-15
 70
0
  0
VERTEX
  5
D82
100
AcDbEntity
  8
LAYER_01
100
AcDbVertex
  6
BYLAYER
100
AcDb3dPolylineVertex
 10
-363.709924005061
 20
1044.58944757969
 30
8.90607032566493E-15
 70
0
  0
VERTEX
  5
D83
100
AcDbEntity
  8
LAYER_01
100
AcDbVertex
  6
BYLAYER
100
AcDb3dPolylineVertex
 10
-364.13993684228
 20
1045.44348084011
 30
8.90607032566493E-15
 70
0
  0
VERTEX
  5
D84
100
AcDbEntity
  8
LAYER_01
100
AcDbVertex
  6
BYLAYER
100
AcDb3dPolylineVertex
 10
-364.415825888568
 20
1046.02458124751
 30
8.90607032566493E-15
 70
0
  0
VERTEX
  5
D85
100
AcDbEntity
  8
LAYER_01
100
AcDbVertex
  6
BYLAYER
100
AcDb3dPolylineVertex
 10
-364.681223607833
 20
1046.61067294732
 30
8.90607032566493E-15
 70
0
  0
VERTEX
  5
D86
100
AcDbEntity
  8
LAYER_01
100
AcDbVertex
  6
BYLAYER
100
AcDb3dPolylineVertex
 10
-365.183579307196
 20
1047.79630777207
 30
8.90607032566493E-15
 70
0
  0
VERTEX
  5
D87
100
AcDbEntity
  8
LAYER_01
100
AcDbVertex
  6
BYLAYER
100
AcDb3dPolylineVertex
 10
-365.653072424171
 20
1048.99734041012
 30
8.90607032566493E-15
 70
0
  0
VERTEX
  5
D88
100
AcDbEntity
  8
LAYER_01
100
AcDbVertex
  6
BYLAYER
100
AcDb3dPolylineVertex
 10
-366.095771442562
 20
1050.21072595725
 30
8.90607032566493E-15
 70
0
  0
VERTEX
  5
D89
100
AcDbEntity
  8
LAYER_01
100
AcDbVertex
  6
BYLAYER
100
AcDb3dPolylineVertex
 10
-367.71999620633
 20
1055.12689915194
 30
8.90607032566493E-15
 70
0
  0
VERTEX
  5
D8A
100
AcDbEntity
  8
LAYER_01
100
AcDbVertex
  6
BYLAYER
100
AcDb3dPolylineVertex
 10
-368.784469284536
 20
1058.49860921083
 30
8.90114116836852E-15
 70
0
  0
VERTEX
  5
D8B
100
AcDbEntity
  8
LAYER_01
100
AcDbVertex
  6
BYLAYER
100
AcDb3dPolylineVertex
 10
-369.029830657784
 20
1059.34644149314
 30
8.89644306532038E-15
 70
0
  0
VERTEX
  5
D8C
100
AcDbEntity
  8
LAYER_01
100
AcDbVertex
  6
BYLAYER
100
AcDb3dPolylineVertex
 10
-369.260246348667
 20
1060.19844011016
 30
8.88943441978955E-15
 70
0
  0
VERTEX
  5
D8D
100
AcDbEntity
  8
LAYER_01
100
AcDbVertex
  6
BYLAYER
100
AcDb3dPolylineVertex
 10
-369.472394895262
 20
1061.05570727574
 30
8.87965312327948E-15
 70
0
  0
VERTEX
  5
D8E
100
AcDbEntity
  8
LAYER_01
100
AcDbVertex
  6
BYLAYER
100
AcDb3dPolylineVertex
 10
-369.66295483565
 20
1061.91934520372
 30
8.86663706729365E-15
 70
0
  0
VERTEX
  5
D8F
100
AcDbEntity
  8
LAYER_01
100
AcDbVertex
  6
BYLAYER
100
AcDb3dPolylineVertex
 10
-369.820012338907
 20
1062.7400451479
 30
8.85133079134218E-15
 70
0
  0
VERTEX
  5
D90
100
AcDbEntity
  8
LAYER_01
100
AcDbVertex
  6
BYLAYER
100
AcDb3dPolylineVertex
 10
-369.95305691977
 20
1063.56610132669
 30
8.83440938090106E-15
 70
0
  0
VERTEX
  5
D91
100
AcDbEntity
  8
LAYER_01
100
AcDbVertex
  6
BYLAYER
100
AcDb3dPolylineVertex
 10
-370.060217818899
 20
1064.39622736509
 30
8.81754378857563E-15
 70
0
  0
VERTEX
  5
D92
100
AcDbEntity
  8
LAYER_01
100
AcDbVertex
  6
BYLAYER
100
AcDb3dPolylineVertex
 10
-370.139624276949
 20
1065.22913688808
 30
8.80240496697123E-15
 70
0
  0
VERTEX
  5
D93
100
AcDbEntity
  8
LAYER_01
100
AcDbVertex
  6
BYLAYER
100
AcDb3dPolylineVertex
 10
-370.168334978275
 20
1065.6462334641
 30
8.79600526787858E-15
 70
0
  0
VERTEX
  5
D94
100
AcDbEntity
  8
LAYER_01
100
AcDbVertex
  6
BYLAYER
100
AcDb3dPolylineVertex
 10
-370.189405534577
 20
1066.06354352065
 30
8.79066386869318E-15
 70
0
  0
VERTEX
  5
D95
100
AcDbEntity
  8
LAYER_01
100
AcDbVertex
  6
BYLAYER
100
AcDb3dPolylineVertex
 10
-370.202602100939
 20
1066.48090626084
 30
8.78658963849071E-15
 70
0
  0
VERTEX
  5
D96
100
AcDbEntity
  8
LAYER_01
100
AcDbVertex
  6
BYLAYER
100
AcDb3dPolylineVertex
 10
-370.207690832442
 20
1066.8981608878
 30
8.78399144634682E-15
 70
0
  0
VERTEX
  5
D97
100
AcDbEntity
  8
LAYER_01
100
AcDbVertex
  6
BYLAYER
100
AcDb3dPolylineVertex
 10
-370.204437884169
 20
1067.31514660465
 30
8.7830781613372E-15
 70
0
  0
VERTEX
  5
D98
100
AcDbEntity
  8
LAYER_01
100
AcDbVertex
  6
BYLAYER
100
AcDb3dPolylineVertex
 10
-370.192609411201
 20
1067.73170261451
 30
8.78405865253749E-15
 70
0
  0
VERTEX
  5
D99
100
AcDbEntity
  8
LAYER_01
100
AcDbVertex
  6
BYLAYER
100
AcDb3dPolylineVertex
 10
-370.17197156862
 20
1068.14766812051
 30
8.78714178902338E-15
 70
0
  0
VERTEX
  5
D9A
100
AcDbEntity
  8
LAYER_01
100
AcDbVertex
  6
BYLAYER
100
AcDb3dPolylineVertex
 10
-370.142290511509
 20
1068.56288232577
 30
8.79253643987052E-15
 70
0
  0
VERTEX
  5
D9B
100
AcDbEntity
  8
LAYER_01
100
AcDbVertex
  6
BYLAYER
100
AcDb3dPolylineVertex
 10
-370.102843808551
 20
1068.98278679547
 30
8.80044303995053E-15
 70
0
  0
VERTEX
  5
D9C
100
AcDbEntity
  8
LAYER_01
100
AcDbVertex
  6
BYLAYER
100
AcDb3dPolylineVertex
 10
-370.054233264384
 20
1069.40170998819
 30
8.81035555666905E-15
 70
0
  0
VERTEX
  5
D9D
100
AcDbEntity
  8
LAYER_01
100
AcDbVertex
  6
BYLAYER
100
AcDb3dPolylineVertex
 10
-369.99682407608
 20
1069.81960749853
 30
8.8216910658376E-15
 70
0
  0
VERTEX
  5
D9E
100
AcDbEntity
  8
LAYER_01
100
AcDbVertex
  6
BYLAYER
100
AcDb3dPolylineVertex
 10
-369.930981440711
 20
1070.23643492106
 30
8.83386664326766E-15
 70
0
  0
VERTEX
  5
D9F
100
AcDbEntity
  8
LAYER_01
100
AcDbVertex
  6
BYLAYER
100
AcDb3dPolylineVertex
 10
-369.85707055535
 20
1070.65214785037
 30
8.84629936477074E-15
 70
0
  0
VERTEX
  5
DA0
100
AcDbEntity
  8
LAYER_01
100
AcDbVertex
  6
BYLAYER
100
AcDb3dPolylineVertex
 10
-369.775456617069
 20
1071.06670188104
 30
8.85840630615834E-15
 70
0
  0
VERTEX
  5
DA1
100
AcDbEntity
  8
LAYER_01
100
AcDbVertex
  6
BYLAYER
100
AcDb3dPolylineVertex
 10
-369.590580370035
 20
1071.89215562479
 30
8.87931115183308E-15
 70
0
  0
VERTEX
  5
DA2
100
AcDbEntity
  8
LAYER_01
100
AcDbVertex
  6
BYLAYER
100
AcDb3dPolylineVertex
 10
-369.379274276188
 20
1072.71244090897
 30
8.89191778678388E-15
 70
0
  0
VERTEX
  5
DA3
100
AcDbEntity
  8
LAYER_01
100
AcDbVertex
  6
BYLAYER
100
AcDb3dPolylineVertex
 10
-369.144459912104
 20
1073.52720249024
 30
8.89156281750274E-15
 70
0
  0
VERTEX
  5
DA4
100
AcDbEntity
  8
LAYER_01
100
AcDbVertex
  6
BYLAYER
100
AcDb3dPolylineVertex
 10
-368.889058854362
 20
1074.33608512525
 30
8.87358285048166E-15
 70
0
  0
VERTEX
  5
DA5
100
AcDbEntity
  8
LAYER_01
100
AcDbVertex
  6
BYLAYER
100
AcDb3dPolylineVertex
 10
-368.615992679539
 20
1075.13873357068
 30
8.83331449221263E-15
 70
0
  0
VERTEX
  5
DA6
100
AcDbEntity
  8
LAYER_01
100
AcDbVertex
  6
BYLAYER
100
AcDb3dPolylineVertex
 10
-368.312673949523
 20
1075.97439040334
 30
8.76538160632338E-15
 70
0
  0
VERTEX
  5
DA7
100
AcDbEntity
  8
LAYER_01
100
AcDbVertex
  6
BYLAYER
100
AcDb3dPolylineVertex
 10
-367.991811536605
 20
1076.80212779398
 30
8.682980317567E-15
 70
0
  0
VERTEX
  5
DA8
100
AcDbEntity
  8
LAYER_01
100
AcDbVertex
  6
BYLAYER
100
AcDb3dPolylineVertex
 10
-367.652117086783
 20
1077.62129140759
 30
8.60135761780374E-15
 70
0
  0
VERTEX
  5
DA9
100
AcDbEntity
  8
LAYER_01
100
AcDbVertex
  6
BYLAYER
100
AcDb3dPolylineVertex
 10
-367.292302246057
 20
1078.43122690915
 30
8.53576049889384E-15
 70
0
  0
VERTEX
  5
DAA
100
AcDbEntity
  8
LAYER_01
100
AcDbVertex
  6
BYLAYER
100
AcDb3dPolylineVertex
 10
-366.911078660427
 20
1079.23127996366
 30
8.50143595269756E-15
 70
0
  0
VERTEX
  5
DAB
100
AcDbEntity
  8
LAYER_01
100
AcDbVertex
  6
BYLAYER
100
AcDb3dPolylineVertex
 10
-366.507157975893
 20
1080.02079623611
 30
8.51363097107512E-15
 70
0
  0
VERTEX
  5
DAC
100
AcDbEntity
  8
LAYER_01
100
AcDbVertex
  6
BYLAYER
100
AcDb3dPolylineVertex
 10
-366.079251838453
 20
1080.7991213915
 30
8.58759254588679E-15
 70
0
  0
VERTEX
  5
DAD
100
AcDbEntity
  8
LAYER_01
100
AcDbVertex
  6
BYLAYER
100
AcDb3dPolylineVertex
 10
-365.626071894108
 20
1081.56560109483
 30
8.73856766899281E-15
 70
0
  0
VERTEX
  5
DAE
100
AcDbEntity
  8
LAYER_01
100
AcDbVertex
  6
BYLAYER
100
AcDb3dPolylineVertex
 10
-365.190122155005
 20
1082.25254169433
 30
8.94559886176633E-15
 70
0
  0
VERTEX
  5
DAF
100
AcDbEntity
  8
LAYER_01
100
AcDbVertex
  6
BYLAYER
100
AcDb3dPolylineVertex
 10
-364.731173287749
 20
1082.92569271962
 30
9.17813509212316E-15
 70
0
  0
VERTEX
  5
DB0
100
AcDbEntity
  8
LAYER_01
100
AcDbVertex
  6
BYLAYER
100
AcDb3dPolylineVertex
 10
-364.492776422841
 20
1083.25602998937
 30
9.2880081596677E-15
 70
0
  0
VERTEX
  5
DB1
100
AcDbEntity
  8
LAYER_01
100
AcDbVertex
  6
BYLAYER
100
AcDb3dPolylineVertex
 10
-364.248272466029
 20
1083.58163928249
 30
9.38510616253493E-15
 70
0
  0
VERTEX
  5
DB2
100
AcDbEntity
  8
LAYER_01
100
AcDbVertex
  6
BYLAYER
100
AcDb3dPolylineVertex
 10
-363.997542314024
 20
1083.90209373796
 30
9.46304532603381E-15
 70
0
  0
VERTEX
  5
DB3
100
AcDbEntity
  8
LAYER_01
100
AcDbVertex
  6
BYLAYER
100
AcDb3dPolylineVertex
 10
-363.740466863536
 20
1084.21696649474
 30
9.51544187547329E-15
 70
0
  0
VERTEX
  5
DB4
100
AcDbEntity
  8
LAYER_01
100
AcDbVertex
  6
BYLAYER
100
AcDb3dPolylineVertex
 10
-363.476927011277
 20
1084.52583069181
 30
9.53591203616234E-15
 70
0
  0
VERTEX
  5
DB5
100
AcDbEntity
  8
LAYER_01
100
AcDbVertex
  6
BYLAYER
100
AcDb3dPolylineVertex
 10
-363.206803653958
 20
1084.82825946815
 30
9.5180720334099E-15
 70
0
  0
VERTEX
  5
DB6
100
AcDbEntity
  8
LAYER_01
100
AcDbVertex
  6
BYLAYER
100
AcDb3dPolylineVertex
 10
-362.929977688291
 20
1085.12382596273
 30
9.45553809252493E-15
 70
0
  0
VERTEX
  5
DB7
100
AcDbEntity
  8
LAYER_01
100
AcDbVertex
  6
BYLAYER
100
AcDb3dPolylineVertex
 10
-362.646330010986
 20
1085.41210331451
 30
9.3419264388164E-15
 70
0
  0
VERTEX
  5
DB8
100
AcDbEntity
  8
LAYER_01
100
AcDbVertex
  6
BYLAYER
100
AcDb3dPolylineVertex
 10
-362.355741518755
 20
1085.69266466249
 30
9.17085329759324E-15
 70
0
  0
VERTEX
  5
DB9
100
AcDbEntity
  8
LAYER_01
100
AcDbVertex
  6
BYLAYER
100
AcDb3dPolylineVertex
 10
-362.058093108309
 20
1085.96508314562
 30
8.93593489416443E-15
 70
0
  0
VERTEX
  5
DBA
100
AcDbEntity
  8
LAYER_01
100
AcDbVertex
  6
BYLAYER
100
AcDb3dPolylineVertex
 10
-361.753265676359
 20
1086.22893190289
 30
8.63078745383891E-15
 70
0
  0
VERTEX
  5
DBB
100
AcDbEntity
  8
LAYER_01
100
AcDbVertex
  6
BYLAYER
100
AcDb3dPolylineVertex
 10
-361.441140119617
 20
1086.48378407327
 30
8.24902720192564E-15
 70
0
  0
VERTEX
  5
DBC
100
AcDbEntity
  8
LAYER_01
100
AcDbVertex
  6
BYLAYER
100
AcDb3dPolylineVertex
 10
-361.121070731747
 20
1086.72977756346
 30
7.78662381210983E-15
 70
0
  0
VERTEX
  5
DBD
100
AcDbEntity
  8
LAYER_01
100
AcDbVertex
  6
BYLAYER
100
AcDb3dPolylineVertex
 10
-360.793940144219
 20
1086.96654532227
 30
7.25437244760655E-15
 70
0
  0
VERTEX
  5
DBE
100
AcDbEntity
  8
LAYER_01
100
AcDbVertex
  6
BYLAYER
100
AcDb3dPolylineVertex
 10
-360.460132428134
 20
1087.1943206939
 30
6.66573550926114E-15
 70
0
  0
VERTEX
  5
DBF
100
AcDbEntity
  8
LAYER_01
100
AcDbVertex
  6
BYLAYER
100
AcDb3dPolylineVertex
 10
-360.12003165459
 20
1087.41333702258
 30
6.03417539791893E-15
 70
0
  0
VERTEX
  5
DC0
100
AcDbEntity
  8
LAYER_01
100
AcDbVertex
  6
BYLAYER
100
AcDb3dPolylineVertex
 10
-359.774021894689
 20
1087.62382765252
 30
5.37315451442525E-15
 70
0
  0
VERTEX
  5
DC1
100
AcDbEntity
  8
LAYER_01
100
AcDbVertex
  6
BYLAYER
100
AcDb3dPolylineVertex
 10
-359.422487219531
 20
1087.82602592794
 30
4.69613525962544E-15
 70
0
  0
VERTEX
  5
DC2
100
AcDbEntity
  8
LAYER_01
100
AcDbVertex
  6
BYLAYER
100
AcDb3dPolylineVertex
 10
-359.065811700216
 20
1088.02016519307
 30
4.01658003436484E-15
 70
0
  0
VERTEX
  5
DC3
100
AcDbEntity
  8
LAYER_01
100
AcDbVertex
  6
BYLAYER
100
AcDb3dPolylineVertex
 10
-358.704379407844
 20
1088.20647879211
 30
3.34795123948876E-15
 70
0
  0
VERTEX
  5
DC4
100
AcDbEntity
  8
LAYER_01
100
AcDbVertex
  6
BYLAYER
100
AcDb3dPolylineVertex
 10
-358.338574413516
 20
1088.38520006929
 30
2.70371127584255E-15
 70
0
  0
VERTEX
  5
DC5
100
AcDbEntity
  8
LAYER_01
100
AcDbVertex
  6
BYLAYER
100
AcDb3dPolylineVertex
 10
-357.968780788332
 20
1088.55656236883
 30
2.09732254427154E-15
 70
0
  0
VERTEX
  5
DC6
100
AcDbEntity
  8
LAYER_01
100
AcDbVertex
  6
BYLAYER
100
AcDb3dPolylineVertex
 10
-357.595382603391
 20
1088.72079903494
 30
1.54224744562107E-15
 70
0
  0
VERTEX
  5
DC7
100
AcDbEntity
  8
LAYER_01
100
AcDbVertex
  6
BYLAYER
100
AcDb3dPolylineVertex
 10
-357.218763929796
 20
1088.87814341184
 30
1.05194838073646E-15
 70
0
  0
VERTEX
  5
DC8
100
AcDbEntity
  8
LAYER_01
100
AcDbVertex
  6
BYLAYER
100
AcDb3dPolylineVertex
 10
-356.457401401037
 20
1089.17308867489
 30
3.19527955646172E-16
 70
0
  0
VERTEX
  5
DC9
100
AcDbEntity
  8
LAYER_01
100
AcDbVertex
  6
BYLAYER
100
AcDb3dPolylineVertex
 10
-355.687765770859
 20
1089.44326491173
 30
7.76047576335256E-18
 70
0
  0
SEQEND
  5
DCA
100
AcDbEntity
  8
0
  0
CIRCLE
  5
63E
100
AcDbEntity
  8
LAYER_01
100
AcDbCircle
370
-1
  6
BYLAYER
 10
-114.487646727262
 20
264.708278150807
 30
0
 40
9.80300915996823
  0
CIRCLE
  5
63F
100
AcDbEntity
  8
LAYER_01
100
AcDbCircle
370
-1
  6
BYLAYER
 10
408.076405372416
 20
363.396831725384
 30
0
 40
8.42660290437433
  0
CIRCLE
  5
640
100
AcDbEntity
  8
LAYER_01
100
AcDbCircle
370
-1
  6
BYLAYER
 10
566.913509848898
 20
1427.90043120047
 30
0
 40
8.42660290437433
  0
CIRCLE
  5
641
100
AcDbEntity
  8
LAYER_01
100
AcDbCircle
370
-1
  6
BYLAYER
 10
44.3494577492197
 20
1329.21187762589
 30
0
 40
9.80300915996815
  0
POLYLINE
  5
642
100
AcDbEntity
  8
LAYER_01
100
AcDb3dPolyline
370
-1
  6
BYLAYER
 66
1
 10
0
 20
0
 30
0
 70
0
 40
0
 41
0
  0
VERTEX
  5
DCB
100
AcDbEntity
  8
LAYER_01
100
AcDbVertex
  6
BYLAYER
100
AcDb3dPolylineVertex
 10
596.922867995439
 20
1402.55519711519
 30
9.07406638341596E-15
 70
0
  0
VERTEX
  5
DCC
100
AcDbEntity
  8
LAYER_01
100
AcDbVertex
  6
BYLAYER
100
AcDb3dPolylineVertex
 10
591.860346084317
 20
1398.4504891736
 30
9.08134966500014E-15
 70
0
  0
VERTEX
  5
DCD
100
AcDbEntity
  8
LAYER_01
100
AcDbVertex
  6
BYLAYER
100
AcDb3dPolylineVertex
 10
586.715567947437
 20
1394.44253147273
 30
9.08861874937103E-15
 70
0
  0
VERTEX
  5
DCE
100
AcDbEntity
  8
LAYER_01
100
AcDbVertex
  6
BYLAYER
100
AcDb3dPolylineVertex
 10
581.492289856029
 20
1390.5304427824
 30
9.09575992623583E-15
 70
0
  0
VERTEX
  5
DCF
100
AcDbEntity
  8
LAYER_01
100
AcDbVertex
  6
BYLAYER
100
AcDb3dPolylineVertex
 10
576.194268081326
 20
1386.71334187241
 30
9.10265948530178E-15
 70
0
  0
VERTEX
  5
DD0
100
AcDbEntity
  8
LAYER_01
100
AcDbVertex
  6
BYLAYER
100
AcDb3dPolylineVertex
 10
570.825258894556
 20
1382.99034751257
 30
9.10920371627611E-15
 70
0
  0
VERTEX
  5
DD1
100
AcDbEntity
  8
LAYER_01
100
AcDbVertex
  6
BYLAYER
100
AcDb3dPolylineVertex
 10
565.389018566952
 20
1379.3605784727
 30
9.11527890886603E-15
 70
0
  0
VERTEX
  5
DD2
100
AcDbEntity
  8
LAYER_01
100
AcDbVertex
  6
BYLAYER
100
AcDb3dPolylineVertex
 10
554.329869574163
 20
1372.37719143212
 30
9.12556733772157E-15
 70
0
  0
VERTEX
  5
DD3
100
AcDbEntity
  8
LAYER_01
100
AcDbVertex
  6
BYLAYER
100
AcDb3dPolylineVertex
 10
543.046871272805
 20
1365.75613090913
 30
9.13261508952621E-15
 70
0
  0
VERTEX
  5
DD4
100
AcDbEntity
  8
LAYER_01
100
AcDbVertex
  6
BYLAYER
100
AcDb3dPolylineVertex
 10
531.570073832724
 20
1359.49034706225
 30
9.13551248193776E-15
 70
0
  0
VERTEX
  5
DD5
100
AcDbEntity
  8
LAYER_01
100
AcDbVertex
  6
BYLAYER
100
AcDb3dPolylineVertex
 10
519.929527423766
 20
1353.57279004996
 30
9.13334983261401E-15
 70
0
  0
VERTEX
  5
DD6
100
AcDbEntity
  8
LAYER_01
100
AcDbVertex
  6
BYLAYER
100
AcDb3dPolylineVertex
 10
508.155282215779
 20
1347.99641003076
 30
9.12521745921277E-15
 70
0
  0
VERTEX
  5
DD7
100
AcDbEntity
  8
LAYER_01
100
AcDbVertex
  6
BYLAYER
100
AcDb3dPolylineVertex
 10
498.516159833455
 20
1343.71424811062
 30
9.11379170010104E-15
 70
0
  0
VERTEX
  5
DD8
100
AcDbEntity
  8
LAYER_01
100
AcDbVertex
  6
BYLAYER
100
AcDb3dPolylineVertex
 10
488.812091473989
 20
1339.64349502462
 30
9.0985136033521E-15
 70
0
  0
VERTEX
  5
DD9
100
AcDbEntity
  8
LAYER_01
100
AcDbVertex
  6
BYLAYER
100
AcDb3dPolylineVertex
 10
479.046452611076
 20
1335.77531499837
 30
9.08006548876882E-15
 70
0
  0
VERTEX
  5
DDA
100
AcDbEntity
  8
LAYER_01
100
AcDbVertex
  6
BYLAYER
100
AcDb3dPolylineVertex
 10
469.222618718409
 20
1332.10087225747
 30
9.05912967615408E-15
 70
0
  0
VERTEX
  5
DDB
100
AcDbEntity
  8
LAYER_01
100
AcDbVertex
  6
BYLAYER
100
AcDb3dPolylineVertex
 10
459.343965269683
 20
1328.61133102754
 30
9.03638848531077E-15
 70
0
  0
VERTEX
  5
DDC
100
AcDbEntity
  8
LAYER_01
100
AcDbVertex
  6
BYLAYER
100
AcDb3dPolylineVertex
 10
449.413867738593
 20
1325.29785553418
 30
9.01252423604175E-15
 70
0
  0
VERTEX
  5
DDD
100
AcDbEntity
  8
LAYER_01
100
AcDbVertex
  6
BYLAYER
100
AcDb3dPolylineVertex
 10
429.412842324093
 20
1319.1637586596
 30
8.96415584143815E-15
 70
0
  0
VERTEX
  5
DDE
100
AcDbEntity
  8
LAYER_01
100
AcDbVertex
  6
BYLAYER
100
AcDb3dPolylineVertex
 10
409.246546264464
 20
1313.62789543861
 30
8.9194830507663E-15
 70
0
  0
VERTEX
  5
DDF
100
AcDbEntity
  8
LAYER_01
100
AcDbVertex
  6
BYLAYER
100
AcDb3dPolylineVertex
 10
388.941983349259
 20
1308.61957967605
 30
8.88396442244924E-15
 70
0
  0
VERTEX
  5
DE0
100
AcDbEntity
  8
LAYER_01
100
AcDbVertex
  6
BYLAYER
100
AcDb3dPolylineVertex
 10
368.52615736803
 20
1304.0681251768
 30
8.86305851491002E-15
 70
0
  0
VERTEX
  5
DE1
100
AcDbEntity
  8
LAYER_01
100
AcDbVertex
  6
BYLAYER
100
AcDb3dPolylineVertex
 10
348.026072110332
 20
1299.90284574571
 30
8.86222388657167E-15
 70
0
  0
VERTEX
  5
DE2
100
AcDbEntity
  8
LAYER_01
100
AcDbVertex
  6
BYLAYER
100
AcDb3dPolylineVertex
 10
322.828034508407
 20
1295.25164856016
 30
8.89183005913768E-15
 70
0
  0
VERTEX
  5
DE3
100
AcDbEntity
  8
LAYER_01
100
AcDbVertex
  6
BYLAYER
100
AcDb3dPolylineVertex
 10
297.548328981734
 20
1291.11803234553
 30
8.94142678307587E-15
 70
0
  0
VERTEX
  5
DE4
100
AcDbEntity
  8
LAYER_01
100
AcDbVertex
  6
BYLAYER
100
AcDb3dPolylineVertex
 10
272.191224342872
 20
1287.54604992958
 30
8.99268599493983E-15
 70
0
  0
VERTEX
  5
DE5
100
AcDbEntity
  8
LAYER_01
100
AcDbVertex
  6
BYLAYER
100
AcDb3dPolylineVertex
 10
246.760989404379
 20
1284.57975414009
 30
9.02727963128316E-15
 70
0
  0
VERTEX
  5
DE6
100
AcDbEntity
  8
LAYER_01
100
AcDbVertex
  6
BYLAYER
100
AcDb3dPolylineVertex
 10
219.66600504934
 20
1282.13526015325
 30
9.03119901078084E-15
 70
0
  0
VERTEX
  5
DE7
100
AcDbEntity
  8
LAYER_01
100
AcDbVertex
  6
BYLAYER
100
AcDb3dPolylineVertex
 10
192.507750574818
 20
1280.44351427747
 30
9.00917967242997E-15
 70
0
  0
VERTEX
  5
DE8
100
AcDbEntity
  8
LAYER_01
100
AcDbVertex
  6
BYLAYER
100
AcDb3dPolylineVertex
 10
165.300702991205
 20
1279.52368508782
 30
8.97479199278686E-15
 70
0
  0
VERTEX
  5
DE9
100
AcDbEntity
  8
LAYER_01
100
AcDbVertex
  6
BYLAYER
100
AcDb3dPolylineVertex
 10
138.059339308893
 20
1279.39494115939
 30
8.94160634840783E-15
 70
0
  0
VERTEX
  5
DEA
100
AcDbEntity
  8
LAYER_01
100
AcDbVertex
  6
BYLAYER
100
AcDb3dPolylineVertex
 10
47.5791683795785
 20
1281.38759650134
 30
8.90613973195935E-15
 70
0
  0
VERTEX
  5
DEB
100
AcDbEntity
  8
LAYER_01
100
AcDbVertex
  6
BYLAYER
100
AcDb3dPolylineVertex
 10
34.715046256174
 20
1281.21634567618
 30
8.90607032566493E-15
 70
0
  0
VERTEX
  5
DEC
100
AcDbEntity
  8
LAYER_01
100
AcDbVertex
  6
BYLAYER
100
AcDb3dPolylineVertex
 10
24.5607262546253
 20
1280.86688103672
 30
8.90607032566493E-15
 70
0
  0
VERTEX
  5
DED
100
AcDbEntity
  8
LAYER_01
100
AcDbVertex
  6
BYLAYER
100
AcDb3dPolylineVertex
 10
14.4035809094853
 20
1280.24354903404
 30
8.90607032566493E-15
 70
0
  0
VERTEX
  5
DEE
100
AcDbEntity
  8
LAYER_01
100
AcDbVertex
  6
BYLAYER
100
AcDb3dPolylineVertex
 10
9.31772787046366
 20
1279.8006295332
 30
8.90607032566493E-15
 70
0
  0
VERTEX
  5
DEF
100
AcDbEntity
  8
LAYER_01
100
AcDbVertex
  6
BYLAYER
100
AcDb3dPolylineVertex
 10
4.22370346041843
 20
1279.25497930561
 30
8.90607032566493E-15
 70
0
  0
VERTEX
  5
DF0
100
AcDbEntity
  8
LAYER_01
100
AcDbVertex
  6
BYLAYER
100
AcDb3dPolylineVertex
 10
-0.880980665692359
 20
1278.59517705596
 30
8.90607032566493E-15
 70
0
  0
VERTEX
  5
DF1
100
AcDbEntity
  8
LAYER_01
100
AcDbVertex
  6
BYLAYER
100
AcDb3dPolylineVertex
 10
-5.99881285291065
 20
1277.80980148891
 30
8.90607032566493E-15
 70
0
  0
VERTEX
  5
DF2
100
AcDbEntity
  8
LAYER_01
100
AcDbVertex
  6
BYLAYER
100
AcDb3dPolylineVertex
 10
-9.28020650967985
 20
1277.23544706765
 30
8.76691297682641E-15
 70
0
  0
VERTEX
  5
DF3
100
AcDbEntity
  8
LAYER_01
100
AcDbVertex
  6
BYLAYER
100
AcDb3dPolylineVertex
 10
-12.5599567508516
 20
1276.59809633284
 30
7.79281153495681E-15
 70
0
  0
VERTEX
  5
DF4
100
AcDbEntity
  8
LAYER_01
100
AcDbVertex
  6
BYLAYER
100
AcDb3dPolylineVertex
 10
-15.8300178994773
 20
1275.89084484434
 30
5.14882190702504E-15
 70
0
  0
VERTEX
  5
DF5
100
AcDbEntity
  8
LAYER_01
100
AcDbVertex
  6
BYLAYER
100
AcDb3dPolylineVertex
 10
-19.0823442786081
 20
1275.10678816201
 30
9.07406638341596E-15
 42
-1.02283407342452
 70
0
  0
VERTEX
  5
DF6
100
AcDbEntity
  8
LAYER_01
100
AcDbVertex
  6
BYLAYER
100
AcDb3dPolylineVertex
 10
-39.8030018235399
 20
1379.02686175472
 30
9.07406638341596E-15
 70
0
  0
VERTEX
  5
DF7
100
AcDbEntity
  8
LAYER_01
100
AcDbVertex
  6
BYLAYER
100
AcDb3dPolylineVertex
 10
-15.6308804862283
 20
1378.05808764584
 30
9.02621204734072E-15
 70
0
  0
VERTEX
  5
DF8
100
AcDbEntity
  8
LAYER_01
100
AcDbVertex
  6
BYLAYER
100
AcDb3dPolylineVertex
 10
4.97957465219246
 20
1376.7309907497
 30
8.98858400114604E-15
 70
0
  0
VERTEX
  5
DF9
100
AcDbEntity
  8
LAYER_01
100
AcDbVertex
  6
BYLAYER
100
AcDb3dPolylineVertex
 10
66.0915264259147
 20
1370.99524838497
 30
9.05281036651371E-15
 70
0
  0
VERTEX
  5
DFA
100
AcDbEntity
  8
LAYER_01
100
AcDbVertex
  6
BYLAYER
100
AcDb3dPolylineVertex
 10
138.595001814377
 20
1362.86926739155
 30
9.00715276588136E-15
 70
0
  0
VERTEX
  5
DFB
100
AcDbEntity
  8
LAYER_01
100
AcDbVertex
  6
BYLAYER
100
AcDb3dPolylineVertex
 10
153.886486281748
 20
1361.52671672278
 30
9.03782780987839E-15
 70
0
  0
VERTEX
  5
DFC
100
AcDbEntity
  8
LAYER_01
100
AcDbVertex
  6
BYLAYER
100
AcDb3dPolylineVertex
 10
161.539704011129
 20
1361.03168137897
 30
9.05040677965416E-15
 70
0
  0
VERTEX
  5
DFD
100
AcDbEntity
  8
LAYER_01
100
AcDbVertex
  6
BYLAYER
100
AcDb3dPolylineVertex
 10
169.198601046754
 20
1360.68541784765
 30
9.05856260700595E-15
 70
0
  0
VERTEX
  5
DFE
100
AcDbEntity
  8
LAYER_01
100
AcDbVertex
  6
BYLAYER
100
AcDb3dPolylineVertex
 10
177.022278877911
 20
1360.50300675919
 30
9.0608634921521E-15
 70
0
  0
VERTEX
  5
DFF
100
AcDbEntity
  8
LAYER_01
100
AcDbVertex
  6
BYLAYER
100
AcDb3dPolylineVertex
 10
184.850763910396
 20
1360.48442776873
 30
9.05777671953155E-15
 70
0
  0
VERTEX
  5
E00
100
AcDbEntity
  8
LAYER_01
100
AcDbVertex
  6
BYLAYER
100
AcDb3dPolylineVertex
 10
200.515541318361
 20
1360.87631646033
 30
9.04040021362897E-15
 70
0
  0
VERTEX
  5
E01
100
AcDbEntity
  8
LAYER_01
100
AcDbVertex
  6
BYLAYER
100
AcDb3dPolylineVertex
 10
216.179704748662
 20
1361.73618467959
 30
9.01635311457538E-15
 70
0
  0
VERTEX
  5
E02
100
AcDbEntity
  8
LAYER_01
100
AcDbVertex
  6
BYLAYER
100
AcDb3dPolylineVertex
 10
231.830025679312
 20
1362.93913318366
 30
8.99555544764795E-15
 70
0
  0
VERTEX
  5
E03
100
AcDbEntity
  8
LAYER_01
100
AcDbVertex
  6
BYLAYER
100
AcDb3dPolylineVertex
 10
262.52283127535
 20
1365.98560966016
 30
8.98461847004783E-15
 70
0
  0
VERTEX
  5
E04
100
AcDbEntity
  8
LAYER_01
100
AcDbVertex
  6
BYLAYER
100
AcDb3dPolylineVertex
 10
293.093756189055
 20
1369.90088868071
 30
8.99341326668128E-15
 70
0
  0
VERTEX
  5
E05
100
AcDbEntity
  8
LAYER_01
100
AcDbVertex
  6
BYLAYER
100
AcDb3dPolylineVertex
 10
323.525565345472
 20
1374.71037323251
 30
8.99076382236737E-15
 70
0
  0
VERTEX
  5
E06
100
AcDbEntity
  8
LAYER_01
100
AcDbVertex
  6
BYLAYER
100
AcDb3dPolylineVertex
 10
353.801023669645
 20
1380.43946630278
 30
8.94549412192514E-15
 70
0
  0
VERTEX
  5
E07
100
AcDbEntity
  8
LAYER_01
100
AcDbVertex
  6
BYLAYER
100
AcDb3dPolylineVertex
 10
379.374084289021
 20
1386.073043941
 30
8.86077535125243E-15
 70
0
  0
VERTEX
  5
E08
100
AcDbEntity
  8
LAYER_01
100
AcDbVertex
  6
BYLAYER
100
AcDb3dPolylineVertex
 10
392.08992439606
 20
1389.19768096991
 30
8.81213046638297E-15
 70
0
  0
VERTEX
  5
E09
100
AcDbEntity
  8
LAYER_01
100
AcDbVertex
  6
BYLAYER
100
AcDb3dPolylineVertex
 10
404.745991159233
 20
1392.55533556033
 30
8.7665945273363E-15
 70
0
  0
VERTEX
  5
E0A
100
AcDbEntity
  8
LAYER_01
100
AcDbVertex
  6
BYLAYER
100
AcDb3dPolylineVertex
 10
417.332799671969
 20
1396.16684677848
 30
8.72964199324609E-15
 70
0
  0
VERTEX
  5
E0B
100
AcDbEntity
  8
LAYER_01
100
AcDbVertex
  6
BYLAYER
100
AcDb3dPolylineVertex
 10
429.840865027692
 20
1400.05305369059
 30
8.70674732324598E-15
 70
0
  0
VERTEX
  5
E0C
100
AcDbEntity
  8
LAYER_01
100
AcDbVertex
  6
BYLAYER
100
AcDb3dPolylineVertex
 10
442.260702319829
 20
1404.23479536289
 30
8.70338497646962E-15
 70
0
  0
VERTEX
  5
E0D
100
AcDbEntity
  8
LAYER_01
100
AcDbVertex
  6
BYLAYER
100
AcDb3dPolylineVertex
 10
454.582826641806
 20
1408.73291086161
 30
8.72502941205067E-15
 70
0
  0
VERTEX
  5
E0E
100
AcDbEntity
  8
LAYER_01
100
AcDbVertex
  6
BYLAYER
100
AcDb3dPolylineVertex
 10
463.49787370648
 20
1412.2251449159
 30
8.75851142284933E-15
 70
0
  0
VERTEX
  5
E0F
100
AcDbEntity
  8
LAYER_01
100
AcDbVertex
  6
BYLAYER
100
AcDb3dPolylineVertex
 10
472.33812472153
 20
1415.91153368128
 30
8.80310338839969E-15
 70
0
  0
VERTEX
  5
E10
100
AcDbEntity
  8
LAYER_01
100
AcDbVertex
  6
BYLAYER
100
AcDb3dPolylineVertex
 10
481.085773395
 20
1419.80695890543
 30
8.8537104782564E-15
 70
0
  0
VERTEX
  5
E11
100
AcDbEntity
  8
LAYER_01
100
AcDbVertex
  6
BYLAYER
100
AcDb3dPolylineVertex
 10
489.723013434938
 20
1423.92630233603
 30
8.90523786197408E-15
 70
0
  0
VERTEX
  5
E12
100
AcDbEntity
  8
LAYER_01
100
AcDbVertex
  6
BYLAYER
100
AcDb3dPolylineVertex
 10
498.232038549387
 20
1428.28444572074
 30
8.95259070910737E-15
 70
0
  0
VERTEX
  5
E13
100
AcDbEntity
  8
LAYER_01
100
AcDbVertex
  6
BYLAYER
100
AcDb3dPolylineVertex
 10
506.595042446394
 20
1432.89627080724
 30
8.99067418921092E-15
 70
0
  0
VERTEX
  5
E14
100
AcDbEntity
  8
LAYER_01
100
AcDbVertex
  6
BYLAYER
100
AcDb3dPolylineVertex
 10
514.794218834004
 20
1437.77665934321
 30
9.01439347183935E-15
 70
0
  0
VERTEX
  5
E15
100
AcDbEntity
  8
LAYER_01
100
AcDbVertex
  6
BYLAYER
100
AcDb3dPolylineVertex
 10
518.826807245549
 20
1440.32221545089
 30
9.01927440458622E-15
 70
0
  0
VERTEX
  5
E16
100
AcDbEntity
  8
LAYER_01
100
AcDbVertex
  6
BYLAYER
100
AcDb3dPolylineVertex
 10
522.811761420263
 20
1442.94049307631
 30
9.01865372654731E-15
 70
0
  0
VERTEX
  5
E17
100
AcDbEntity
  8
LAYER_01
100
AcDbVertex
  6
BYLAYER
100
AcDb3dPolylineVertex
 10
528.65061328564
 20
1446.9755846291
 30
8.86763635970055E-15
 70
0
  0
VERTEX
  5
E18
100
AcDbEntity
  8
LAYER_01
100
AcDbVertex
  6
BYLAYER
100
AcDb3dPolylineVertex
 10
534.374037993703
 20
1451.17718439653
 30
7.8697205864572E-15
 70
0
  0
VERTEX
  5
E19
100
AcDbEntity
  8
LAYER_01
100
AcDbVertex
  6
BYLAYER
100
AcDb3dPolylineVertex
 10
539.977074754426
 20
1455.54656253445
 30
5.19160795162207E-15
 70
0
  0
VERTEX
  5
E1A
100
AcDbEntity
  8
LAYER_01
100
AcDbVertex
  6
BYLAYER
100
AcDb3dPolylineVertex
 10
545.454762777781
 20
1460.08498919873
 30
9.07406638341596E-15
 42
-0.916940554886282
 70
0
  0
VERTEX
  5
E1B
100
AcDbEntity
  8
LAYER_01
100
AcDbVertex
  6
BYLAYER
100
AcDb3dPolylineVertex
 10
596.92286799544
 20
1402.55519711519
 30
9.07406638341596E-15
 70
0
  0
SEQEND
  5
E1C
100
AcDbEntity
  8
0
  0
POLYLINE
  5
695
100
AcDbEntity
  8
LAYER_01
100
AcDb3dPolyline
370
-1
  6
BYLAYER
 66
1
 10
0
 20
0
 30
0
 70
0
 40
0
 41
0
  0
VERTEX
  5
E1D
100
AcDbEntity
  8
LAYER_01
100
AcDbVertex
  6
BYLAYER
100
AcDb3dPolylineVertex
 10
619.089194331039
 20
1270.80202766919
 30
9.07406638341595E-15
 70
0
  0
VERTEX
  5
E1E
100
AcDbEntity
  8
LAYER_01
100
AcDbVertex
  6
BYLAYER
100
AcDb3dPolylineVertex
 10
614.026672419917
 20
1266.6973197276
 30
9.08134966500014E-15
 70
0
  0
VERTEX
  5
E1F
100
AcDbEntity
  8
LAYER_01
100
AcDbVertex
  6
BYLAYER
100
AcDb3dPolylineVertex
 10
608.881894283036
 20
1262.68936202674
 30
9.08861874937103E-15
 70
0
  0
VERTEX
  5
E20
100
AcDbEntity
  8
LAYER_01
100
AcDbVertex
  6
BYLAYER
100
AcDb3dPolylineVertex
 10
603.658616191629
 20
1258.7772733364
 30
9.09575992623583E-15
 70
0
  0
VERTEX
  5
E21
100
AcDbEntity
  8
LAYER_01
100
AcDbVertex
  6
BYLAYER
100
AcDb3dPolylineVertex
 10
598.360594416925
 20
1254.96017242641
 30
9.10265948530178E-15
 70
0
  0
VERTEX
  5
E22
100
AcDbEntity
  8
LAYER_01
100
AcDbVertex
  6
BYLAYER
100
AcDb3dPolylineVertex
 10
592.991585230156
 20
1251.23717806658
 30
9.10920371627611E-15
 70
0
  0
VERTEX
  5
E23
100
AcDbEntity
  8
LAYER_01
100
AcDbVertex
  6
BYLAYER
100
AcDb3dPolylineVertex
 10
587.555344902552
 20
1247.60740902671
 30
9.11527890886603E-15
 70
0
  0
VERTEX
  5
E24
100
AcDbEntity
  8
LAYER_01
100
AcDbVertex
  6
BYLAYER
100
AcDb3dPolylineVertex
 10
576.496195909763
 20
1240.62402198612
 30
9.12556733772157E-15
 70
0
  0
VERTEX
  5
E25
100
AcDbEntity
  8
LAYER_01
100
AcDbVertex
  6
BYLAYER
100
AcDb3dPolylineVertex
 10
565.213197608404
 20
1234.00296146314
 30
9.13261508952621E-15
 70
0
  0
VERTEX
  5
E26
100
AcDbEntity
  8
LAYER_01
100
AcDbVertex
  6
BYLAYER
100
AcDb3dPolylineVertex
 10
553.736400168323
 20
1227.73717761625
 30
9.13551248193776E-15
 70
0
  0
VERTEX
  5
E27
100
AcDbEntity
  8
LAYER_01
100
AcDbVertex
  6
BYLAYER
100
AcDb3dPolylineVertex
 10
542.095853759366
 20
1221.81962060396
 30
9.13334983261401E-15
 70
0
  0
VERTEX
  5
E28
100
AcDbEntity
  8
LAYER_01
100
AcDbVertex
  6
BYLAYER
100
AcDb3dPolylineVertex
 10
530.321608551379
 20
1216.24324058476
 30
9.12521745921277E-15
 70
0
  0
VERTEX
  5
E29
100
AcDbEntity
  8
LAYER_01
100
AcDbVertex
  6
BYLAYER
100
AcDb3dPolylineVertex
 10
520.682486169055
 20
1211.96107866462
 30
9.11379170010104E-15
 70
0
  0
VERTEX
  5
E2A
100
AcDbEntity
  8
LAYER_01
100
AcDbVertex
  6
BYLAYER
100
AcDb3dPolylineVertex
 10
510.978417809589
 20
1207.89032557862
 30
9.0985136033521E-15
 70
0
  0
VERTEX
  5
E2B
100
AcDbEntity
  8
LAYER_01
100
AcDbVertex
  6
BYLAYER
100
AcDb3dPolylineVertex
 10
501.212778946675
 20
1204.02214555237
 30
9.08006548876882E-15
 70
0
  0
VERTEX
  5
E2C
100
AcDbEntity
  8
LAYER_01
100
AcDbVertex
  6
BYLAYER
100
AcDb3dPolylineVertex
 10
491.388945054009
 20
1200.34770281147
 30
9.05912967615408E-15
 70
0
  0
VERTEX
  5
E2D
100
AcDbEntity
  8
LAYER_01
100
AcDbVertex
  6
BYLAYER
100
AcDb3dPolylineVertex
 10
481.510291605283
 20
1196.85816158154
 30
9.03638848531077E-15
 70
0
  0
VERTEX
  5
E2E
100
AcDbEntity
  8
LAYER_01
100
AcDbVertex
  6
BYLAYER
100
AcDb3dPolylineVertex
 10
471.580194074192
 20
1193.54468608818
 30
9.01252423604175E-15
 70
0
  0
VERTEX
  5
E2F
100
AcDbEntity
  8
LAYER_01
100
AcDbVertex
  6
BYLAYER
100
AcDb3dPolylineVertex
 10
451.579168659693
 20
1187.41058921361
 30
8.96415584143814E-15
 70
0
  0
VERTEX
  5
E30
100
AcDbEntity
  8
LAYER_01
100
AcDbVertex
  6
BYLAYER
100
AcDb3dPolylineVertex
 10
431.412872600063
 20
1181.87472599261
 30
8.9194830507663E-15
 70
0
  0
VERTEX
  5
E31
100
AcDbEntity
  8
LAYER_01
100
AcDbVertex
  6
BYLAYER
100
AcDb3dPolylineVertex
 10
411.108309684857
 20
1176.86641023005
 30
8.88396442244924E-15
 70
0
  0
VERTEX
  5
E32
100
AcDbEntity
  8
LAYER_01
100
AcDbVertex
  6
BYLAYER
100
AcDb3dPolylineVertex
 10
390.692483703629
 20
1172.3149557308
 30
8.86305851491002E-15
 70
0
  0
VERTEX
  5
E33
100
AcDbEntity
  8
LAYER_01
100
AcDbVertex
  6
BYLAYER
100
AcDb3dPolylineVertex
 10
370.19239844593
 20
1168.14967629972
 30
8.86222388657167E-15
 70
0
  0
VERTEX
  5
E34
100
AcDbEntity
  8
LAYER_01
100
AcDbVertex
  6
BYLAYER
100
AcDb3dPolylineVertex
 10
344.994360844006
 20
1163.49847911416
 30
8.89183005913768E-15
 70
0
  0
VERTEX
  5
E35
100
AcDbEntity
  8
LAYER_01
100
AcDbVertex
  6
BYLAYER
100
AcDb3dPolylineVertex
 10
319.714655317334
 20
1159.36486289953
 30
8.94142678307587E-15
 70
0
  0
VERTEX
  5
E36
100
AcDbEntity
  8
LAYER_01
100
AcDbVertex
  6
BYLAYER
100
AcDb3dPolylineVertex
 10
294.357550678472
 20
1155.79288048358
 30
8.99268599493983E-15
 70
0
  0
VERTEX
  5
E37
100
AcDbEntity
  8
LAYER_01
100
AcDbVertex
  6
BYLAYER
100
AcDb3dPolylineVertex
 10
268.92731573998
 20
1152.82658469409
 30
9.02727963128316E-15
 70
0
  0
VERTEX
  5
E38
100
AcDbEntity
  8
LAYER_01
100
AcDbVertex
  6
BYLAYER
100
AcDb3dPolylineVertex
 10
241.83233138494
 20
1150.38209070725
 30
9.03119901078084E-15
 70
0
  0
VERTEX
  5
E39
100
AcDbEntity
  8
LAYER_01
100
AcDbVertex
  6
BYLAYER
100
AcDb3dPolylineVertex
 10
214.674076910418
 20
1148.69034483147
 30
9.00917967242997E-15
 70
0
  0
VERTEX
  5
E3A
100
AcDbEntity
  8
LAYER_01
100
AcDbVertex
  6
BYLAYER
100
AcDb3dPolylineVertex
 10
187.467029326805
 20
1147.77051564182
 30
8.97479199278686E-15
 70
0
  0
VERTEX
  5
E3B
100
AcDbEntity
  8
LAYER_01
100
AcDbVertex
  6
BYLAYER
100
AcDb3dPolylineVertex
 10
160.225665644493
 20
1147.64177171339
 30
8.94160634840783E-15
 70
0
  0
VERTEX
  5
E3C
100
AcDbEntity
  8
LAYER_01
100
AcDbVertex
  6
BYLAYER
100
AcDb3dPolylineVertex
 10
69.7454947151779
 20
1149.63442705534
 30
8.90613973195935E-15
 70
0
  0
VERTEX
  5
E3D
100
AcDbEntity
  8
LAYER_01
100
AcDbVertex
  6
BYLAYER
100
AcDb3dPolylineVertex
 10
56.8813725917735
 20
1149.46317623019
 30
8.90607032566493E-15
 70
0
  0
VERTEX
  5
E3E
100
AcDbEntity
  8
LAYER_01
100
AcDbVertex
  6
BYLAYER
100
AcDb3dPolylineVertex
 10
46.7270548580053
 20
1149.11371167767
 30
8.76691297682641E-15
 70
0
  0
VERTEX
  5
E3F
100
AcDbEntity
  8
LAYER_01
100
AcDbVertex
  6
BYLAYER
100
AcDb3dPolylineVertex
 10
36.5699108702756
 20
1148.49037976196
 30
7.79281153495681E-15
 70
0
  0
VERTEX
  5
E40
100
AcDbEntity
  8
LAYER_01
100
AcDbVertex
  6
BYLAYER
100
AcDb3dPolylineVertex
 10
31.484057886625
 20
1148.04746027744
 30
6.73173675006314E-15
 70
0
  0
VERTEX
  5
E41
100
AcDbEntity
  8
LAYER_01
100
AcDbVertex
  6
BYLAYER
100
AcDb3dPolylineVertex
 10
26.3900329660238
 20
1147.50181003355
 30
5.14882190702504E-15
 70
0
  0
VERTEX
  5
E42
100
AcDbEntity
  8
LAYER_01
100
AcDbVertex
  6
BYLAYER
100
AcDb3dPolylineVertex
 10
21.2853476506519
 20
1146.84200772411
 30
2.93969899421362E-15
 70
0
  0
VERTEX
  5
E43
100
AcDbEntity
  8
LAYER_01
100
AcDbVertex
  6
BYLAYER
100
AcDb3dPolylineVertex
 10
16.1675134826892
 20
1146.05663204292
 30
9.07406638341596E-15
 42
-1.03665678001487
 70
0
  0
VERTEX
  5
E44
100
AcDbEntity
  8
LAYER_01
100
AcDbVertex
  6
BYLAYER
100
AcDb3dPolylineVertex
 10
5.67507492291416
 20
1246.35100778577
 30
9.07406638341596E-15
 70
0
  0
VERTEX
  5
E45
100
AcDbEntity
  8
LAYER_01
100
AcDbVertex
  6
BYLAYER
100
AcDb3dPolylineVertex
 10
27.1459009877918
 20
1244.97782130371
 30
8.98858400114604E-15
 70
0
  0
VERTEX
  5
E46
100
AcDbEntity
  8
LAYER_01
100
AcDbVertex
  6
BYLAYER
100
AcDb3dPolylineVertex
 10
88.2578527615137
 20
1239.24207893897
 30
9.05281036651371E-15
 70
0
  0
VERTEX
  5
E47
100
AcDbEntity
  8
LAYER_01
100
AcDbVertex
  6
BYLAYER
100
AcDb3dPolylineVertex
 10
160.761328149977
 20
1231.11609794555
 30
9.00715276588136E-15
 70
0
  0
VERTEX
  5
E48
100
AcDbEntity
  8
LAYER_01
100
AcDbVertex
  6
BYLAYER
100
AcDb3dPolylineVertex
 10
176.052812617348
 20
1229.77354727678
 30
9.03782780987839E-15
 70
0
  0
VERTEX
  5
E49
100
AcDbEntity
  8
LAYER_01
100
AcDbVertex
  6
BYLAYER
100
AcDb3dPolylineVertex
 10
183.706030346729
 20
1229.27851193297
 30
9.05040677965416E-15
 70
0
  0
VERTEX
  5
E4A
100
AcDbEntity
  8
LAYER_01
100
AcDbVertex
  6
BYLAYER
100
AcDb3dPolylineVertex
 10
191.364927382354
 20
1228.93224840165
 30
9.05856260700595E-15
 70
0
  0
VERTEX
  5
E4B
100
AcDbEntity
  8
LAYER_01
100
AcDbVertex
  6
BYLAYER
100
AcDb3dPolylineVertex
 10
199.188605213511
 20
1228.7498373132
 30
9.0608634921521E-15
 70
0
  0
VERTEX
  5
E4C
100
AcDbEntity
  8
LAYER_01
100
AcDbVertex
  6
BYLAYER
100
AcDb3dPolylineVertex
 10
207.017090245996
 20
1228.73125832273
 30
9.05777671953155E-15
 70
0
  0
VERTEX
  5
E4D
100
AcDbEntity
  8
LAYER_01
100
AcDbVertex
  6
BYLAYER
100
AcDb3dPolylineVertex
 10
222.681867653961
 20
1229.12314701433
 30
9.04040021362897E-15
 70
0
  0
VERTEX
  5
E4E
100
AcDbEntity
  8
LAYER_01
100
AcDbVertex
  6
BYLAYER
100
AcDb3dPolylineVertex
 10
238.346031084261
 20
1229.98301523359
 30
9.01635311457538E-15
 70
0
  0
VERTEX
  5
E4F
100
AcDbEntity
  8
LAYER_01
100
AcDbVertex
  6
BYLAYER
100
AcDb3dPolylineVertex
 10
253.99635201491
 20
1231.18596373766
 30
8.99555544764796E-15
 70
0
  0
VERTEX
  5
E50
100
AcDbEntity
  8
LAYER_01
100
AcDbVertex
  6
BYLAYER
100
AcDb3dPolylineVertex
 10
284.689157610949
 20
1234.23244021417
 30
8.98461847004783E-15
 70
0
  0
VERTEX
  5
E51
100
AcDbEntity
  8
LAYER_01
100
AcDbVertex
  6
BYLAYER
100
AcDb3dPolylineVertex
 10
315.260082524655
 20
1238.14771923471
 30
8.99341326668128E-15
 70
0
  0
VERTEX
  5
E52
100
AcDbEntity
  8
LAYER_01
100
AcDbVertex
  6
BYLAYER
100
AcDb3dPolylineVertex
 10
345.691891681071
 20
1242.95720378651
 30
8.99076382236736E-15
 70
0
  0
VERTEX
  5
E53
100
AcDbEntity
  8
LAYER_01
100
AcDbVertex
  6
BYLAYER
100
AcDb3dPolylineVertex
 10
375.967350005245
 20
1248.68629685678
 30
8.94549412192514E-15
 70
0
  0
VERTEX
  5
E54
100
AcDbEntity
  8
LAYER_01
100
AcDbVertex
  6
BYLAYER
100
AcDb3dPolylineVertex
 10
401.540410624621
 20
1254.319874495
 30
8.86077535125243E-15
 70
0
  0
VERTEX
  5
E55
100
AcDbEntity
  8
LAYER_01
100
AcDbVertex
  6
BYLAYER
100
AcDb3dPolylineVertex
 10
414.25625073166
 20
1257.44451152392
 30
8.81213046638296E-15
 70
0
  0
VERTEX
  5
E56
100
AcDbEntity
  8
LAYER_01
100
AcDbVertex
  6
BYLAYER
100
AcDb3dPolylineVertex
 10
426.912317494833
 20
1260.80216611433
 30
8.7665945273363E-15
 70
0
  0
VERTEX
  5
E57
100
AcDbEntity
  8
LAYER_01
100
AcDbVertex
  6
BYLAYER
100
AcDb3dPolylineVertex
 10
439.499126007569
 20
1264.41367733248
 30
8.72964199324609E-15
 70
0
  0
VERTEX
  5
E58
100
AcDbEntity
  8
LAYER_01
100
AcDbVertex
  6
BYLAYER
100
AcDb3dPolylineVertex
 10
452.007191363292
 20
1268.2998842446
 30
8.70674732324598E-15
 70
0
  0
VERTEX
  5
E59
100
AcDbEntity
  8
LAYER_01
100
AcDbVertex
  6
BYLAYER
100
AcDb3dPolylineVertex
 10
464.427028655429
 20
1272.4816259169
 30
8.70338497646963E-15
 70
0
  0
VERTEX
  5
E5A
100
AcDbEntity
  8
LAYER_01
100
AcDbVertex
  6
BYLAYER
100
AcDb3dPolylineVertex
 10
476.749152977406
 20
1276.97974141562
 30
8.72502941205067E-15
 70
0
  0
VERTEX
  5
E5B
100
AcDbEntity
  8
LAYER_01
100
AcDbVertex
  6
BYLAYER
100
AcDb3dPolylineVertex
 10
485.66420004208
 20
1280.4719754699
 30
8.75851142284933E-15
 70
0
  0
VERTEX
  5
E5C
100
AcDbEntity
  8
LAYER_01
100
AcDbVertex
  6
BYLAYER
100
AcDb3dPolylineVertex
 10
494.50445105713
 20
1284.15836423528
 30
8.8031033883997E-15
 70
0
  0
VERTEX
  5
E5D
100
AcDbEntity
  8
LAYER_01
100
AcDbVertex
  6
BYLAYER
100
AcDb3dPolylineVertex
 10
503.2520997306
 20
1288.05378945943
 30
8.8537104782564E-15
 70
0
  0
VERTEX
  5
E5E
100
AcDbEntity
  8
LAYER_01
100
AcDbVertex
  6
BYLAYER
100
AcDb3dPolylineVertex
 10
511.889339770537
 20
1292.17313289003
 30
8.90523786197408E-15
 70
0
  0
VERTEX
  5
E5F
100
AcDbEntity
  8
LAYER_01
100
AcDbVertex
  6
BYLAYER
100
AcDb3dPolylineVertex
 10
520.398364884987
 20
1296.53127627474
 30
8.95259070910737E-15
 70
0
  0
VERTEX
  5
E60
100
AcDbEntity
  8
LAYER_01
100
AcDbVertex
  6
BYLAYER
100
AcDb3dPolylineVertex
 10
528.761368781993
 20
1301.14310136125
 30
8.99067418921092E-15
 70
0
  0
VERTEX
  5
E61
100
AcDbEntity
  8
LAYER_01
100
AcDbVertex
  6
BYLAYER
100
AcDb3dPolylineVertex
 10
536.960545169604
 20
1306.02348989721
 30
9.01439347183935E-15
 70
0
  0
VERTEX
  5
E62
100
AcDbEntity
  8
LAYER_01
100
AcDbVertex
  6
BYLAYER
100
AcDb3dPolylineVertex
 10
540.993133581149
 20
1308.56904600489
 30
9.01927440458622E-15
 70
0
  0
VERTEX
  5
E63
100
AcDbEntity
  8
LAYER_01
100
AcDbVertex
  6
BYLAYER
100
AcDb3dPolylineVertex
 10
544.978087755862
 20
1311.18732363032
 30
9.01865372654731E-15
 70
0
  0
VERTEX
  5
E64
100
AcDbEntity
  8
LAYER_01
100
AcDbVertex
  6
BYLAYER
100
AcDb3dPolylineVertex
 10
550.816939621239
 20
1315.22241518311
 30
9.00736486969929E-15
 70
0
  0
VERTEX
  5
E65
100
AcDbEntity
  8
LAYER_01
100
AcDbVertex
  6
BYLAYER
100
AcDb3dPolylineVertex
 10
556.540364329303
 20
1319.42401495053
 30
8.98754866644715E-15
 70
0
  0
VERTEX
  5
E66
100
AcDbEntity
  8
LAYER_01
100
AcDbVertex
  6
BYLAYER
100
AcDb3dPolylineVertex
 10
562.143401090025
 20
1323.79339308845
 30
8.96427772158815E-15
 70
0
  0
VERTEX
  5
E67
100
AcDbEntity
  8
LAYER_01
100
AcDbVertex
  6
BYLAYER
100
AcDb3dPolylineVertex
 10
567.62108911338
 20
1328.33181975274
 30
8.94262463991959E-15
 42
-0.91694055488629
 70
0
  0
VERTEX
  5
E68
100
AcDbEntity
  8
LAYER_01
100
AcDbVertex
  6
BYLAYER
100
AcDb3dPolylineVertex
 10
619.089194331039
 20
1270.80202766919
 30
-8.97048776976471E-16
 70
0
  0
SEQEND
  5
E69
100
AcDbEntity
  8
0
  0
CIRCLE
  5
6E3
100
AcDbEntity
  8
LAYER_01
100
AcDbCircle
370
-1
  6
BYLAYER
 10
589.079836184497
 20
1296.14726175448
 30
0
 40
8.42660290437452
  0
CIRCLE
  5
6E4
100
AcDbEntity
  8
LAYER_01
100
AcDbCircle
370
-1
  6
BYLAYER
 10
66.5157840848193
 20
1197.4587081799
 30
0
 40
9.80300915996825
  0
POLYLINE
  5
6E5
100
AcDbEntity
  8
LAYER_01
100
AcDb3dPolyline
370
-1
  6
BYLAYER
 66
1
 10
0
 20
0
 30
0
 70
0
 40
0
 41
0
  0
VERTEX
  5
E6A
100
AcDbEntity
  8
LAYER_01
100
AcDbVertex
  6
BYLAYER
100
AcDb3dPolylineVertex
 10
639.540947395252
 20
1127.66635147725
 30
9.07406638341596E-15
 70
0
  0
VERTEX
  5
E6B
100
AcDbEntity
  8
LAYER_01
100
AcDbVertex
  6
BYLAYER
100
AcDb3dPolylineVertex
 10
634.47842548413
 20
1123.56164353566
 30
9.08134966500015E-15
 70
0
  0
VERTEX
  5
E6C
100
AcDbEntity
  8
LAYER_01
100
AcDbVertex
  6
BYLAYER
100
AcDb3dPolylineVertex
 10
629.333647347249
 20
1119.55368583479
 30
9.08861874937103E-15
 70
0
  0
VERTEX
  5
E6D
100
AcDbEntity
  8
LAYER_01
100
AcDbVertex
  6
BYLAYER
100
AcDb3dPolylineVertex
 10
624.110369255842
 20
1115.64159714446
 30
9.09575992623583E-15
 70
0
  0
VERTEX
  5
E6E
100
AcDbEntity
  8
LAYER_01
100
AcDbVertex
  6
BYLAYER
100
AcDb3dPolylineVertex
 10
618.812347481138
 20
1111.82449623447
 30
9.10265948530178E-15
 70
0
  0
VERTEX
  5
E6F
100
AcDbEntity
  8
LAYER_01
100
AcDbVertex
  6
BYLAYER
100
AcDb3dPolylineVertex
 10
613.443338294369
 20
1108.10150187463
 30
9.10920371627611E-15
 70
0
  0
VERTEX
  5
E70
100
AcDbEntity
  8
LAYER_01
100
AcDbVertex
  6
BYLAYER
100
AcDb3dPolylineVertex
 10
608.007097966765
 20
1104.47173283476
 30
9.11527890886603E-15
 70
0
  0
VERTEX
  5
E71
100
AcDbEntity
  8
LAYER_01
100
AcDbVertex
  6
BYLAYER
100
AcDb3dPolylineVertex
 10
596.947948973976
 20
1097.48834579417
 30
9.12556733772157E-15
 70
0
  0
VERTEX
  5
E72
100
AcDbEntity
  8
LAYER_01
100
AcDbVertex
  6
BYLAYER
100
AcDb3dPolylineVertex
 10
585.664950672618
 20
1090.86728527119
 30
9.13261508952621E-15
 70
0
  0
VERTEX
  5
E73
100
AcDbEntity
  8
LAYER_01
100
AcDbVertex
  6
BYLAYER
100
AcDb3dPolylineVertex
 10
574.188153232537
 20
1084.60150142431
 30
9.13551248193776E-15
 70
0
  0
VERTEX
  5
E74
100
AcDbEntity
  8
LAYER_01
100
AcDbVertex
  6
BYLAYER
100
AcDb3dPolylineVertex
 10
562.547606823579
 20
1078.68394441202
 30
9.13334983261401E-15
 70
0
  0
VERTEX
  5
E75
100
AcDbEntity
  8
LAYER_01
100
AcDbVertex
  6
BYLAYER
100
AcDb3dPolylineVertex
 10
550.773361615592
 20
1073.10756439281
 30
9.12521745921277E-15
 70
0
  0
VERTEX
  5
E76
100
AcDbEntity
  8
LAYER_01
100
AcDbVertex
  6
BYLAYER
100
AcDb3dPolylineVertex
 10
541.134239233268
 20
1068.82540247268
 30
9.11379170010104E-15
 70
0
  0
VERTEX
  5
E77
100
AcDbEntity
  8
LAYER_01
100
AcDbVertex
  6
BYLAYER
100
AcDb3dPolylineVertex
 10
531.430170873802
 20
1064.75464938668
 30
9.0985136033521E-15
 70
0
  0
VERTEX
  5
E78
100
AcDbEntity
  8
LAYER_01
100
AcDbVertex
  6
BYLAYER
100
AcDb3dPolylineVertex
 10
521.664532010889
 20
1060.88646936043
 30
9.08006548876882E-15
 70
0
  0
VERTEX
  5
E79
100
AcDbEntity
  8
LAYER_01
100
AcDbVertex
  6
BYLAYER
100
AcDb3dPolylineVertex
 10
511.840698118222
 20
1057.21202661953
 30
9.05912967615408E-15
 70
0
  0
VERTEX
  5
E7A
100
AcDbEntity
  8
LAYER_01
100
AcDbVertex
  6
BYLAYER
100
AcDb3dPolylineVertex
 10
501.962044669497
 20
1053.7224853896
 30
9.03638848531077E-15
 70
0
  0
VERTEX
  5
E7B
100
AcDbEntity
  8
LAYER_01
100
AcDbVertex
  6
BYLAYER
100
AcDb3dPolylineVertex
 10
492.031947138406
 20
1050.40900989624
 30
9.01252423604175E-15
 70
0
  0
VERTEX
  5
E7C
100
AcDbEntity
  8
LAYER_01
100
AcDbVertex
  6
BYLAYER
100
AcDb3dPolylineVertex
 10
472.030921723907
 20
1044.27491302166
 30
8.96415584143814E-15
 70
0
  0
VERTEX
  5
E7D
100
AcDbEntity
  8
LAYER_01
100
AcDbVertex
  6
BYLAYER
100
AcDb3dPolylineVertex
 10
451.864625664277
 20
1038.73904980067
 30
8.9194830507663E-15
 70
0
  0
VERTEX
  5
E7E
100
AcDbEntity
  8
LAYER_01
100
AcDbVertex
  6
BYLAYER
100
AcDb3dPolylineVertex
 10
431.560062749072
 20
1033.73073403811
 30
8.88396442244924E-15
 70
0
  0
VERTEX
  5
E7F
100
AcDbEntity
  8
LAYER_01
100
AcDbVertex
  6
BYLAYER
100
AcDb3dPolylineVertex
 10
411.144236767843
 20
1029.17927953886
 30
8.86305851491002E-15
 70
0
  0
VERTEX
  5
E80
100
AcDbEntity
  8
LAYER_01
100
AcDbVertex
  6
BYLAYER
100
AcDb3dPolylineVertex
 10
390.644151510145
 20
1025.01400010777
 30
8.86222388657167E-15
 70
0
  0
VERTEX
  5
E81
100
AcDbEntity
  8
LAYER_01
100
AcDbVertex
  6
BYLAYER
100
AcDb3dPolylineVertex
 10
365.44611390822
 20
1020.36280292222
 30
8.89183005913768E-15
 70
0
  0
VERTEX
  5
E82
100
AcDbEntity
  8
LAYER_01
100
AcDbVertex
  6
BYLAYER
100
AcDb3dPolylineVertex
 10
340.166408381548
 20
1016.22918670758
 30
8.94142678307587E-15
 70
0
  0
VERTEX
  5
E83
100
AcDbEntity
  8
LAYER_01
100
AcDbVertex
  6
BYLAYER
100
AcDb3dPolylineVertex
 10
314.809303742685
 20
1012.65720429164
 30
8.99268599493983E-15
 70
0
  0
VERTEX
  5
E84
100
AcDbEntity
  8
LAYER_01
100
AcDbVertex
  6
BYLAYER
100
AcDb3dPolylineVertex
 10
289.379068804193
 20
1009.69090850214
 30
9.02727963128316E-15
 70
0
  0
VERTEX
  5
E85
100
AcDbEntity
  8
LAYER_01
100
AcDbVertex
  6
BYLAYER
100
AcDb3dPolylineVertex
 10
262.284084449154
 20
1007.24641451531
 30
9.03119901078084E-15
 70
0
  0
VERTEX
  5
E86
100
AcDbEntity
  8
LAYER_01
100
AcDbVertex
  6
BYLAYER
100
AcDb3dPolylineVertex
 10
235.125829974632
 20
1005.55466863953
 30
9.00917967242997E-15
 70
0
  0
VERTEX
  5
E87
100
AcDbEntity
  8
LAYER_01
100
AcDbVertex
  6
BYLAYER
100
AcDb3dPolylineVertex
 10
207.918782391019
 20
1004.63483944988
 30
8.97479199278686E-15
 70
0
  0
VERTEX
  5
E88
100
AcDbEntity
  8
LAYER_01
100
AcDbVertex
  6
BYLAYER
100
AcDb3dPolylineVertex
 10
180.677418708707
 20
1004.50609552145
 30
8.94160634840783E-15
 70
0
  0
VERTEX
  5
E89
100
AcDbEntity
  8
LAYER_01
100
AcDbVertex
  6
BYLAYER
100
AcDb3dPolylineVertex
 10
90.1972477793919
 20
1006.4987508634
 30
8.90613973195935E-15
 70
0
  0
VERTEX
  5
E8A
100
AcDbEntity
  8
LAYER_01
100
AcDbVertex
  6
BYLAYER
100
AcDb3dPolylineVertex
 10
77.3331256559875
 20
1006.32750003824
 30
8.90607032566493E-15
 70
0
  0
VERTEX
  5
E8B
100
AcDbEntity
  8
LAYER_01
100
AcDbVertex
  6
BYLAYER
100
AcDb3dPolylineVertex
 10
64.9222999906891
 20
1005.86638549654
 30
7.79281153495681E-15
 70
0
  0
VERTEX
  5
E8C
100
AcDbEntity
  8
LAYER_01
100
AcDbVertex
  6
BYLAYER
100
AcDb3dPolylineVertex
 10
58.7150961745014
 20
1005.4814548825
 30
5.14882190702504E-15
 70
0
  0
VERTEX
  5
E8D
100
AcDbEntity
  8
LAYER_01
100
AcDbVertex
  6
BYLAYER
100
AcDb3dPolylineVertex
 10
52.5006395890789
 20
1004.96580274569
 30
9.07406638341596E-15
 42
-0.855644413302092
 70
0
  0
VERTEX
  5
E8E
100
AcDbEntity
  8
LAYER_01
100
AcDbVertex
  6
BYLAYER
100
AcDb3dPolylineVertex
 10
47.5976540520059
 20
1101.84214511176
 30
9.07406638341596E-15
 70
0
  0
VERTEX
  5
E8F
100
AcDbEntity
  8
LAYER_01
100
AcDbVertex
  6
BYLAYER
100
AcDb3dPolylineVertex
 10
108.709605825728
 20
1096.10640274703
 30
9.05281036651371E-15
 70
0
  0
VERTEX
  5
E90
100
AcDbEntity
  8
LAYER_01
100
AcDbVertex
  6
BYLAYER
100
AcDb3dPolylineVertex
 10
181.213081214191
 20
1087.9804217536
 30
9.00715276588136E-15
 70
0
  0
VERTEX
  5
E91
100
AcDbEntity
  8
LAYER_01
100
AcDbVertex
  6
BYLAYER
100
AcDb3dPolylineVertex
 10
196.504565681562
 20
1086.63787108483
 30
9.03782780987839E-15
 70
0
  0
VERTEX
  5
E92
100
AcDbEntity
  8
LAYER_01
100
AcDbVertex
  6
BYLAYER
100
AcDb3dPolylineVertex
 10
204.157783410942
 20
1086.14283574103
 30
9.05040677965416E-15
 70
0
  0
VERTEX
  5
E93
100
AcDbEntity
  8
LAYER_01
100
AcDbVertex
  6
BYLAYER
100
AcDb3dPolylineVertex
 10
211.816680446568
 20
1085.79657220971
 30
9.05856260700595E-15
 70
0
  0
VERTEX
  5
E94
100
AcDbEntity
  8
LAYER_01
100
AcDbVertex
  6
BYLAYER
100
AcDb3dPolylineVertex
 10
219.640358277724
 20
1085.61416112125
 30
9.0608634921521E-15
 70
0
  0
VERTEX
  5
E95
100
AcDbEntity
  8
LAYER_01
100
AcDbVertex
  6
BYLAYER
100
AcDb3dPolylineVertex
 10
227.46884331021
 20
1085.59558213078
 30
9.05777671953155E-15
 70
0
  0
VERTEX
  5
E96
100
AcDbEntity
  8
LAYER_01
100
AcDbVertex
  6
BYLAYER
100
AcDb3dPolylineVertex
 10
243.133620718175
 20
1085.98747082238
 30
9.04040021362897E-15
 70
0
  0
VERTEX
  5
E97
100
AcDbEntity
  8
LAYER_01
100
AcDbVertex
  6
BYLAYER
100
AcDb3dPolylineVertex
 10
258.797784148475
 20
1086.84733904165
 30
9.01635311457538E-15
 70
0
  0
VERTEX
  5
E98
100
AcDbEntity
  8
LAYER_01
100
AcDbVertex
  6
BYLAYER
100
AcDb3dPolylineVertex
 10
274.448105079125
 20
1088.05028754572
 30
8.99555544764795E-15
 70
0
  0
VERTEX
  5
E99
100
AcDbEntity
  8
LAYER_01
100
AcDbVertex
  6
BYLAYER
100
AcDb3dPolylineVertex
 10
305.140910675163
 20
1091.09676402222
 30
8.98461847004783E-15
 70
0
  0
VERTEX
  5
E9A
100
AcDbEntity
  8
LAYER_01
100
AcDbVertex
  6
BYLAYER
100
AcDb3dPolylineVertex
 10
335.711835588869
 20
1095.01204304277
 30
8.99341326668128E-15
 70
0
  0
VERTEX
  5
E9B
100
AcDbEntity
  8
LAYER_01
100
AcDbVertex
  6
BYLAYER
100
AcDb3dPolylineVertex
 10
366.143644745285
 20
1099.82152759457
 30
8.99076382236736E-15
 70
0
  0
VERTEX
  5
E9C
100
AcDbEntity
  8
LAYER_01
100
AcDbVertex
  6
BYLAYER
100
AcDb3dPolylineVertex
 10
396.419103069458
 20
1105.55062066483
 30
8.94549412192514E-15
 70
0
  0
VERTEX
  5
E9D
100
AcDbEntity
  8
LAYER_01
100
AcDbVertex
  6
BYLAYER
100
AcDb3dPolylineVertex
 10
421.992163688835
 20
1111.18419830306
 30
8.86077535125243E-15
 70
0
  0
VERTEX
  5
E9E
100
AcDbEntity
  8
LAYER_01
100
AcDbVertex
  6
BYLAYER
100
AcDb3dPolylineVertex
 10
434.708003795873
 20
1114.30883533197
 30
8.81213046638297E-15
 70
0
  0
VERTEX
  5
E9F
100
AcDbEntity
  8
LAYER_01
100
AcDbVertex
  6
BYLAYER
100
AcDb3dPolylineVertex
 10
447.364070559047
 20
1117.66648992239
 30
8.76659452733631E-15
 70
0
  0
VERTEX
  5
EA0
100
AcDbEntity
  8
LAYER_01
100
AcDbVertex
  6
BYLAYER
100
AcDb3dPolylineVertex
 10
459.950879071782
 20
1121.27800114054
 30
8.72964199324609E-15
 70
0
  0
VERTEX
  5
EA1
100
AcDbEntity
  8
LAYER_01
100
AcDbVertex
  6
BYLAYER
100
AcDb3dPolylineVertex
 10
472.458944427505
 20
1125.16420805265
 30
8.70674732324598E-15
 70
0
  0
VERTEX
  5
EA2
100
AcDbEntity
  8
LAYER_01
100
AcDbVertex
  6
BYLAYER
100
AcDb3dPolylineVertex
 10
484.878781719642
 20
1129.34594972495
 30
8.70338497646962E-15
 70
0
  0
VERTEX
  5
EA3
100
AcDbEntity
  8
LAYER_01
100
AcDbVertex
  6
BYLAYER
100
AcDb3dPolylineVertex
 10
497.20090604162
 20
1133.84406522367
 30
8.72502941205067E-15
 70
0
  0
VERTEX
  5
EA4
100
AcDbEntity
  8
LAYER_01
100
AcDbVertex
  6
BYLAYER
100
AcDb3dPolylineVertex
 10
506.115953106294
 20
1137.33629927795
 30
8.75851142284933E-15
 70
0
  0
VERTEX
  5
EA5
100
AcDbEntity
  8
LAYER_01
100
AcDbVertex
  6
BYLAYER
100
AcDb3dPolylineVertex
 10
514.956204121343
 20
1141.02268804333
 30
8.8031033883997E-15
 70
0
  0
VERTEX
  5
EA6
100
AcDbEntity
  8
LAYER_01
100
AcDbVertex
  6
BYLAYER
100
AcDb3dPolylineVertex
 10
523.703852794814
 20
1144.91811326749
 30
8.8537104782564E-15
 70
0
  0
VERTEX
  5
EA7
100
AcDbEntity
  8
LAYER_01
100
AcDbVertex
  6
BYLAYER
100
AcDb3dPolylineVertex
 10
532.341092834751
 20
1149.03745669808
 30
8.90523786197408E-15
 70
0
  0
VERTEX
  5
EA8
100
AcDbEntity
  8
LAYER_01
100
AcDbVertex
  6
BYLAYER
100
AcDb3dPolylineVertex
 10
540.8501179492
 20
1153.3956000828
 30
8.95259070910737E-15
 70
0
  0
VERTEX
  5
EA9
100
AcDbEntity
  8
LAYER_01
100
AcDbVertex
  6
BYLAYER
100
AcDb3dPolylineVertex
 10
549.213121846207
 20
1158.0074251693
 30
8.99067418921092E-15
 70
0
  0
VERTEX
  5
EAA
100
AcDbEntity
  8
LAYER_01
100
AcDbVertex
  6
BYLAYER
100
AcDb3dPolylineVertex
 10
557.412298233818
 20
1162.88781370527
 30
9.01439347183935E-15
 70
0
  0
VERTEX
  5
EAB
100
AcDbEntity
  8
LAYER_01
100
AcDbVertex
  6
BYLAYER
100
AcDb3dPolylineVertex
 10
561.444886645363
 20
1165.43336981295
 30
9.01927440458622E-15
 70
0
  0
VERTEX
  5
EAC
100
AcDbEntity
  8
LAYER_01
100
AcDbVertex
  6
BYLAYER
100
AcDb3dPolylineVertex
 10
565.429840820076
 20
1168.05164743837
 30
9.0186537265473E-15
 70
0
  0
VERTEX
  5
EAD
100
AcDbEntity
  8
LAYER_01
100
AcDbVertex
  6
BYLAYER
100
AcDb3dPolylineVertex
 10
571.268692685453
 20
1172.08673899116
 30
9.00736486969929E-15
 70
0
  0
VERTEX
  5
EAE
100
AcDbEntity
  8
LAYER_01
100
AcDbVertex
  6
BYLAYER
100
AcDb3dPolylineVertex
 10
576.992117393517
 20
1176.28833875858
 30
8.98754866644714E-15
 70
0
  0
VERTEX
  5
EAF
100
AcDbEntity
  8
LAYER_01
100
AcDbVertex
  6
BYLAYER
100
AcDb3dPolylineVertex
 10
582.595154154239
 20
1180.6577168965
 30
8.96427772158815E-15
 70
0
  0
VERTEX
  5
EB0
100
AcDbEntity
  8
LAYER_01
100
AcDbVertex
  6
BYLAYER
100
AcDb3dPolylineVertex
 10
588.072842177594
 20
1185.19614356079
 30
8.94262463991961E-15
 42
-0.916940554886291
 70
0
  0
VERTEX
  5
EB1
100
AcDbEntity
  8
LAYER_01
100
AcDbVertex
  6
BYLAYER
100
AcDb3dPolylineVertex
 10
639.540947395252
 20
1127.66635147725
 30
-8.97048776976424E-16
 70
0
  0
SEQEND
  5
EB2
100
AcDbEntity
  8
0
  0
CIRCLE
  5
72F
100
AcDbEntity
  8
LAYER_01
100
AcDbCircle
370
-1
  6
BYLAYER
 10
86.967537149033
 20
1054.32303198795
 30
0
 40
9.80300915996828
  0
CIRCLE
  5
730
100
AcDbEntity
  8
LAYER_01
100
AcDbCircle
370
-1
  6
BYLAYER
 10
609.531589248711
 20
1153.01158556253
 30
0
 40
8.4266029043742
  0
POLYLINE
  5
731
100
AcDbEntity
  8
LAYER_01
100
AcDb3dPolyline
370
-1
  6
BYLAYER
 66
1
 10
0
 20
0
 30
0
 70
0
 40
0
 41
0
  0
VERTEX
  5
EB3
100
AcDbEntity
  8
LAYER_01
100
AcDbVertex
  6
BYLAYER
100
AcDb3dPolylineVertex
 10
661.259648821785
 20
971.724619847289
 30
9.07406638341596E-15
 70
0
  0
VERTEX
  5
EB4
100
AcDbEntity
  8
LAYER_01
100
AcDbVertex
  6
BYLAYER
100
AcDb3dPolylineVertex
 10
656.197126910663
 20
967.619911905701
 30
9.08134966500015E-15
 70
0
  0
VERTEX
  5
EB5
100
AcDbEntity
  8
LAYER_01
100
AcDbVertex
  6
BYLAYER
100
AcDb3dPolylineVertex
 10
651.052348773782
 20
963.611954204834
 30
9.08861874937103E-15
 70
0
  0
VERTEX
  5
EB6
100
AcDbEntity
  8
LAYER_01
100
AcDbVertex
  6
BYLAYER
100
AcDb3dPolylineVertex
 10
645.829070682375
 20
959.699865514499
 30
9.09575992623583E-15
 70
0
  0
VERTEX
  5
EB7
100
AcDbEntity
  8
LAYER_01
100
AcDbVertex
  6
BYLAYER
100
AcDb3dPolylineVertex
 10
640.531048907671
 20
955.882764604509
 30
9.10265948530178E-15
 70
0
  0
VERTEX
  5
EB8
100
AcDbEntity
  8
LAYER_01
100
AcDbVertex
  6
BYLAYER
100
AcDb3dPolylineVertex
 10
635.162039720902
 20
952.159770244674
 30
9.10920371627611E-15
 70
0
  0
VERTEX
  5
EB9
100
AcDbEntity
  8
LAYER_01
100
AcDbVertex
  6
BYLAYER
100
AcDb3dPolylineVertex
 10
629.725799393298
 20
948.530001204806
 30
9.11527890886603E-15
 70
0
  0
VERTEX
  5
EBA
100
AcDbEntity
  8
LAYER_01
100
AcDbVertex
  6
BYLAYER
100
AcDb3dPolylineVertex
 10
618.666650400509
 20
941.546614164217
 30
9.12556733772157E-15
 70
0
  0
VERTEX
  5
EBB
100
AcDbEntity
  8
LAYER_01
100
AcDbVertex
  6
BYLAYER
100
AcDb3dPolylineVertex
 10
607.38365209915
 20
934.925553641235
 30
9.13261508952621E-15
 70
0
  0
VERTEX
  5
EBC
100
AcDbEntity
  8
LAYER_01
100
AcDbVertex
  6
BYLAYER
100
AcDb3dPolylineVertex
 10
595.906854659069
 20
928.659769794353
 30
9.13551248193776E-15
 70
0
  0
VERTEX
  5
EBD
100
AcDbEntity
  8
LAYER_01
100
AcDbVertex
  6
BYLAYER
100
AcDb3dPolylineVertex
 10
584.266308250112
 20
922.742212782063
 30
9.13334983261401E-15
 70
0
  0
VERTEX
  5
EBE
100
AcDbEntity
  8
LAYER_01
100
AcDbVertex
  6
BYLAYER
100
AcDb3dPolylineVertex
 10
572.492063042125
 20
917.165832762858
 30
9.12521745921277E-15
 70
0
  0
VERTEX
  5
EBF
100
AcDbEntity
  8
LAYER_01
100
AcDbVertex
  6
BYLAYER
100
AcDb3dPolylineVertex
 10
562.852940659801
 20
912.883670842719
 30
9.11379170010104E-15
 70
0
  0
VERTEX
  5
EC0
100
AcDbEntity
  8
LAYER_01
100
AcDbVertex
  6
BYLAYER
100
AcDb3dPolylineVertex
 10
553.148872300335
 20
908.81291775672
 30
9.0985136033521E-15
 70
0
  0
VERTEX
  5
EC1
100
AcDbEntity
  8
LAYER_01
100
AcDbVertex
  6
BYLAYER
100
AcDb3dPolylineVertex
 10
543.383233437422
 20
904.944737730468
 30
9.08006548876882E-15
 70
0
  0
VERTEX
  5
EC2
100
AcDbEntity
  8
LAYER_01
100
AcDbVertex
  6
BYLAYER
100
AcDb3dPolylineVertex
 10
533.559399544755
 20
901.270294989573
 30
9.05912967615408E-15
 70
0
  0
VERTEX
  5
EC3
100
AcDbEntity
  8
LAYER_01
100
AcDbVertex
  6
BYLAYER
100
AcDb3dPolylineVertex
 10
523.68074609603
 20
897.780753759641
 30
9.03638848531077E-15
 70
0
  0
VERTEX
  5
EC4
100
AcDbEntity
  8
LAYER_01
100
AcDbVertex
  6
BYLAYER
100
AcDb3dPolylineVertex
 10
513.750648564939
 20
894.467278266281
 30
9.01252423604175E-15
 70
0
  0
VERTEX
  5
EC5
100
AcDbEntity
  8
LAYER_01
100
AcDbVertex
  6
BYLAYER
100
AcDb3dPolylineVertex
 10
493.749623150439
 20
888.333181391705
 30
8.96415584143814E-15
 70
0
  0
VERTEX
  5
EC6
100
AcDbEntity
  8
LAYER_01
100
AcDbVertex
  6
BYLAYER
100
AcDb3dPolylineVertex
 10
473.58332709081
 20
882.797318170708
 30
8.9194830507663E-15
 70
0
  0
VERTEX
  5
EC7
100
AcDbEntity
  8
LAYER_01
100
AcDbVertex
  6
BYLAYER
100
AcDb3dPolylineVertex
 10
453.278764175605
 20
877.789002408153
 30
8.88396442244924E-15
 70
0
  0
VERTEX
  5
EC8
100
AcDbEntity
  8
LAYER_01
100
AcDbVertex
  6
BYLAYER
100
AcDb3dPolylineVertex
 10
432.862938194376
 20
873.237547908901
 30
8.86305851491002E-15
 70
0
  0
VERTEX
  5
EC9
100
AcDbEntity
  8
LAYER_01
100
AcDbVertex
  6
BYLAYER
100
AcDb3dPolylineVertex
 10
412.362852936678
 20
869.072268477815
 30
8.86222388657167E-15
 70
0
  0
VERTEX
  5
ECA
100
AcDbEntity
  8
LAYER_01
100
AcDbVertex
  6
BYLAYER
100
AcDb3dPolylineVertex
 10
387.164815334753
 20
864.421071292261
 30
8.89183005913768E-15
 70
0
  0
VERTEX
  5
ECB
100
AcDbEntity
  8
LAYER_01
100
AcDbVertex
  6
BYLAYER
100
AcDb3dPolylineVertex
 10
361.885109808081
 20
860.287455077628
 30
8.94142678307587E-15
 70
0
  0
VERTEX
  5
ECC
100
AcDbEntity
  8
LAYER_01
100
AcDbVertex
  6
BYLAYER
100
AcDb3dPolylineVertex
 10
336.528005169218
 20
856.715472661682
 30
8.99268599493983E-15
 70
0
  0
VERTEX
  5
ECD
100
AcDbEntity
  8
LAYER_01
100
AcDbVertex
  6
BYLAYER
100
AcDb3dPolylineVertex
 10
311.097770230726
 20
853.749176872188
 30
9.02727963128316E-15
 70
0
  0
VERTEX
  5
ECE
100
AcDbEntity
  8
LAYER_01
100
AcDbVertex
  6
BYLAYER
100
AcDb3dPolylineVertex
 10
284.002785875687
 20
851.304682885352
 30
9.03119901078084E-15
 70
0
  0
VERTEX
  5
ECF
100
AcDbEntity
  8
LAYER_01
100
AcDbVertex
  6
BYLAYER
100
AcDb3dPolylineVertex
 10
256.844531401165
 20
849.612937009568
 30
9.00917967242997E-15
 70
0
  0
VERTEX
  5
ED0
100
AcDbEntity
  8
LAYER_01
100
AcDbVertex
  6
BYLAYER
100
AcDb3dPolylineVertex
 10
229.637483817552
 20
848.69310781992
 30
8.97479199278686E-15
 70
0
  0
VERTEX
  5
ED1
100
AcDbEntity
  8
LAYER_01
100
AcDbVertex
  6
BYLAYER
100
AcDb3dPolylineVertex
 10
202.396120135239
 20
848.564363891493
 30
8.94160634840783E-15
 70
0
  0
VERTEX
  5
ED2
100
AcDbEntity
  8
LAYER_01
100
AcDbVertex
  6
BYLAYER
100
AcDb3dPolylineVertex
 10
111.915949205925
 20
850.557019233439
 30
2.93976840050804E-15
 70
0
  0
VERTEX
  5
ED3
100
AcDbEntity
  8
LAYER_01
100
AcDbVertex
  6
BYLAYER
100
AcDb3dPolylineVertex
 10
99.0518270825201
 20
850.385768408283
 30
9.07406638341596E-15
 42
-0.783495346203115
 70
0
  0
VERTEX
  5
ED4
100
AcDbEntity
  8
LAYER_01
100
AcDbVertex
  6
BYLAYER
100
AcDb3dPolylineVertex
 10
92.0393894315323
 20
944.015136902747
 30
9.07406638341596E-15
 70
0
  0
VERTEX
  5
ED5
100
AcDbEntity
  8
LAYER_01
100
AcDbVertex
  6
BYLAYER
100
AcDb3dPolylineVertex
 10
202.931782640724
 20
932.038690123648
 30
9.00715276588136E-15
 70
0
  0
VERTEX
  5
ED6
100
AcDbEntity
  8
LAYER_01
100
AcDbVertex
  6
BYLAYER
100
AcDb3dPolylineVertex
 10
218.223267108095
 20
930.696139454878
 30
9.03782780987839E-15
 70
0
  0
VERTEX
  5
ED7
100
AcDbEntity
  8
LAYER_01
100
AcDbVertex
  6
BYLAYER
100
AcDb3dPolylineVertex
 10
225.876484837475
 20
930.201104111072
 30
9.05040677965416E-15
 70
0
  0
VERTEX
  5
ED8
100
AcDbEntity
  8
LAYER_01
100
AcDbVertex
  6
BYLAYER
100
AcDb3dPolylineVertex
 10
233.535381873101
 20
929.85484057975
 30
9.05856260700595E-15
 70
0
  0
VERTEX
  5
ED9
100
AcDbEntity
  8
LAYER_01
100
AcDbVertex
  6
BYLAYER
100
AcDb3dPolylineVertex
 10
241.359059704257
 20
929.672429491294
 30
9.0608634921521E-15
 70
0
  0
VERTEX
  5
EDA
100
AcDbEntity
  8
LAYER_01
100
AcDbVertex
  6
BYLAYER
100
AcDb3dPolylineVertex
 10
249.187544736743
 20
929.653850500827
 30
9.05777671953155E-15
 70
0
  0
VERTEX
  5
EDB
100
AcDbEntity
  8
LAYER_01
100
AcDbVertex
  6
BYLAYER
100
AcDb3dPolylineVertex
 10
264.852322144707
 20
930.045739192427
 30
9.04040021362897E-15
 70
0
  0
VERTEX
  5
EDC
100
AcDbEntity
  8
LAYER_01
100
AcDbVertex
  6
BYLAYER
100
AcDb3dPolylineVertex
 10
280.516485575008
 20
930.905607411692
 30
9.01635311457538E-15
 70
0
  0
VERTEX
  5
EDD
100
AcDbEntity
  8
LAYER_01
100
AcDbVertex
  6
BYLAYER
100
AcDb3dPolylineVertex
 10
296.166806505657
 20
932.108555915763
 30
8.99555544764796E-15
 70
0
  0
VERTEX
  5
EDE
100
AcDbEntity
  8
LAYER_01
100
AcDbVertex
  6
BYLAYER
100
AcDb3dPolylineVertex
 10
326.859612101696
 20
935.155032392266
 30
8.98461847004783E-15
 70
0
  0
VERTEX
  5
EDF
100
AcDbEntity
  8
LAYER_01
100
AcDbVertex
  6
BYLAYER
100
AcDb3dPolylineVertex
 10
357.430537015401
 20
939.070311412812
 30
8.99341326668128E-15
 70
0
  0
VERTEX
  5
EE0
100
AcDbEntity
  8
LAYER_01
100
AcDbVertex
  6
BYLAYER
100
AcDb3dPolylineVertex
 10
387.862346171818
 20
943.879795964611
 30
8.99076382236736E-15
 70
0
  0
VERTEX
  5
EE1
100
AcDbEntity
  8
LAYER_01
100
AcDbVertex
  6
BYLAYER
100
AcDb3dPolylineVertex
 10
418.137804495992
 20
949.608889034878
 30
8.94549412192514E-15
 70
0
  0
VERTEX
  5
EE2
100
AcDbEntity
  8
LAYER_01
100
AcDbVertex
  6
BYLAYER
100
AcDb3dPolylineVertex
 10
443.710865115368
 20
955.242466673102
 30
8.86077535125243E-15
 70
0
  0
VERTEX
  5
EE3
100
AcDbEntity
  8
LAYER_01
100
AcDbVertex
  6
BYLAYER
100
AcDb3dPolylineVertex
 10
456.426705222406
 20
958.367103702015
 30
8.81213046638296E-15
 70
0
  0
VERTEX
  5
EE4
100
AcDbEntity
  8
LAYER_01
100
AcDbVertex
  6
BYLAYER
100
AcDb3dPolylineVertex
 10
469.08277198558
 20
961.724758292432
 30
8.7665945273363E-15
 70
0
  0
VERTEX
  5
EE5
100
AcDbEntity
  8
LAYER_01
100
AcDbVertex
  6
BYLAYER
100
AcDb3dPolylineVertex
 10
481.669580498315
 20
965.336269510582
 30
8.72964199324609E-15
 70
0
  0
VERTEX
  5
EE6
100
AcDbEntity
  8
LAYER_01
100
AcDbVertex
  6
BYLAYER
100
AcDb3dPolylineVertex
 10
494.177645854038
 20
969.222476422694
 30
8.70674732324598E-15
 70
0
  0
VERTEX
  5
EE7
100
AcDbEntity
  8
LAYER_01
100
AcDbVertex
  6
BYLAYER
100
AcDb3dPolylineVertex
 10
506.597483146176
 20
973.404218094996
 30
8.70338497646962E-15
 70
0
  0
VERTEX
  5
EE8
100
AcDbEntity
  8
LAYER_01
100
AcDbVertex
  6
BYLAYER
100
AcDb3dPolylineVertex
 10
518.919607468153
 20
977.902333593716
 30
8.72502941205067E-15
 70
0
  0
VERTEX
  5
EE9
100
AcDbEntity
  8
LAYER_01
100
AcDbVertex
  6
BYLAYER
100
AcDb3dPolylineVertex
 10
527.834654532827
 20
981.394567647998
 30
8.75851142284933E-15
 70
0
  0
VERTEX
  5
EEA
100
AcDbEntity
  8
LAYER_01
100
AcDbVertex
  6
BYLAYER
100
AcDb3dPolylineVertex
 10
536.674905547876
 20
985.080956413378
 30
8.8031033883997E-15
 70
0
  0
VERTEX
  5
EEB
100
AcDbEntity
  8
LAYER_01
100
AcDbVertex
  6
BYLAYER
100
AcDb3dPolylineVertex
 10
545.422554221347
 20
988.97638163753
 30
8.8537104782564E-15
 70
0
  0
VERTEX
  5
EEC
100
AcDbEntity
  8
LAYER_01
100
AcDbVertex
  6
BYLAYER
100
AcDb3dPolylineVertex
 10
554.059794261284
 20
993.095725068128
 30
8.90523786197408E-15
 70
0
  0
VERTEX
  5
EED
100
AcDbEntity
  8
LAYER_01
100
AcDbVertex
  6
BYLAYER
100
AcDb3dPolylineVertex
 10
562.568819375733
 20
997.453868452842
 30
8.95259070910737E-15
 70
0
  0
VERTEX
  5
EEE
100
AcDbEntity
  8
LAYER_01
100
AcDbVertex
  6
BYLAYER
100
AcDb3dPolylineVertex
 10
570.93182327274
 20
1002.06569353935
 30
8.99067418921092E-15
 70
0
  0
VERTEX
  5
EEF
100
AcDbEntity
  8
LAYER_01
100
AcDbVertex
  6
BYLAYER
100
AcDb3dPolylineVertex
 10
579.13099966035
 20
1006.94608207531
 30
9.01439347183935E-15
 70
0
  0
VERTEX
  5
EF0
100
AcDbEntity
  8
LAYER_01
100
AcDbVertex
  6
BYLAYER
100
AcDb3dPolylineVertex
 10
583.163588071896
 20
1009.49163818299
 30
9.01927440458622E-15
 70
0
  0
VERTEX
  5
EF1
100
AcDbEntity
  8
LAYER_01
100
AcDbVertex
  6
BYLAYER
100
AcDb3dPolylineVertex
 10
587.148542246609
 20
1012.10991580842
 30
9.0186537265473E-15
 70
0
  0
VERTEX
  5
EF2
100
AcDbEntity
  8
LAYER_01
100
AcDbVertex
  6
BYLAYER
100
AcDb3dPolylineVertex
 10
592.987394111986
 20
1016.14500736121
 30
9.00736486969929E-15
 70
0
  0
VERTEX
  5
EF3
100
AcDbEntity
  8
LAYER_01
100
AcDbVertex
  6
BYLAYER
100
AcDb3dPolylineVertex
 10
598.710818820049
 20
1020.34660712863
 30
8.98754866644715E-15
 70
0
  0
VERTEX
  5
EF4
100
AcDbEntity
  8
LAYER_01
100
AcDbVertex
  6
BYLAYER
100
AcDb3dPolylineVertex
 10
604.313855580772
 20
1024.71598526655
 30
8.96427772158815E-15
 70
0
  0
VERTEX
  5
EF5
100
AcDbEntity
  8
LAYER_01
100
AcDbVertex
  6
BYLAYER
100
AcDb3dPolylineVertex
 10
609.791543604127
 20
1029.25441193084
 30
8.9426246399196E-15
 42
-0.916940554886318
 70
0
  0
VERTEX
  5
EF6
100
AcDbEntity
  8
LAYER_01
100
AcDbVertex
  6
BYLAYER
100
AcDb3dPolylineVertex
 10
661.259648821784
 20
971.724619847289
 30
-8.97048776976294E-16
 70
0
  0
SEQEND
  5
EF7
100
AcDbEntity
  8
0
  0
CIRCLE
  5
777
100
AcDbEntity
  8
LAYER_01
100
AcDbCircle
370
-1
  6
BYLAYER
 10
631.250290675244
 20
997.069853932573
 30
0
 40
8.42660290437433
  0
CIRCLE
  5
778
100
AcDbEntity
  8
LAYER_01
100
AcDbCircle
370
-1
  6
BYLAYER
 10
108.686238575566
 20
898.381300357995
 30
0
 40
9.80300915996833
  0
POLYLINE
  5
779
100
AcDbEntity
  8
LAYER_01
100
AcDb3dPolyline
370
-1
  6
BYLAYER
 66
1
 10
0
 20
0
 30
0
 70
0
 40
0
 41
0
  0
VERTEX
  5
EF8
100
AcDbEntity
  8
LAYER_01
100
AcDbVertex
  6
BYLAYER
100
AcDb3dPolylineVertex
 10
691.295318608463
 20
806.342449628292
 30
9.07406638341596E-15
 70
0
  0
VERTEX
  5
EF9
100
AcDbEntity
  8
LAYER_01
100
AcDbVertex
  6
BYLAYER
100
AcDb3dPolylineVertex
 10
686.232796697341
 20
802.237741686704
 30
9.08134966500015E-15
 70
0
  0
VERTEX
  5
EFA
100
AcDbEntity
  8
LAYER_01
100
AcDbVertex
  6
BYLAYER
100
AcDb3dPolylineVertex
 10
681.088018560461
 20
798.229783985837
 30
9.08861874937103E-15
 70
0
  0
VERTEX
  5
EFB
100
AcDbEntity
  8
LAYER_01
100
AcDbVertex
  6
BYLAYER
100
AcDb3dPolylineVertex
 10
675.864740469053
 20
794.317695295503
 30
9.09575992623583E-15
 70
0
  0
VERTEX
  5
EFC
100
AcDbEntity
  8
LAYER_01
100
AcDbVertex
  6
BYLAYER
100
AcDb3dPolylineVertex
 10
670.566718694349
 20
790.500594385512
 30
9.10265948530179E-15
 70
0
  0
VERTEX
  5
EFD
100
AcDbEntity
  8
LAYER_01
100
AcDbVertex
  6
BYLAYER
100
AcDb3dPolylineVertex
 10
665.19770950758
 20
786.777600025677
 30
9.10920371627611E-15
 70
0
  0
VERTEX
  5
EFE
100
AcDbEntity
  8
LAYER_01
100
AcDbVertex
  6
BYLAYER
100
AcDb3dPolylineVertex
 10
659.761469179976
 20
783.147830985809
 30
9.11527890886603E-15
 70
0
  0
VERTEX
  5
EFF
100
AcDbEntity
  8
LAYER_01
100
AcDbVertex
  6
BYLAYER
100
AcDb3dPolylineVertex
 10
648.702320187187
 20
776.16444394522
 30
9.12556733772158E-15
 70
0
  0
VERTEX
  5
F00
100
AcDbEntity
  8
LAYER_01
100
AcDbVertex
  6
BYLAYER
100
AcDb3dPolylineVertex
 10
637.419321885829
 20
769.543383422238
 30
9.13261508952622E-15
 70
0
  0
VERTEX
  5
F01
100
AcDbEntity
  8
LAYER_01
100
AcDbVertex
  6
BYLAYER
100
AcDb3dPolylineVertex
 10
625.942524445748
 20
763.277599575356
 30
9.13551248193776E-15
 70
0
  0
VERTEX
  5
F02
100
AcDbEntity
  8
LAYER_01
100
AcDbVertex
  6
BYLAYER
100
AcDb3dPolylineVertex
 10
614.301978036791
 20
757.360042563066
 30
9.13334983261401E-15
 70
0
  0
VERTEX
  5
F03
100
AcDbEntity
  8
LAYER_01
100
AcDbVertex
  6
BYLAYER
100
AcDb3dPolylineVertex
 10
602.527732828803
 20
751.783662543861
 30
9.12521745921277E-15
 70
0
  0
VERTEX
  5
F04
100
AcDbEntity
  8
LAYER_01
100
AcDbVertex
  6
BYLAYER
100
AcDb3dPolylineVertex
 10
592.888610446479
 20
747.501500623722
 30
9.11379170010104E-15
 70
0
  0
VERTEX
  5
F05
100
AcDbEntity
  8
LAYER_01
100
AcDbVertex
  6
BYLAYER
100
AcDb3dPolylineVertex
 10
583.184542087014
 20
743.430747537723
 30
9.0985136033521E-15
 70
0
  0
VERTEX
  5
F06
100
AcDbEntity
  8
LAYER_01
100
AcDbVertex
  6
BYLAYER
100
AcDb3dPolylineVertex
 10
573.4189032241
 20
739.562567511472
 30
9.08006548876882E-15
 70
0
  0
VERTEX
  5
F07
100
AcDbEntity
  8
LAYER_01
100
AcDbVertex
  6
BYLAYER
100
AcDb3dPolylineVertex
 10
563.595069331434
 20
735.888124770576
 30
9.05912967615408E-15
 70
0
  0
VERTEX
  5
F08
100
AcDbEntity
  8
LAYER_01
100
AcDbVertex
  6
BYLAYER
100
AcDb3dPolylineVertex
 10
553.716415882708
 20
732.398583540644
 30
9.03638848531077E-15
 70
0
  0
VERTEX
  5
F09
100
AcDbEntity
  8
LAYER_01
100
AcDbVertex
  6
BYLAYER
100
AcDb3dPolylineVertex
 10
543.786318351617
 20
729.085108047284
 30
9.01252423604175E-15
 70
0
  0
VERTEX
  5
F0A
100
AcDbEntity
  8
LAYER_01
100
AcDbVertex
  6
BYLAYER
100
AcDb3dPolylineVertex
 10
523.785292937118
 20
722.951011172708
 30
8.96415584143814E-15
 70
0
  0
VERTEX
  5
F0B
100
AcDbEntity
  8
LAYER_01
100
AcDbVertex
  6
BYLAYER
100
AcDb3dPolylineVertex
 10
503.618996877489
 20
717.415147951712
 30
8.9194830507663E-15
 70
0
  0
VERTEX
  5
F0C
100
AcDbEntity
  8
LAYER_01
100
AcDbVertex
  6
BYLAYER
100
AcDb3dPolylineVertex
 10
483.314433962283
 20
712.406832189156
 30
8.88396442244924E-15
 70
0
  0
VERTEX
  5
F0D
100
AcDbEntity
  8
LAYER_01
100
AcDbVertex
  6
BYLAYER
100
AcDb3dPolylineVertex
 10
462.898607981054
 20
707.855377689904
 30
8.86305851491002E-15
 70
0
  0
VERTEX
  5
F0E
100
AcDbEntity
  8
LAYER_01
100
AcDbVertex
  6
BYLAYER
100
AcDb3dPolylineVertex
 10
442.398522723356
 20
703.690098258819
 30
8.86222388657167E-15
 70
0
  0
VERTEX
  5
F0F
100
AcDbEntity
  8
LAYER_01
100
AcDbVertex
  6
BYLAYER
100
AcDb3dPolylineVertex
 10
417.200485121432
 20
699.038901073265
 30
8.89183005913768E-15
 70
0
  0
VERTEX
  5
F10
100
AcDbEntity
  8
LAYER_01
100
AcDbVertex
  6
BYLAYER
100
AcDb3dPolylineVertex
 10
391.920779594759
 20
694.905284858632
 30
8.94142678307587E-15
 70
0
  0
VERTEX
  5
F11
100
AcDbEntity
  8
LAYER_01
100
AcDbVertex
  6
BYLAYER
100
AcDb3dPolylineVertex
 10
366.563674955897
 20
691.333302442685
 30
8.99268599493983E-15
 70
0
  0
VERTEX
  5
F12
100
AcDbEntity
  8
LAYER_01
100
AcDbVertex
  6
BYLAYER
100
AcDb3dPolylineVertex
 10
341.133440017404
 20
688.367006653191
 30
9.02727963128316E-15
 70
0
  0
VERTEX
  5
F13
100
AcDbEntity
  8
LAYER_01
100
AcDbVertex
  6
BYLAYER
100
AcDb3dPolylineVertex
 10
314.038455662365
 20
685.922512666355
 30
9.03119901078084E-15
 70
0
  0
VERTEX
  5
F14
100
AcDbEntity
  8
LAYER_01
100
AcDbVertex
  6
BYLAYER
100
AcDb3dPolylineVertex
 10
286.880201187843
 20
684.230766790572
 30
9.00917967242997E-15
 70
0
  0
VERTEX
  5
F15
100
AcDbEntity
  8
LAYER_01
100
AcDbVertex
  6
BYLAYER
100
AcDb3dPolylineVertex
 10
259.67315360423
 20
683.310937600924
 30
8.97479199278686E-15
 70
0
  0
VERTEX
  5
F16
100
AcDbEntity
  8
LAYER_01
100
AcDbVertex
  6
BYLAYER
100
AcDb3dPolylineVertex
 10
232.431789921918
 20
683.182193672496
 30
8.94160634840783E-15
 70
0
  0
VERTEX
  5
F17
100
AcDbEntity
  8
LAYER_01
100
AcDbVertex
  6
BYLAYER
100
AcDb3dPolylineVertex
 10
161.078578547839
 20
685.01789963864
 30
8.90713358722286E-15
 70
0
  0
VERTEX
  5
F18
100
AcDbEntity
  8
LAYER_01
100
AcDbVertex
  6
BYLAYER
100
AcDb3dPolylineVertex
 10
137.37925986399
 20
685.143732764355
 30
8.90608893160147E-15
 42
-0.794186091926572
 70
0
  0
VERTEX
  5
F19
100
AcDbEntity
  8
LAYER_01
100
AcDbVertex
  6
BYLAYER
100
AcDb3dPolylineVertex
 10
134.91343028134
 20
777.417334687297
 30
9.02710915379106E-15
 70
0
  0
VERTEX
  5
F1A
100
AcDbEntity
  8
LAYER_01
100
AcDbVertex
  6
BYLAYER
100
AcDb3dPolylineVertex
 10
232.967452427403
 20
766.656519904651
 30
9.00715276588137E-15
 70
0
  0
VERTEX
  5
F1B
100
AcDbEntity
  8
LAYER_01
100
AcDbVertex
  6
BYLAYER
100
AcDb3dPolylineVertex
 10
248.258936894774
 20
765.313969235881
 30
9.03782780987839E-15
 70
0
  0
VERTEX
  5
F1C
100
AcDbEntity
  8
LAYER_01
100
AcDbVertex
  6
BYLAYER
100
AcDb3dPolylineVertex
 10
255.912154624154
 20
764.818933892075
 30
9.05040677965416E-15
 70
0
  0
VERTEX
  5
F1D
100
AcDbEntity
  8
LAYER_01
100
AcDbVertex
  6
BYLAYER
100
AcDb3dPolylineVertex
 10
263.57105165978
 20
764.472670360753
 30
9.05856260700595E-15
 70
0
  0
VERTEX
  5
F1E
100
AcDbEntity
  8
LAYER_01
100
AcDbVertex
  6
BYLAYER
100
AcDb3dPolylineVertex
 10
271.394729490936
 20
764.290259272297
 30
9.0608634921521E-15
 70
0
  0
VERTEX
  5
F1F
100
AcDbEntity
  8
LAYER_01
100
AcDbVertex
  6
BYLAYER
100
AcDb3dPolylineVertex
 10
279.223214523421
 20
764.27168028183
 30
9.05777671953155E-15
 70
0
  0
VERTEX
  5
F20
100
AcDbEntity
  8
LAYER_01
100
AcDbVertex
  6
BYLAYER
100
AcDb3dPolylineVertex
 10
294.887991931386
 20
764.663568973431
 30
9.04040021362897E-15
 70
0
  0
VERTEX
  5
F21
100
AcDbEntity
  8
LAYER_01
100
AcDbVertex
  6
BYLAYER
100
AcDb3dPolylineVertex
 10
310.552155361686
 20
765.523437192696
 30
9.01635311457538E-15
 70
0
  0
VERTEX
  5
F22
100
AcDbEntity
  8
LAYER_01
100
AcDbVertex
  6
BYLAYER
100
AcDb3dPolylineVertex
 10
326.202476292335
 20
766.726385696766
 30
8.99555544764796E-15
 70
0
  0
VERTEX
  5
F23
100
AcDbEntity
  8
LAYER_01
100
AcDbVertex
  6
BYLAYER
100
AcDb3dPolylineVertex
 10
356.895281888374
 20
769.77286217327
 30
8.98461847004783E-15
 70
0
  0
VERTEX
  5
F24
100
AcDbEntity
  8
LAYER_01
100
AcDbVertex
  6
BYLAYER
100
AcDb3dPolylineVertex
 10
387.46620680208
 20
773.688141193815
 30
8.99341326668128E-15
 70
0
  0
VERTEX
  5
F25
100
AcDbEntity
  8
LAYER_01
100
AcDbVertex
  6
BYLAYER
100
AcDb3dPolylineVertex
 10
417.898015958497
 20
778.497625745614
 30
8.99076382236736E-15
 70
0
  0
VERTEX
  5
F26
100
AcDbEntity
  8
LAYER_01
100
AcDbVertex
  6
BYLAYER
100
AcDb3dPolylineVertex
 10
448.17347428267
 20
784.226718815881
 30
8.94549412192514E-15
 70
0
  0
VERTEX
  5
F27
100
AcDbEntity
  8
LAYER_01
100
AcDbVertex
  6
BYLAYER
100
AcDb3dPolylineVertex
 10
473.746534902046
 20
789.860296454106
 30
8.86077535125243E-15
 70
0
  0
VERTEX
  5
F28
100
AcDbEntity
  8
LAYER_01
100
AcDbVertex
  6
BYLAYER
100
AcDb3dPolylineVertex
 10
486.462375009085
 20
792.984933483018
 30
8.81213046638296E-15
 70
0
  0
VERTEX
  5
F29
100
AcDbEntity
  8
LAYER_01
100
AcDbVertex
  6
BYLAYER
100
AcDb3dPolylineVertex
 10
499.118441772258
 20
796.342588073435
 30
8.7665945273363E-15
 70
0
  0
VERTEX
  5
F2A
100
AcDbEntity
  8
LAYER_01
100
AcDbVertex
  6
BYLAYER
100
AcDb3dPolylineVertex
 10
511.705250284994
 20
799.954099291585
 30
8.72964199324609E-15
 70
0
  0
VERTEX
  5
F2B
100
AcDbEntity
  8
LAYER_01
100
AcDbVertex
  6
BYLAYER
100
AcDb3dPolylineVertex
 10
524.213315640717
 20
803.840306203697
 30
8.70674732324598E-15
 70
0
  0
VERTEX
  5
F2C
100
AcDbEntity
  8
LAYER_01
100
AcDbVertex
  6
BYLAYER
100
AcDb3dPolylineVertex
 10
536.633152932854
 20
808.022047875999
 30
8.70338497646962E-15
 70
0
  0
VERTEX
  5
F2D
100
AcDbEntity
  8
LAYER_01
100
AcDbVertex
  6
BYLAYER
100
AcDb3dPolylineVertex
 10
548.955277254831
 20
812.520163374719
 30
8.72502941205067E-15
 70
0
  0
VERTEX
  5
F2E
100
AcDbEntity
  8
LAYER_01
100
AcDbVertex
  6
BYLAYER
100
AcDb3dPolylineVertex
 10
557.870324319505
 20
816.012397429
 30
8.75851142284933E-15
 70
0
  0
VERTEX
  5
F2F
100
AcDbEntity
  8
LAYER_01
100
AcDbVertex
  6
BYLAYER
100
AcDb3dPolylineVertex
 10
566.710575334554
 20
819.698786194381
 30
8.80310338839969E-15
 70
0
  0
VERTEX
  5
F30
100
AcDbEntity
  8
LAYER_01
100
AcDbVertex
  6
BYLAYER
100
AcDb3dPolylineVertex
 10
575.458224008025
 20
823.594211418534
 30
8.8537104782564E-15
 70
0
  0
VERTEX
  5
F31
100
AcDbEntity
  8
LAYER_01
100
AcDbVertex
  6
BYLAYER
100
AcDb3dPolylineVertex
 10
584.095464047962
 20
827.713554849131
 30
8.90523786197408E-15
 70
0
  0
VERTEX
  5
F32
100
AcDbEntity
  8
LAYER_01
100
AcDbVertex
  6
BYLAYER
100
AcDb3dPolylineVertex
 10
592.604489162412
 20
832.071698233845
 30
8.95259070910737E-15
 70
0
  0
VERTEX
  5
F33
100
AcDbEntity
  8
LAYER_01
100
AcDbVertex
  6
BYLAYER
100
AcDb3dPolylineVertex
 10
600.967493059419
 20
836.683523320349
 30
8.99067418921092E-15
 70
0
  0
VERTEX
  5
F34
100
AcDbEntity
  8
LAYER_01
100
AcDbVertex
  6
BYLAYER
100
AcDb3dPolylineVertex
 10
609.166669447029
 20
841.563911856316
 30
9.01439347183935E-15
 70
0
  0
VERTEX
  5
F35
100
AcDbEntity
  8
LAYER_01
100
AcDbVertex
  6
BYLAYER
100
AcDb3dPolylineVertex
 10
613.199257858574
 20
844.109467963996
 30
9.01927440458622E-15
 70
0
  0
VERTEX
  5
F36
100
AcDbEntity
  8
LAYER_01
100
AcDbVertex
  6
BYLAYER
100
AcDb3dPolylineVertex
 10
617.184212033287
 20
846.727745589418
 30
9.01865372654731E-15
 70
0
  0
VERTEX
  5
F37
100
AcDbEntity
  8
LAYER_01
100
AcDbVertex
  6
BYLAYER
100
AcDb3dPolylineVertex
 10
623.023063898665
 20
850.762837142209
 30
9.00736486969929E-15
 70
0
  0
VERTEX
  5
F38
100
AcDbEntity
  8
LAYER_01
100
AcDbVertex
  6
BYLAYER
100
AcDb3dPolylineVertex
 10
628.746488606728
 20
854.96443690963
 30
8.98754866644715E-15
 70
0
  0
VERTEX
  5
F39
100
AcDbEntity
  8
LAYER_01
100
AcDbVertex
  6
BYLAYER
100
AcDb3dPolylineVertex
 10
634.34952536745
 20
859.33381504755
 30
8.96427772158815E-15
 70
0
  0
VERTEX
  5
F3A
100
AcDbEntity
  8
LAYER_01
100
AcDbVertex
  6
BYLAYER
100
AcDb3dPolylineVertex
 10
639.827213390806
 20
863.872241711838
 30
8.9426246399196E-15
 42
-0.916940554886323
 70
0
  0
VERTEX
  5
F3B
100
AcDbEntity
  8
LAYER_01
100
AcDbVertex
  6
BYLAYER
100
AcDb3dPolylineVertex
 10
691.295318608462
 20
806.342449628291
 30
-8.97048776976277E-16
 70
0
  0
SEQEND
  5
F3C
100
AcDbEntity
  8
0
  0
CIRCLE
  5
7BF
100
AcDbEntity
  8
LAYER_01
100
AcDbCircle
370
-1
  6
BYLAYER
 10
661.285960461922
 20
831.687683713576
 30
0
 40
8.42660290437443
  0
CIRCLE
  5
7C0
100
AcDbEntity
  8
LAYER_01
100
AcDbCircle
370
-1
  6
BYLAYER
 10
138.721908362244
 20
732.999130138998
 30
0
 40
9.80300915996824
  0
ENDSEC
  0
SECTION
  2
OBJECTS
  0
DICTIONARY
  5
F3D
100
AcDbDictionary
  3
ACAD_GROUP
350
F3E
  3
ACAD_MATERIAL
350
F3F
  3
ACAD_WIPEOUT_VARS
350
F40
  3
ACAD_MLINESTYLE
350
F41
  3
ACAD_LAYOUT
350
F42
  0
DICTIONARY
  5
F3E
330
F3D
100
AcDbDictionary
  0
DICTIONARY
  5
F3F
330
F3D
100
AcDbDictionary
  0
WIPEOUTVARIABLES
  5
F40
330
F3D
100
AcDbWipeoutVariables
 70
1
  0
DICTIONARY
  5
F41
330
F3D
100
AcDbDictionary
  3
STANDARD
350
F43
  0
MLINESTYLE
  5
F43
100
AcDbMlineStyle
  2
STANDARD
 70
0
  3

 62
256
 51
90
 52
90
 71
2
 49
0.5
 62
256
  6
ByLayer
 49
-0.5
 62
256
  6
ByLayer
  0
DICTIONARY
  5
F42
100
AcDbDictionary
281
1
  3
Model
350
7E2
  0
LAYOUT
  5
7E2
102
{ACAD_REACTORS
330
F42
102
}
330
F42
100
AcDbPlotSettings
  1

  2
none_device
  4

  6

 40
0
 41
0
 42
0
 43
0
 44
0
 45
0
 46
0
 47
0
 48
0
 49
0
 70
1712
 72
1
 73
0
 74
5
 75
16
 76
0
 77
0
 78
100
140
0
141
0
142
1
143
1
147
1
148
0
149
0
100
AcDbLayout
  1
Model
 70
1
 71
1
 10
-427.309865682152
 20
0.0179194542295186
 11
701.79741981923
 21
1467.82706336445
 12
0
 22
0
 32
0
 14
-427.309865682152
 24
0.0179194542295186
 34
-4.83291814373489E-15
 15
701.79741981923
 25
1467.82706336445
 35
1.01842487148851E-14
146
0
 13
0
 23
0
 33
0
 16
1
 26
0
 36
0
 17
0
 27
1
 37
0
 76
0
330
7C3
  0
DICTIONARY
  5
F44
100
AcDbDictionary
280
1
  3
XINFO
360
F45
  0
XRECORD
  5
F45
102
{ACAD_REACTORS
330
F44
102
}
330
F44
100
AcDbXrecord
280
0
310
6300000001000E00
311
B5AD67C2032F98F6
  0
ENDSEC
  0
EOF
