  0
SECTION
  2
HEADER
  9
$ACADVER
  1
AC1015
  9
$ACADMAINTVER
 70
    20
  9
$DWGCODEPAGE
  3
ANSI_1251
  9
$INSBASE
 10
0.0
 20
0.0
 30
0.0
  9
$EXTMIN
 10
-239.5511685618061
 20
-103.4890368230148
 30
-0.0015258207003583
  9
$EXTMAX
 10
240.4988364770768
 20
106.523470710902
 30
0.0000000349246037
  9
$LIMMIN
 10
0.0
 20
0.0
  9
$LIMMAX
 10
12.0
 20
9.0
  9
$ORTHOMODE
 70
     1
  9
$REGENMODE
 70
     1
  9
$FILLMODE
 70
     1
  9
$QTEXTMODE
 70
     0
  9
$MIRRTEXT
 70
     0
  9
$LTSCALE
 40
1.0
  9
$ATTMODE
 70
     1
  9
$TEXTSIZE
 40
0.2
  9
$TRACEWID
 40
0.05
  9
$TEXTSTYLE
  7
Standard
  9
$CLAYER
  8
ПО_УМОЛЧАНИЮ
  9
$CELTYPE
  6
Continuous
  9
$CECOLOR
 62
   256
  9
$CELTSCALE
 40
1.0
  9
$DISPSILH
 70
     0
  9
$DIMSCALE
 40
1.0
  9
$DIMASZ
 40
0.18
  9
$DIMEXO
 40
0.0625
  9
$DIMDLI
 40
0.38
  9
$DIMRND
 40
0.0
  9
$DIMDLE
 40
0.0
  9
$DIMEXE
 40
0.18
  9
$DIMTP
 40
0.0
  9
$DIMTM
 40
0.0
  9
$DIMTXT
 40
0.18
  9
$DIMCEN
 40
0.09
  9
$DIMTSZ
 40
0.0
  9
$DIMTOL
 70
     0
  9
$DIMLIM
 70
     0
  9
$DIMTIH
 70
     1
  9
$DIMTOH
 70
     1
  9
$DIMSE1
 70
     0
  9
$DIMSE2
 70
     0
  9
$DIMTAD
 70
     0
  9
$DIMZIN
 70
     0
  9
$DIMBLK
  1

  9
$DIMASO
 70
     1
  9
$DIMSHO
 70
     1
  9
$DIMPOST
  1

  9
$DIMAPOST
  1

  9
$DIMALT
 70
     0
  9
$DIMALTD
 70
     2
  9
$DIMALTF
 40
25.4
  9
$DIMLFAC
 40
1.0
  9
$DIMTOFL
 70
     0
  9
$DIMTVP
 40
0.0
  9
$DIMTIX
 70
     0
  9
$DIMSOXD
 70
     0
  9
$DIMSAH
 70
     0
  9
$DIMBLK1
  1

  9
$DIMBLK2
  1

  9
$DIMSTYLE
  2
Standard
  9
$DIMCLRD
 70
     0
  9
$DIMCLRE
 70
     0
  9
$DIMCLRT
 70
     0
  9
$DIMTFAC
 40
1.0
  9
$DIMGAP
 40
0.09
  9
$DIMJUST
 70
     0
  9
$DIMSD1
 70
     0
  9
$DIMSD2
 70
     0
  9
$DIMTOLJ
 70
     1
  9
$DIMTZIN
 70
     0
  9
$DIMALTZ
 70
     0
  9
$DIMALTTZ
 70
     0
  9
$DIMUPT
 70
     0
  9
$DIMDEC
 70
     4
  9
$DIMTDEC
 70
     4
  9
$DIMALTU
 70
     2
  9
$DIMALTTD
 70
     2
  9
$DIMTXSTY
  7
Standard
  9
$DIMAUNIT
 70
     0
  9
$DIMADEC
 70
     0
  9
$DIMALTRND
 40
0.0
  9
$DIMAZIN
 70
     0
  9
$DIMDSEP
 70
    46
  9
$DIMATFIT
 70
     3
  9
$DIMFRAC
 70
     0
  9
$DIMLDRBLK
  1

  9
$DIMLUNIT
 70
     2
  9
$DIMLWD
 70
    -2
  9
$DIMLWE
 70
    -2
  9
$DIMTMOVE
 70
     0
  9
$LUNITS
 70
     2
  9
$LUPREC
 70
     4
  9
$SKETCHINC
 40
0.1
  9
$FILLETRAD
 40
0.0
  9
$AUNITS
 70
     0
  9
$AUPREC
 70
     0
  9
$MENU
  1
.
  9
$ELEVATION
 40
0.0
  9
$PELEVATION
 40
0.0
  9
$THICKNESS
 40
0.0
  9
$LIMCHECK
 70
     0
  9
$CHAMFERA
 40
0.0
  9
$CHAMFERB
 40
0.0
  9
$CHAMFERC
 40
0.0
  9
$CHAMFERD
 40
0.0
  9
$SKPOLY
 70
     0
  9
$TDCREATE
 40
2456997.581779329
  9
$TDUCREATE
 40
2456997.415112662
  9
$TDUPDATE
 40
2456997.586474062
  9
$TDUUPDATE
 40
2456997.419807396
  9
$TDINDWG
 40
0.0046959954
  9
$TDUSRTIMER
 40
0.0046959954
  9
$USRTIMER
 70
     1
  9
$ANGBASE
 50
0.0
  9
$ANGDIR
 70
     0
  9
$PDMODE
 70
     3
  9
$PDSIZE
 40
0.0
  9
$PLINEWID
 40
0.0
  9
$SPLFRAME
 70
     0
  9
$SPLINETYPE
 70
     6
  9
$SPLINESEGS
 70
     8
  9
$HANDSEED
  5
140D
  9
$SURFTAB1
 70
     6
  9
$SURFTAB2
 70
     6
  9
$SURFTYPE
 70
     6
  9
$SURFU
 70
     6
  9
$SURFV
 70
     6
  9
$UCSBASE
  2

  9
$UCSNAME
  2

  9
$UCSORG
 10
0.0
 20
0.0
 30
0.0
  9
$UCSXDIR
 10
1.0
 20
0.0
 30
0.0
  9
$UCSYDIR
 10
0.0
 20
1.0
 30
0.0
  9
$UCSORTHOREF
  2

  9
$UCSORTHOVIEW
 70
     0
  9
$UCSORGTOP
 10
0.0
 20
0.0
 30
0.0
  9
$UCSORGBOTTOM
 10
0.0
 20
0.0
 30
0.0
  9
$UCSORGLEFT
 10
0.0
 20
0.0
 30
0.0
  9
$UCSORGRIGHT
 10
0.0
 20
0.0
 30
0.0
  9
$UCSORGFRONT
 10
0.0
 20
0.0
 30
0.0
  9
$UCSORGBACK
 10
0.0
 20
0.0
 30
0.0
  9
$PUCSBASE
  2

  9
$PUCSNAME
  2

  9
$PUCSORG
 10
0.0
 20
0.0
 30
0.0
  9
$PUCSXDIR
 10
1.0
 20
0.0
 30
0.0
  9
$PUCSYDIR
 10
0.0
 20
1.0
 30
0.0
  9
$PUCSORTHOREF
  2

  9
$PUCSORTHOVIEW
 70
     0
  9
$PUCSORGTOP
 10
0.0
 20
0.0
 30
0.0
  9
$PUCSORGBOTTOM
 10
0.0
 20
0.0
 30
0.0
  9
$PUCSORGLEFT
 10
0.0
 20
0.0
 30
0.0
  9
$PUCSORGRIGHT
 10
0.0
 20
0.0
 30
0.0
  9
$PUCSORGFRONT
 10
0.0
 20
0.0
 30
0.0
  9
$PUCSORGBACK
 10
0.0
 20
0.0
 30
0.0
  9
$USERI1
 70
     0
  9
$USERI2
 70
     0
  9
$USERI3
 70
     0
  9
$USERI4
 70
     0
  9
$USERI5
 70
     0
  9
$USERR1
 40
0.0
  9
$USERR2
 40
0.0
  9
$USERR3
 40
0.0
  9
$USERR4
 40
0.0
  9
$USERR5
 40
0.0
  9
$WORLDVIEW
 70
     1
  9
$SHADEDGE
 70
     3
  9
$SHADEDIF
 70
    70
  9
$TILEMODE
 70
     1
  9
$MAXACTVP
 70
    64
  9
$PINSBASE
 10
0.0
 20
0.0
 30
0.0
  9
$PLIMCHECK
 70
     0
  9
$PEXTMIN
 10
1.000000000000000E+20
 20
1.000000000000000E+20
 30
1.000000000000000E+20
  9
$PEXTMAX
 10
-1.000000000000000E+20
 20
-1.000000000000000E+20
 30
-1.000000000000000E+20
  9
$PLIMMIN
 10
0.0
 20
0.0
  9
$PLIMMAX
 10
12.0
 20
9.0
  9
$UNITMODE
 70
     0
  9
$VISRETAIN
 70
     1
  9
$PLINEGEN
 70
     0
  9
$PSLTSCALE
 70
     1
  9
$TREEDEPTH
 70
  3020
  9
$CMLSTYLE
  2
Standard
  9
$CMLJUST
 70
     0
  9
$CMLSCALE
 40
1.0
  9
$PROXYGRAPHICS
 70
     1
  9
$MEASUREMENT
 70
     0
  9
$CELWEIGHT
370
    -1
  9
$ENDCAPS
280
     0
  9
$JOINSTYLE
280
     0
  9
$LWDISPLAY
290
     0
  9
$INSUNITS
 70
     0
  9
$HYPERLINKBASE
  1

  9
$STYLESHEET
  1

  9
$XEDIT
290
     1
  9
$CEPSNTYPE
380
     0
  9
$PSTYLEMODE
290
     1
  9
$FINGERPRINTGUID
  2
{D8461747-0E25-407E-A6A2-AD791ABFEC1E}
  9
$VERSIONGUID
  2
{1F923E49-86FF-4F6C-B20D-89F382D1B0AC}
  9
$EXTNAMES
290
     1
  9
$PSVPSCALE
 40
0.0
  9
$OLESTARTUP
290
     0
  0
ENDSEC
  0
SECTION
  2
CLASSES
  0
CLASS
  1
ACDBDICTIONARYWDFLT
  2
AcDbDictionaryWithDefault
  3
ObjectDBX Classes
 90
        0
280
     0
281
     0
  0
CLASS
  1
MATERIAL
  2
AcDbMaterial
  3
ObjectDBX Classes
 90
     1153
280
     0
281
     0
  0
CLASS
  1
VISUALSTYLE
  2
AcDbVisualStyle
  3
ObjectDBX Classes
 90
     4095
280
     0
281
     0
  0
CLASS
  1
SCALE
  2
AcDbScale
  3
ObjectDBX Classes
 90
     1153
280
     0
281
     0
  0
CLASS
  1
TABLESTYLE
  2
AcDbTableStyle
  3
ObjectDBX Classes
 90
     4095
280
     0
281
     0
  0
CLASS
  1
MLEADERSTYLE
  2
AcDbMLeaderStyle
  3
ACDB_MLEADERSTYLE_CLASS
 90
     4095
280
     0
281
     0
  0
CLASS
  1
SORTENTSTABLE
  2
AcDbSortentsTable
  3
ObjectDBX Classes
 90
        0
280
     0
281
     0
  0
CLASS
  1
DICTIONARYVAR
  2
AcDbDictionaryVar
  3
ObjectDBX Classes
 90
        0
280
     0
281
     0
  0
CLASS
  1
CELLSTYLEMAP
  2
AcDbCellStyleMap
  3
ObjectDBX Classes
 90
     1152
280
     0
281
     0
  0
CLASS
  1
ACDBPLACEHOLDER
  2
AcDbPlaceHolder
  3
ObjectDBX Classes
 90
        0
280
     0
281
     0
  0
CLASS
  1
LAYOUT
  2
AcDbLayout
  3
ObjectDBX Classes
 90
        0
280
     0
281
     0
  0
ENDSEC
  0
SECTION
  2
TABLES
  0
TABLE
  2
VPORT
  5
8
330
0
100
AcDbSymbolTable
 70
     1
  0
VPORT
  5
7A
330
8
100
AcDbSymbolTableRecord
100
AcDbViewportTableRecord
  2
*Active
 70
     0
 10
0.0
 20
0.0
 11
1.0
 21
1.0
 12
6.897749091332684
 22
-39.7126337652872
 13
0.0
 23
0.0
 14
1.0
 24
1.0
 15
0.0
 25
0.0
 16
0.0
 26
0.0
 36
1.0
 17
0.0
 27
0.0
 37
0.0
 40
395.2459331375326
 41
1.950354609929078
 42
50.0
 43
0.0
 44
0.0
 50
0.0
 51
0.0
 71
     0
 72
   100
 73
     1
 74
     1
 75
     0
 76
     0
 77
     0
 78
     0
281
     0
 65
     1
110
0.0
120
0.0
130
0.0
111
1.0
121
0.0
131
0.0
112
0.0
122
1.0
132
0.0
 79
     0
146
0.0
  0
ENDTAB
  0
TABLE
  2
LTYPE
  5
5
330
0
100
AcDbSymbolTable
 70
     2
  0
LTYPE
  5
62
330
5
100
AcDbSymbolTableRecord
100
AcDbLinetypeTableRecord
  2
ByBlock
 70
     0
  3

 72
    65
 73
     0
 40
0.0
  0
LTYPE
  5
63
330
5
100
AcDbSymbolTableRecord
100
AcDbLinetypeTableRecord
  2
ByLayer
 70
     0
  3

 72
    65
 73
     0
 40
0.0
  0
LTYPE
  5
64
330
5
100
AcDbSymbolTableRecord
100
AcDbLinetypeTableRecord
  2
Continuous
 70
     0
  3
Solid line
 72
    65
 73
     0
 40
0.0
  0
ENDTAB
  0
TABLE
  2
LAYER
  5
2
330
0
100
AcDbSymbolTable
 70
     2
  0
LAYER
  5
5C
102
{ACAD_XDICTIONARY
360
13EA
102
}
330
2
100
AcDbSymbolTableRecord
100
AcDbLayerTableRecord
  2
0
 70
     0
 62
     7
  6
Continuous
370
    -3
390
F
  0
LAYER
  5
78
102
{ACAD_XDICTIONARY
360
13EC
102
}
330
2
100
AcDbSymbolTableRecord
100
AcDbLayerTableRecord
  2
ПО_УМОЛЧАНИЮ
 70
     0
 62
    18
  6
Continuous
370
    -3
390
F
  0
ENDTAB
  0
TABLE
  2
STYLE
  5
3
330
0
100
AcDbSymbolTable
 70
     2
  0
STYLE
  5
5D
330
3
100
AcDbSymbolTableRecord
100
AcDbTextStyleTableRecord
  2
Standard
 70
     0
 40
0.0
 41
1.0
 50
0.0
 71
     0
 42
0.2
  3
txt
  4

  0
STYLE
  5
61
330
3
100
AcDbSymbolTableRecord
100
AcDbTextStyleTableRecord
  2
Annotative
 70
     0
 40
0.0
 41
1.0
 50
0.0
 71
     0
 42
0.2
  3

  4

1001
AcadAnnotative
1000
AnnotativeData
1002
{
1070
     1
1070
     1
1002
}
  0
ENDTAB
  0
TABLE
  2
VIEW
  5
6
330
0
100
AcDbSymbolTable
 70
     0
  0
ENDTAB
  0
TABLE
  2
UCS
  5
7
330
0
100
AcDbSymbolTable
 70
     0
  0
ENDTAB
  0
TABLE
  2
APPID
  5
9
330
0
100
AcDbSymbolTable
 70
     4
  0
APPID
  5
5E
330
9
100
AcDbSymbolTableRecord
100
AcDbRegAppTableRecord
  2
ACAD
 70
     0
  0
APPID
  5
65
330
9
100
AcDbSymbolTableRecord
100
AcDbRegAppTableRecord
  2
AcadAnnotative
 70
     0
  0
APPID
  5
6F
330
9
100
AcDbSymbolTableRecord
100
AcDbRegAppTableRecord
  2
ACAD_MLEADERVER
 70
     0
  0
APPID
  5
13DD
330
9
100
AcDbSymbolTableRecord
100
AcDbRegAppTableRecord
  2
ACAD_EXEMPT_FROM_CAD_STANDARDS
 70
     0
  0
ENDTAB
  0
TABLE
  2
DIMSTYLE
  5
A
330
0
100
AcDbSymbolTable
 70
     3
100
AcDbDimStyleTable
 71
     1
340
5F
  0
DIMSTYLE
105
5F
330
A
100
AcDbSymbolTableRecord
100
AcDbDimStyleTableRecord
  2
Standard
 70
     0
340
5D
  0
DIMSTYLE
105
60
330
A
100
AcDbSymbolTableRecord
100
AcDbDimStyleTableRecord
  2
Annotative
 70
     0
340
5D
1001
AcadAnnotative
1000
AnnotativeData
1002
{
1070
     1
1070
     1
1002
}
  0
ENDTAB
  0
TABLE
  2
BLOCK_RECORD
  5
1
330
0
100
AcDbSymbolTable
 70
     1
  0
BLOCK_RECORD
  5
74
102
{ACAD_XDICTIONARY
360
13D8
102
}
330
1
100
AcDbSymbolTableRecord
100
AcDbBlockTableRecord
  2
*Model_Space
340
77
  0
BLOCK_RECORD
  5
70
330
1
100
AcDbSymbolTableRecord
100
AcDbBlockTableRecord
  2
*Paper_Space
340
73
  0
ENDTAB
  0
ENDSEC
  0
SECTION
  2
BLOCKS
  0
BLOCK
  5
75
330
74
100
AcDbEntity
  8
0
100
AcDbBlockBegin
  2
*Model_Space
 70
     0
 10
0.0
 20
0.0
 30
0.0
  3
*Model_Space
  1

  0
ENDBLK
  5
76
330
74
100
AcDbEntity
  8
0
100
AcDbBlockEnd
  0
BLOCK
  5
71
330
70
100
AcDbEntity
 67
     1
  8
0
100
AcDbBlockBegin
  2
*Paper_Space
 70
     0
 10
0.0
 20
0.0
 30
0.0
  3
*Paper_Space
  1

  0
ENDBLK
  5
72
330
70
100
AcDbEntity
 67
     1
  8
0
100
AcDbBlockEnd
  0
ENDSEC
  0
SECTION
  2
ENTITIES
  0
LWPOLYLINE
  5
46C
330
74
100
AcDbEntity
  8
ПО_УМОЛЧАНИЮ
100
AcDbPolyline
 90
       30
 70
     1
 43
0.0
 10
-134.60765316
 20
-92.13905393
 10
-134.52225152
 20
-92.01709082
 10
-134.42247074
 20
-91.78304145
 10
-134.31193254
 20
-91.45062825
 10
-134.19425866
 20
-91.03357366999999
 10
-133.95199078
 20
-90.00043017000001
 10
-133.72464092
 20
-88.79339054
 10
-133.21498542
 20
-85.74516142
 10
-141.27453757
 20
-88.95210744999999
 10
-144.40391055
 20
-90.22381876999999
 10
-146.96659628
 20
-91.3157198
 10
-147.95278952
 20
-91.75791219
 10
-148.69814068
 20
-92.11155688999999
 10
-149.169593
 20
-92.36212217
 10
-149.29227686
 20
-92.44420888
 10
-149.33408972
 20
-92.49507635
 10
-149.29334336
 20
-92.53113707
 10
-149.17450623
 20
-92.56291984
 10
-148.72297132
 20
-92.61414498
 10
-148.02030833
 20
-92.64973871
 10
-147.10734059
 20
-92.67068797
 10
-144.81378425
 20
-92.67260079000001
 10
-142.168889
 20
-92.62777891
 10
-139.49924156
 20
-92.54411780999999
 10
-137.13142863
 20
-92.42951295999999
 10
-136.16276845
 20
-92.36307397
 10
-135.39203692
 20
-92.29185984999999
 10
-134.86005738
 20
-92.21685752
 10
-134.69635689
 20
-92.17824419999999
 10
-134.60765316
 20
-92.13905393
  0
LWPOLYLINE
  5
48C
330
74
100
AcDbEntity
  8
ПО_УМОЛЧАНИЮ
100
AcDbPolyline
 90
       77
 70
     1
 43
0.0
 10
-90.07668875
 20
-90.99488970000001
 10
-90.64601422
 20
-90.73614189
 10
-91.26634405999999
 20
-90.41414933
 10
-91.91772317999999
 20
-90.04172293000001
 10
-92.58019649999999
 20
-89.63167362
 10
-93.23380892000001
 20
-89.19681232
 10
-93.85860535
 20
-88.74994993999999
 10
-94.43463071
 20
-88.30389739999999
 10
-94.94192989
 20
-87.87146563
 10
-97.20270275
 20
-85.82855127
 10
-100.25725949
 20
-88.45773028000001
 10
-101.20525066
 20
-89.26009091999999
 10
-101.98334872
 20
-89.87426838999999
 10
-102.32388832
 20
-90.11697072
 10
-102.64019522
 20
-90.32004601
 10
-102.93834963
 20
-90.48596717
 10
-103.22443174
 20
-90.61720712000001
 10
-103.50452174
 20
-90.71623878
 10
-103.78469983
 20
-90.78553506
 10
-104.0710462
 20
-90.82756887
 10
-104.36964105
 20
-90.84481313999999
 10
-104.68656458
 20
-90.83974078
 10
-105.02789697
 20
-90.81482470999999
 10
-105.80810915
 20
-90.71535308999999
 10
-106.8415688
 20
-90.53669066999999
 10
-107.32323564
 20
-90.43302662
 10
-107.78218217
 20
-90.31888987
 10
-108.21889963
 20
-90.1935923
 10
-108.63387929
 20
-90.05644582
 10
-109.02761238
 20
-89.90676231
 10
-109.40059016
 20
-89.74385368
 10
-109.75330389
 20
-89.56703180999999
 10
-110.08624481
 20
-89.37560858999999
 10
-110.39990419
 20
-89.16889593
 10
-110.69477326
 20
-88.94620571
 10
-110.97134328
 20
-88.70684983
 10
-111.23010551
 20
-88.45014018
 10
-111.4715512
 20
-88.17538865999999
 10
-111.69617159
 20
-87.88190715
 10
-111.90445794
 20
-87.56900756
 10
-112.09690151
 20
-87.23600176999999
 10
-112.27399354
 20
-86.88220167999999
 10
-112.43622529
 20
-86.50691919000001
 10
-112.584088
 20
-86.10946617999999
 10
-112.71807294
 20
-85.68915454
 10
-112.83867134
 20
-85.24529619
 10
-112.94637448
 20
-84.77720299000001
 10
-113.04167358
 20
-84.28418686
 10
-113.12505992
 20
-83.76555967999999
 10
-113.25805929
 20
-82.64871976
 10
-113.3493026
 20
-81.42117837
 10
-113.40271986
 20
-80.07743066999999
 10
-113.43352672
 20
-79.15937705000001
 10
-113.47654034
 20
-78.30288041999999
 10
-113.52979866
 20
-77.52668878999999
 10
-113.59133961
 20
-76.84955017
 10
-113.65920115
 20
-76.29021258
 10
-113.7314212
 20
-75.86742402999999
 10
-113.80603772
 20
-75.59993254
 10
-113.84363151
 20
-75.53028195
 10
-113.88108864
 20
-75.50648612
 10
-114.04176225
 20
-75.55273669
 10
-114.36177589
 20
-75.68562079
 10
-115.40314907
 20
-76.1739893
 10
-116.8518599
 20
-76.89699111999999
 10
-118.55456009
 20
-77.78002574
 10
-122.86626624
 20
-80.05441164
 10
-124.71964135
 20
-86.07512732000001
 10
-126.57301646
 20
-92.09584300000001
 10
-124.02558838
 20
-92.2661656
 10
-123.16683054
 20
-92.29669487
 10
-121.69482923
 20
-92.31805258999999
 10
-117.23184489
 20
-92.33342101999999
 10
-111.2781328
 20
-92.31260629000001
 10
-104.47519039
 20
-92.25594381
 10
-87.47222048000001
 20
-92.07539942
 10
-90.07668875
 20
-90.99488970000001
  0
LWPOLYLINE
  5
4DB
330
74
100
AcDbEntity
  8
ПО_УМОЛЧАНИЮ
100
AcDbPolyline
 90
       46
 70
     1
 43
0.0
 10
111.86044796
 20
-92.29297545999999
 10
111.8469299
 20
-92.24264107000001
 10
111.80744503
 20
-92.17768159
 10
111.65696545
 20
-92.00814300999999
 10
111.42179038
 20
-91.79287087
 10
111.11470097
 20
-91.54037632999999
 10
110.33590369
 20
-90.9577647
 10
109.42282281
 20
-90.32839741
 10
108.47770751
 20
-89.72036372999999
 10
107.60280697
 20
-89.20175294999999
 10
107.22364011
 20
-88.99725904
 10
106.90037038
 20
-88.84065434
 10
106.64577893
 20
-88.74045
 10
106.47264692
 20
-88.70515718
 10
106.36604698
 20
-88.725661
 10
106.2160216
 20
-88.78442554000001
 10
105.81329485
 20
-89.00025524
 10
105.31966736
 20
-89.31968318
 10
104.79033983
 20
-89.7097463
 10
104.15111972
 20
-90.17670191
 10
103.35827974
 20
-90.70549058999999
 10
102.51271851
 20
-91.23117417000001
 10
101.71533463
 20
-91.68881447
 10
101.15140112
 20
-92.00455871
 10
100.94857877
 20
-92.13310511999999
 10
100.8061513
 20
-92.24393702
 10
100.72984266
 20
-92.33843138000001
 10
100.71827164
 20
-92.37998227
 10
100.72537681
 20
-92.41796515
 10
100.75187367
 20
-92.45255212
 10
100.7984777
 20
-92.48391531000001
 10
100.95486929
 20
-92.53765882000001
 10
101.20027552
 20
-92.58057264999999
 10
101.54042037
 20
-92.61403376
 10
102.52782168
 20
-92.65810571999999
 10
103.96286487
 20
-92.68089041000001
 10
105.89134156
 20
-92.69340359
 10
107.09041298
 20
-92.69066471
 10
108.20904026
 20
-92.67112260999999
 10
109.22274074
 20
-92.63641964999999
 10
110.10703176
 20
-92.58819823000001
 10
110.83743065
 20
-92.52810072
 10
111.38945476
 20
-92.45776949999999
 10
111.73862142
 20
-92.37884694999999
 10
111.82948237
 20
-92.33667717999999
 10
111.86044796
 20
-92.29297545999999
  0
LWPOLYLINE
  5
50B
330
74
100
AcDbEntity
  8
ПО_УМОЛЧАНИЮ
100
AcDbPolyline
 90
       40
 70
     1
 43
0.0
 10
131.15385513
 20
-90.84117840000001
 10
130.70996486
 20
-90.49951187999999
 10
130.31118899
 20
-90.16877743
 10
129.95420172
 20
-89.84079149000001
 10
129.63567728
 20
-89.50737051
 10
129.35228985
 20
-89.16033093000001
 10
129.10071364
 20
-88.7914892
 10
128.87762287
 20
-88.39266177
 10
128.67969173
 20
-87.95566507
 10
128.50359444
 20
-87.47231556
 10
128.3460052
 20
-86.93442967999999
 10
128.2035982
 20
-86.33382387000001
 10
128.07304767
 20
-85.66231458999999
 10
127.95102781
 20
-84.91171826
 10
127.83421281
 20
-84.07385135
 10
127.60289426
 20
-82.10357154
 10
127.5324259
 20
-81.60057626
 10
127.48792438
 20
-81.41724346
 10
127.43345438
 20
-81.28257057
 10
127.3661732
 20
-81.1989701
 10
127.28323816
 20
-81.16885453
 10
127.18180655
 20
-81.19463638
 10
127.0590357
 20
-81.27872816
 10
126.91208289
 20
-81.42354235
 10
126.73810545
 20
-81.63149148
 10
126.29770587
 20
-82.24644453999999
 10
125.71509543
 20
-83.14288735999999
 10
124.96753257
 20
-84.34011997
 10
124.42419437
 20
-85.18049387000001
 10
123.81791293
 20
-86.05177736999999
 10
123.1690649
 20
-86.92865953
 10
122.49802695
 20
-87.78582941000001
 10
121.82517573
 20
-88.59797607
 10
121.1708879
 20
-89.33978858999999
 10
120.55554013
 20
-89.98595600999999
 10
119.99950906
 20
-90.51116742000001
 10
117.48033093
 20
-92.72351366
 10
125.57487652
 20
-92.72351366
 10
133.6694221
 20
-92.72351366
 10
131.15385513
 20
-90.84117840000001
  0
LWPOLYLINE
  5
535
330
74
100
AcDbEntity
  8
ПО_УМОЛЧАНИЮ
100
AcDbPolyline
 90
       30
 70
     1
 43
0.0
 10
150.93112355
 20
-92.49128623
 10
150.91015071
 20
-92.45823878999999
 10
150.84861393
 20
-92.40769142999999
 10
150.61213896
 20
-92.2582854
 10
149.74361656
 20
-91.79554729999999
 10
148.4582034
 20
-91.17008706
 10
146.88854655
 20
-90.44891984999999
 10
145.4330402
 20
-89.80139775999999
 10
144.83352946
 20
-89.55036751999999
 10
144.30052369
 20
-89.35012306999999
 10
143.81978037
 20
-89.20238836999999
 10
143.37705702
 20
-89.10888736
 10
142.95811114
 20
-89.07134398
 10
142.54870023
 20
-89.09148218
 10
142.13458179
 20
-89.1710259
 10
141.70151333
 20
-89.31169907999999
 10
141.23525234
 20
-89.51522568999999
 10
140.72155633
 20
-89.78332964999999
 10
140.1461828
 20
-90.11773490999999
 10
139.49488926
 20
-90.52016543
 10
137.90757214
 20
-91.53599798
 10
136.09874555
 20
-92.69798464
 10
143.51493455
 20
-92.71074914999999
 10
146.39450169
 20
-92.69738117000001
 10
148.75261803
 20
-92.65154728
 10
149.66008726
 20
-92.61870595999999
 10
150.34593989
 20
-92.58044858999999
 10
150.77975798
 20
-92.53767530000001
 10
150.89264845
 20
-92.51487647999999
 10
150.93112355
 20
-92.49128623
  0
LWPOLYLINE
  5
555
330
74
100
AcDbEntity
  8
ПО_УМОЛЧАНИЮ
100
AcDbPolyline
 90
      230
 70
     1
 43
0.0
 10
-56.15391971
 20
-91.71892453999999
 10
-57.08415561999999
 20
-90.23883109999999
 10
-57.91347060999999
 20
-88.85034744
 10
-58.64647224
 20
-87.53239290999999
 10
-58.9782954
 20
-86.89327636999999
 10
-59.28776806
 20
-86.26388687
 10
-59.57546616
 20
-85.64158932999999
 10
-59.84196564
 20
-85.02374867
 10
-60.08784245
 20
-84.4077298
 10
-60.31367254
 20
-83.79089765000001
 10
-60.52003184
 20
-83.17061714000001
 10
-60.70749631
 20
-82.54425319
 10
-60.87664188
 20
-81.90917070999999
 10
-61.02804451
 20
-81.26273463
 10
-61.16228014
 20
-80.60230986
 10
-61.27992471
 20
-79.92526132
 10
-61.38155416
 20
-79.22895393000001
 10
-61.46774445
 20
-78.51075262000001
 10
-61.53907152
 20
-77.7680223
 10
-61.59611132
 20
-76.99812788
 10
-61.66963285
 20
-75.36630646
 10
-61.69291660999999
 20
-73.59420771999999
 10
-61.67057016
 20
-71.66075099
 10
-61.60720107
 20
-69.54485565
 10
-61.50741688
 20
-67.22544104
 10
-61.29130253999999
 20
-63.22542322
 10
-61.05053057
 20
-59.58324498
 10
-60.81446626
 20
-56.70072084
 10
-60.70737613
 20
-55.6698961
 10
-60.6124749
 20
-54.97966533
 10
-60.49347809
 20
-54.2438239
 10
-60.42934033
 20
-53.67126147
 10
-60.42063169
 20
-53.43993311
 10
-60.42898354
 20
-53.24189237
 10
-60.45551112
 20
-53.07462856
 10
-60.50132966
 20
-52.93563095999999
 10
-60.56755440999999
 20
-52.82238887
 10
-60.65530061
 20
-52.73239156999999
 10
-60.76568349
 20
-52.66312836
 10
-60.8998183
 20
-52.61208854
 10
-61.05882027999999
 20
-52.57676139
 10
-61.24380467
 20
-52.5546362
 10
-61.69618164
 20
-52.5399489
 10
-61.88749826
 20
-52.54838545
 10
-62.07710027
 20
-52.57378071
 10
-62.26515663
 20
-52.6162631
 10
-62.45183630999999
 20
-52.67596102
 10
-62.63730827999999
 20
-52.75300288
 10
-62.82174149
 20
-52.84751711
 10
-63.00530490999999
 20
-52.9596321
 10
-63.18816750999999
 20
-53.08947628
 10
-63.55246607
 20
-53.40286584
 10
-63.91598891000001
 20
-53.78871309
 10
-64.28008773000001
 20
-54.24804531
 10
-64.64611423
 20
-54.78188981
 10
-64.96816775
 20
-55.2530686
 10
-65.31893189999999
 20
-55.71153295
 10
-65.69491757999999
 20
-56.15484277
 10
-66.0926357
 20
-56.58055796
 10
-66.50859719
 20
-56.98623838999999
 10
-66.93931293999999
 20
-57.36944398
 10
-67.38129386999999
 20
-57.72773460999999
 10
-67.83105088000001
 20
-58.05867018
 10
-68.2850949
 20
-58.35981058
 10
-68.73993684
 20
-58.62871572
 10
-69.19208758999999
 20
-58.86294548
 10
-69.63805808
 20
-59.06005976
 10
-70.07435920999999
 20
-59.21761845999999
 10
-70.49750191
 20
-59.33318147
 10
-70.90399705999999
 20
-59.40430869
 10
-71.2903556
 20
-59.42855999999999
 10
-71.49574538999999
 20
-59.43438102
 10
-71.679772
 20
-59.45360051
 10
-71.84355478
 20
-59.48885314
 10
-71.98821305
 20
-59.54277357
 10
-72.11486617
 20
-59.61799646
 10
-72.22463347999999
 20
-59.71715646999999
 10
-72.31863432
 20
-59.84288826
 10
-72.39798804
 20
-59.99782649
 10
-72.46381397
 20
-60.18460583
 10
-72.51723146999999
 20
-60.40586094
 10
-72.55935986999999
 20
-60.66422647
 10
-72.59131852999999
 20
-60.96233708999999
 10
-72.62920395
 20
-61.68833224
 10
-72.63984247999999
 20
-62.60492369
 10
-72.66468997
 20
-63.41816909
 10
-72.74058175
 20
-64.19552471
 10
-72.86954172999999
 20
-64.94382935
 10
-73.05359384
 20
-65.66992179999999
 10
-73.29476199
 20
-66.38064085999999
 10
-73.59507010999999
 20
-67.08282532
 10
-73.95654212
 20
-67.78331398999999
 10
-74.38120195
 20
-68.48894567000001
 10
-74.76170049
 20
-69.06174865
 10
-75.14791606999999
 20
-69.60191371
 10
-75.54725297
 20
-70.11517745999999
 10
-75.96711551
 20
-70.60727652
 10
-76.41490797
 20
-71.08394749999999
 10
-76.89803464
 20
-71.550927
 10
-77.42389982999999
 20
-72.01395166000001
 10
-77.99990784000001
 20
-72.47875808
 10
-78.63346294999999
 20
-72.95108286999999
 10
-79.33196945999999
 20
-73.43666265
 10
-80.10283167
 20
-73.94123404
 10
-80.95345388
 20
-74.47053364999999
 10
-81.89124038
 20
-75.03029809
 10
-82.92359546
 20
-75.62626396999999
 10
-85.30162858
 20
-76.94974654000001
 10
-89.05791781000001
 20
-79.02718077
 10
-90.34016026999999
 20
-79.75370714
 10
-90.97684397
 20
-80.13284577
 10
-91.04567649999999
 20
-80.19992616000001
 10
-91.09301718999999
 20
-80.29201994000001
 10
-91.1196853
 20
-80.40771732000001
 10
-91.12650012000001
 20
-80.54560847000001
 10
-91.11428094
 20
-80.70428359
 10
-91.08384703
 20
-80.88233288000001
 10
-90.97161217
 20
-81.29091473
 10
-90.79634978999999
 20
-81.76007557
 10
-90.56461414999999
 20
-82.27853693
 10
-90.2829595
 20
-82.83502035999999
 10
-89.95794008999999
 20
-83.41824742
 10
-89.59611018
 20
-84.01693964000001
 10
-89.20402402
 20
-84.61981855999999
 10
-88.78823586000001
 20
-85.21560575
 10
-88.35529997
 20
-85.79302273000001
 10
-87.91177058
 20
-86.34079105999999
 10
-87.46420197
 20
-86.84763227999999
 10
-87.01914837
 20
-87.30226794
 10
-86.58316404999998
 20
-87.69341958
 10
-86.21433360999999
 20
-87.98267783
 10
-85.83362696
 20
-88.24945564
 10
-85.4415615
 20
-88.49380841
 10
-85.03865459
 20
-88.71579151
 10
-84.6254236
 20
-88.91546033
 10
-84.20238591
 20
-89.09287025000001
 10
-83.77005891000001
 20
-89.24807665999999
 10
-83.32895994999999
 20
-89.38113493999999
 10
-82.87960642999999
 20
-89.49210046999999
 10
-82.4225157
 20
-89.58102864999998
 10
-81.95820516000001
 20
-89.64797486
 10
-81.48719217
 20
-89.69299447
 10
-81.00999412
 20
-89.71614288000001
 10
-80.52712836000001
 20
-89.71747546000001
 10
-80.03911229000001
 20
-89.69704761
 10
-79.54646327999999
 20
-89.65491470000001
 10
-79.04969869999999
 20
-89.59113213
 10
-78.54933592
 20
-89.50575526999999
 10
-78.04589233
 20
-89.39883951
 10
-77.53988529
 20
-89.27044024
 10
-77.03183219
 20
-89.12061282999999
 10
-76.52225040000001
 20
-88.94941268
 10
-76.01165729
 20
-88.75689517000001
 10
-75.50057025
 20
-88.54311567999999
 10
-74.98950662999999
 20
-88.30812958999999
 10
-74.47898383
 20
-88.05199229999999
 10
-73.96951921999999
 20
-87.77475918
 10
-73.46163017000001
 20
-87.47648562
 10
-72.95583405000001
 20
-87.15722701
 10
-72.45264824999999
 20
-86.81703871999999
 10
-71.95259013000001
 20
-86.45597614999999
 10
-71.45617708
 20
-86.07409467
 10
-70.65782891000001
 20
-85.41518186999999
 10
-69.97545554
 20
-84.79426766000001
 10
-69.40079020999999
 20
-84.20027348999999
 10
-69.1512647
 20
-83.90990936999999
 10
-68.92556618
 20
-83.62212082
 10
-68.72266129999999
 20
-83.33552299999999
 10
-68.54151672
 20
-83.04873109
 10
-68.3810991
 20
-82.76036029
 10
-68.24037509
 20
-82.46902577
 10
-68.11831135
 20
-82.17334272
 10
-68.01387454
 20
-81.87192631
 10
-67.92603130999999
 20
-81.56339172
 10
-67.85374833
 20
-81.24635415
 10
-67.74008578
 20
-80.76470161999999
 10
-67.60467167999999
 20
-80.33037640000001
 10
-67.4517625
 20
-79.95046556
 10
-67.28561473
 20
-79.63205621
 10
-67.11048486999999
 20
-79.38223542999999
 10
-66.93062940999999
 20
-79.20809031
 10
-66.84025973
 20
-79.15161085
 10
-66.75030483
 20
-79.11670795
 10
-66.66129678
 20
-79.10426751999999
 10
-66.57376763000001
 20
-79.11517544
 10
-66.33398896999999
 20
-79.19932018
 10
-66.12599113
 20
-79.31596713000001
 10
-65.94977882000001
 20
-79.46402795
 10
-65.80535677
 20
-79.64241429000001
 10
-65.69272969
 20
-79.85003779999999
 10
-65.61190232
 20
-80.08581014
 10
-65.56287936
 20
-80.34864295
 10
-65.54566555
 20
-80.63744789000001
 10
-65.56026561
 20
-80.95113661
 10
-65.60668424000001
 20
-81.28862076
 10
-65.68492619
 20
-81.64881198999999
 10
-65.79499617
 20
-82.03062196000001
 10
-65.93689889
 20
-82.43296231
 10
-66.11063909000001
 20
-82.8547447
 10
-66.31622147999999
 20
-83.29488077
 10
-66.55365077999999
 20
-83.75228219
 10
-66.86804250999999
 20
-84.30936467
 10
-67.18973434
 20
-84.83654076
 10
-67.52156153
 20
-85.33636645999999
 10
-67.86635932999999
 20
-85.81139776
 10
-68.22696301
 20
-86.26419068
 10
-68.60620781
 20
-86.69730121
 10
-69.006929
 20
-87.11328536000001
 10
-69.43196184
 20
-87.51469914000001
 10
-69.88414157
 20
-87.90409854000001
 10
-70.36630345999999
 20
-88.28403957
 10
-70.88128274999999
 20
-88.65707822999999
 10
-71.43191471999999
 20
-89.02577052999999
 10
-72.02103461
 20
-89.39267246
 10
-72.65147768999999
 20
-89.76034004
 10
-73.3260792
 20
-90.13132926999999
 10
-74.0476744
 20
-90.50819613999999
 10
-77.26433292
 20
-92.14946273
 10
-66.57119118
 20
-92.14946273
 10
-64.42879512000001
 20
-92.14067538
 10
-62.44101263000001
 20
-92.11549058000001
 10
-60.65057079999999
 20
-92.0756742
 10
-59.10019672
 20
-92.02299213999999
 10
-57.83261748000001
 20
-91.95921026
 10
-56.89056018
 20
-91.88609445
 10
-56.55495445999999
 20
-91.84658815
 10
-56.31675189
 20
-91.80541058000001
 10
-56.18129334
 20
-91.76278246
 10
-56.15376211
 20
-91.74099342999999
 10
-56.15391971
 20
-91.71892453999999
  0
LWPOLYLINE
  5
63D
330
74
100
AcDbEntity
  8
ПО_УМОЛЧАНИЮ
100
AcDbPolyline
 90
       96
 70
     1
 43
0.0
 10
-13.60287566
 20
-91.39814065000001
 10
-14.18107388
 20
-91.10046638
 10
-14.74731563
 20
-90.7874525
 10
-15.30130649
 20
-90.45950028
 10
-15.84275203
 20
-90.11701094999999
 10
-16.37135786
 20
-89.76038577999998
 10
-16.88682955
 20
-89.39002602
 10
-17.3888727
 20
-89.0063329
 10
-17.87719288
 20
-88.60970769999999
 10
-18.35149568
 20
-88.20055164000001
 10
-18.81148669
 20
-87.779266
 10
-19.25687149
 20
-87.34625201
 10
-19.68735568
 20
-86.90191093000001
 10
-20.10264483
 20
-86.44664402
 10
-20.50244453
 20
-85.98085251
 10
-20.88646037
 20
-85.50493766
 10
-21.25439793
 20
-85.01930073
 10
-21.6059628
 20
-84.52434295000001
 10
-21.94086057
 20
-84.0204656
 10
-22.25879681
 20
-83.50806991
 10
-22.55947713
 20
-82.98755713
 10
-22.84260709
 20
-82.45932852000001
 10
-23.10789229
 20
-81.92378533000001
 10
-23.35503832
 20
-81.3813288
 10
-23.58375076
 20
-80.83236019999999
 10
-23.79373519
 20
-80.27728077
 10
-23.9846972
 20
-79.71649175
 10
-24.15634238
 20
-79.15039441000001
 10
-24.30837632
 20
-78.57938998999999
 10
-24.44050459
 20
-78.00387974999999
 10
-24.55243278
 20
-77.42426493
 10
-24.64386649
 20
-76.84094679000001
 10
-24.71451129
 20
-76.25432657000001
 10
-24.83462082
 20
-75.24651434
 10
-24.97904503
 20
-74.40142129
 10
-25.06450595
 20
-74.03107174999999
 10
-25.16100252
 20
-73.69081478
 10
-25.27018705
 20
-73.37712127999999
 10
-25.39371187
 20
-73.08646217999999
 10
-25.53322931
 20
-72.81530840000001
 10
-25.69039169
 20
-72.56013086
 10
-25.86685133
 20
-72.31740048
 10
-26.06426056
 20
-72.08358818
 10
-26.2842717
 20
-71.85516488000001
 10
-26.52853708
 20
-71.62860151
 10
-27.09643985
 20
-71.1669382
 10
-29.11497839
 20
-69.63259111000001
 10
-29.59936086
 20
-72.42377577
 10
-29.72470922
 20
-73.0994388
 10
-29.86543849
 20
-73.77117204
 10
-30.0212842
 20
-74.43852853
 10
-30.19198188
 20
-75.10106132999999
 10
-30.37726707
 20
-75.75832348
 10
-30.57687531
 20
-76.40986804
 10
-30.79054213
 20
-77.05524805999999
 10
-31.01800307
 20
-77.69401657999999
 10
-31.25899368
 20
-78.32572666
 10
-31.51324947
 20
-78.94993134
 10
-31.780506
 20
-79.56618367999999
 10
-32.0604988
 20
-80.17403673
 10
-32.3529634
 20
-80.77304353
 10
-32.65763535
 20
-81.36275713000001
 10
-32.97425017
 20
-81.9427306
 10
-33.30254341
 20
-82.51251696999998
 10
-33.6422506
 20
-83.07166929
 10
-33.99310728
 20
-83.61974062999999
 10
-34.35484899
 20
-84.15628400999999
 10
-34.72721126
 20
-84.68085250999999
 10
-35.10992962
 20
-85.19299915999999
 10
-35.50273963
 20
-85.69227702
 10
-35.9053768
 20
-86.17823913
 10
-36.31757669000001
 20
-86.65043855
 10
-36.73907482
 20
-87.10842832999999
 10
-37.16960674
 20
-87.55176151
 10
-37.60890797
 20
-87.97999115000001
 10
-38.05671407
 20
-88.39267029
 10
-38.51276055000001
 20
-88.78935199
 10
-38.97678297
 20
-89.16958929999999
 10
-39.44851685
 20
-89.53293526999999
 10
-39.92769774
 20
-89.87894294
 10
-43.1788182
 20
-92.14946273
 10
-27.70192635
 20
-92.11570431
 10
-23.5268115
 20
-92.09942949
 10
-20.16645083
 20
-92.06855961
 10
-17.55814347
 20
-92.01990352000001
 10
-15.63918854
 20
-91.95027011
 10
-14.91862422
 20
-91.90658967999999
 10
-14.34688517
 20
-91.85646825
 10
-13.9161338
 20
-91.79950692
 10
-13.61853249
 20
-91.7353068
 10
-13.44624363
 20
-91.66346901
 10
-13.40464211
 20
-91.62456133
 10
-13.39142961
 20
-91.58359464
 10
-13.40562641
 20
-91.54051909999999
 10
-13.44625282
 20
-91.49528481999999
 10
-13.60287566
 20
-91.39814065000001
  0
LWPOLYLINE
  5
69F
330
74
100
AcDbEntity
  8
ПО_УМОЛЧАНИЮ
100
AcDbPolyline
 90
       55
 70
     1
 43
0.0
 10
18.66299802
 20
-90.63327447
 10
17.63478556
 20
-90.21348297000001
 10
17.16092292
 20
-89.99893032000001
 10
16.71058499
 20
-89.77892746
 10
16.28129351
 20
-89.55171518
 10
15.87057022
 20
-89.31553427
 10
15.47593685
 20
-89.06862551999999
 10
15.09491514
 20
-88.80922973
 10
14.72502683
 20
-88.53558768
 10
14.36379366
 20
-88.24594017
 10
14.00873736
 20
-87.93852798999999
 10
13.65737969
 20
-87.61159191999999
 10
13.30724236
 20
-87.26337277
 10
12.95584712
 20
-86.89211132
 10
12.23936988
 20
-86.07342469
 10
11.79508524
 20
-85.55514066
 10
11.37537214
 20
-85.09115744
 10
10.98079522
 20
-84.68171614
 10
10.61191908
 20
-84.32705787999999
 10
10.26930835
 20
-84.02742376
 10
9.953527649999999
 20
-83.78305491
 10
9.665141589999999
 20
-83.59419243000001
 10
9.404714809999999
 20
-83.46107743000001
 10
9.17281191
 20
-83.38395103000001
 10
8.969997519999999
 20
-83.36305432999999
 10
8.879674959999999
 20
-83.37376747
 10
8.796836259999999
 20
-83.39862845
 10
8.721552
 20
-83.43766741999999
 10
8.65389275
 20
-83.49091450999999
 10
8.5417316
 20
-83.64015360000001
 10
8.46091745
 20
-83.84658684999999
 10
8.4120149
 20
-84.11045536999999
 10
8.39558858
 20
-84.43200027000001
 10
8.381324709999999
 20
-84.55513231999999
 10
8.33937741
 20
-84.69413565000001
 10
8.271013149999999
 20
-84.84795578000001
 10
8.17749837
 20
-85.01553828
 10
7.920083159999999
 20
-85.38777256999999
 10
7.57726348
 20
-85.80240292
 10
7.159171009999999
 20
-86.25099373999999
 10
6.67593745
 20
-86.72510943
 10
6.1376945
 20
-87.21631440000001
 10
5.554573869999999
 20
-87.71617306000001
 10
4.936707229999999
 20
-88.21624980000001
 10
4.29422629
 20
-88.70810905
 10
3.63726275
 20
-89.18331519
 10
2.975948289999999
 20
-89.63343264
 10
2.32041463
 20
-90.05002580999999
 10
1.680793439999999
 20
-90.42465909
 10
1.067216429999999
 20
-90.7488969
 10
0.4898153
 20
-91.01430363
 10
-2.09560562
 20
-92.09872122
 10
10.20441516
 20
-92.10312821
 10
22.50443595
 20
-92.1075352
 10
18.66299802
 20
-90.63327447
  0
LWPOLYLINE
  5
6D8
330
74
100
AcDbEntity
  8
ПО_УМОЛЧАНИЮ
100
AcDbPolyline
 90
       41
 70
     1
 43
0.0
 10
46.60147264999999
 20
-89.13569538
 10
46.63823461999999
 20
-88.58795044999999
 10
46.65796038999999
 20
-88.07695262999999
 10
46.66126009
 20
-87.61388581
 10
46.64874381999999
 20
-87.20993391
 10
46.62102168999999
 20
-86.87628082999999
 10
46.57870382
 20
-86.62411046
 10
46.52240032
 20
-86.46460670999999
 10
46.48919462
 20
-86.42309979
 10
46.4527213
 20
-86.40895347999999
 10
46.32560290999999
 20
-86.43745644
 10
46.10467649999999
 20
-86.51914675
 10
45.43001148
 20
-86.81917793
 10
44.52594986
 20
-87.26322407999999
 10
43.48971528999999
 20
-87.80546224
 10
42.89914164
 20
-88.10550406999999
 10
42.21374356
 20
-88.42313695999999
 10
41.45813558999999
 20
-88.74871183999999
 10
40.65693226999999
 20
-89.07257964000001
 10
39.83474814
 20
-89.38509129000001
 10
39.01619773
 20
-89.6765977
 10
38.22589558
 20
-89.9374498
 10
37.48845624
 20
-90.15799853
 10
35.34438534
 20
-90.76883551999999
 10
34.5091615
 20
-91.0187729
 10
33.83391661
 20
-91.23468112999999
 10
33.32022908
 20
-91.41877890000001
 10
32.96967731
 20
-91.57328490000001
 10
32.85607059
 20
-91.64013432
 10
32.7838397
 20
-91.70041781
 10
32.75318196
 20
-91.7544127
 10
32.76429466
 20
-91.80239632000001
 10
32.8173751
 20
-91.84464602
 10
32.91262059000001
 20
-91.88143913000001
 10
33.23039589
 20
-91.93976492
 10
33.71919898
 20
-91.97959238000001
 10
34.38060824
 20
-92.00314021
 10
36.22755894
 20
-92.01027170000001
 10
38.78387522
 20
-91.97890892
 10
46.38094688
 20
-91.86243727
 10
46.60147264999999
 20
-89.13569538
  0
LWPOLYLINE
  5
703
330
74
100
AcDbEntity
  8
ПО_УМОЛЧАНИЮ
100
AcDbPolyline
 90
       59
 70
     1
 43
0.0
 10
69.50799306
 20
-80.73674481000001
 10
69.74989845999999
 20
-78.57962382
 10
69.95502360999999
 20
-76.56783326999999
 10
70.12326511000001
 20
-74.69812301000001
 10
70.25451957999999
 20
-72.96724287
 10
70.34868361
 20
-71.37194270000001
 10
70.40565383
 20
-69.90897235
 10
70.42532684
 20
-68.57508163999999
 10
70.40759925
 20
-67.36702042000001
 10
70.35236768
 20
-66.28153854
 10
70.25952873
 20
-65.31538582999999
 10
70.12897902
 20
-64.46531213
 10
70.04953030999999
 20
-64.08278924
 10
69.96061514
 20
-63.72806729
 10
69.86222059000001
 20
-63.40074002
 10
69.75433373
 20
-63.10040115
 10
69.63694162999999
 20
-62.82664442
 10
69.51003136999999
 20
-62.57906355
 10
69.37359004
 20
-62.35725226999999
 10
69.2276047
 20
-62.16080432
 10
69.07206243
 20
-61.98931343
 10
68.90695030999999
 20
-61.84237332
 10
68.58713566999999
 20
-61.61484651
 10
68.26974167999999
 20
-61.44285373999999
 10
67.95351785
 20
-61.32717838
 10
67.63721366
 20
-61.26860385
 10
67.31957860999999
 20
-61.26791353
 10
66.99936219
 20
-61.32589080999999
 10
66.6753139
 20
-61.4433191
 10
66.34618322999999
 20
-61.62098179
 10
66.01071967999999
 20
-61.85966226
 10
65.66767274
 20
-62.16014392
 10
65.31579189999999
 20
-62.52321015999999
 10
64.95382666000001
 20
-62.94964438
 10
64.58052651
 20
-63.44022996999999
 10
64.19464096
 20
-63.99575032
 10
63.79491948
 20
-64.61698882
 10
63.38011158
 20
-65.30472888
 10
63.17826037999999
 20
-65.66715186
 10
62.95903733
 20
-66.09425204999999
 10
62.47391488
 20
-67.1267255
 10
61.93562265
 20
-68.3706321
 10
61.35503909
 20
-69.79445472
 10
60.74304264
 20
-71.36667622
 10
60.11051171
 20
-73.05577947999999
 10
59.46832477
 20
-74.83024734999999
 10
58.82736022999999
 20
-76.65856270999999
 10
58.19849654
 20
-78.50920841999999
 10
57.59261214
 20
-80.35066734999999
 10
57.02058545999999
 20
-82.15142237
 10
56.49329492999999
 20
-83.87995634000001
 10
56.021619
 20
-85.50475214
 10
55.6164361
 20
-86.99429262
 10
55.28862466999999
 20
-88.31706066
 10
55.04906314
 20
-89.44153912
 10
54.53724438
 20
-92.14946273
 10
61.35689487
 20
-92.14946273
 10
68.17654534999999
 20
-92.14946273
 10
69.50799306
 20
-80.73674481000001
  0
LWPOLYLINE
  5
740
330
74
100
AcDbEntity
  8
ПО_УМОЛЧАНИЮ
100
AcDbPolyline
 90
       97
 70
     1
 43
0.0
 10
90.14861942999999
 20
-91.28271651
 10
90.02941991
 20
-91.14821671999999
 10
89.92310188999999
 20
-90.98353147
 10
89.82952477999999
 20
-90.78641455999999
 10
89.74854797
 20
-90.5546198
 10
89.68003088999999
 20
-90.28590099
 10
89.62383293
 20
-89.97801192
 10
89.57981352
 20
-89.62870638
 10
89.54783205
 20
-89.23573819000001
 10
89.5194206
 20
-88.30982902
 10
89.53747384999999
 20
-87.18231477999999
 10
89.60086708
 20
-85.83522587
 10
89.70847556
 20
-84.25059268
 10
90.22963182999999
 20
-77.11164152000001
 10
90.42474402999999
 20
-74.15465872999999
 10
90.57424536
 20
-71.57487077999999
 10
90.67666063
 20
-69.34892741
 10
90.73051467
 20
-67.45347834
 10
90.73433227
 20
-65.86517331999999
 10
90.71701641999998
 20
-65.17890287
 10
90.68663825999999
 20
-64.56066208
 10
90.6430134
 20
-64.00753217
 10
90.58595744999999
 20
-63.51659435
 10
90.51528598999999
 20
-63.08492985
 10
90.43081465
 20
-62.70961986999999
 10
90.33235899999999
 20
-62.38774563999999
 10
90.21973467
 20
-62.11638837999999
 10
90.09275725
 20
-61.89262929
 10
89.95124234
 20
-61.7135496
 10
89.79500554000001
 20
-61.57623053
 10
89.62386245999999
 20
-61.47775328
 10
89.43762869
 20
-61.41519908
 10
89.23611984
 20
-61.38564914999999
 10
89.01915151
 20
-61.3861847
 10
88.78653931
 20
-61.41388693999999
 10
88.53809883
 20
-61.4658371
 10
88.27364567
 20
-61.53911639
 10
87.96716195
 20
-61.66457800999999
 10
87.64494683
 20
-61.85760573999999
 10
87.30825215999999
 20
-62.11553188999999
 10
86.95832979
 20
-62.43568876
 10
86.59643155999999
 20
-62.81540866
 10
86.22380934
 20
-63.25202389
 10
85.84171494999999
 20
-63.74286675
 10
85.45140027
 20
-64.28526954
 10
85.05411712
 20
-64.87656456999999
 10
84.65111736
 20
-65.51408413999999
 10
84.24365284
 20
-66.19516054
 10
83.83297541000001
 20
-66.91712608999999
 10
83.42033691999999
 20
-67.67731308000001
 10
83.00698921
 20
-68.47305382
 10
82.18317353999999
 20
-70.16052575
 10
81.37154319
 20
-71.95820029
 10
80.58211294999999
 20
-73.84473586999999
 10
79.82489759999999
 20
-75.79879090999999
 10
79.10991194000001
 20
-77.79902380999999
 10
78.44717075
 20
-79.82409301
 10
78.13852146000001
 20
-80.83927198000001
 10
77.84668882
 20
-81.85265691999999
 10
77.57292470999999
 20
-82.86158014999999
 10
77.31848095
 20
-83.86337397
 10
77.08460940000001
 20
-84.85537067
 10
76.87256191
 20
-85.83490256000001
 10
76.43307454000001
 20
-87.98371342000001
 10
76.28015170000001
 20
-88.84591677999999
 10
76.18671691999999
 20
-89.58030180999999
 10
76.16580931999999
 20
-89.90276159
 10
76.16397585
 20
-90.19710576999999
 10
76.18261721
 20
-90.46461401
 10
76.22313412
 20
-90.70656597000001
 10
76.28692726
 20
-90.92424130000001
 10
76.37539735
 20
-91.11891967
 10
76.48994509000001
 20
-91.29188073999999
 10
76.63197117999999
 20
-91.44440417
 10
76.80287633
 20
-91.57776961999999
 10
77.00406124
 20
-91.69325675000001
 10
77.23692662000001
 20
-91.79214522
 10
77.50287317
 20
-91.87571468999999
 10
77.8033016
 20
-91.94524482
 10
78.13961260000001
 20
-92.00201527
 10
78.92548515999999
 20
-92.08239578
 10
79.87169648
 20
-92.1270935
 10
80.98945218999999
 20
-92.14634571000001
 10
83.78441933999999
 20
-92.14946273
 10
85.92872099
 20
-92.14352209999999
 10
87.59196514999999
 20
-92.12135606
 10
88.82199819
 20
-92.07644835000001
 10
89.28951252
 20
-92.04343005
 10
89.66666646
 20
-92.00228275
 10
89.95944081000001
 20
-91.95219190999999
 10
90.17381636000001
 20
-91.892343
 10
90.3157739
 20
-91.8219215
 10
90.39129424
 20
-91.74011287
 10
90.40635815999999
 20
-91.64610258999999
 10
90.36694647
 20
-91.53907612999999
 10
90.27903996
 20
-91.41821894000001
 10
90.14861942999999
 20
-91.28271651
  0
LWPOLYLINE
  5
7A3
330
74
100
AcDbEntity
  8
ПО_УМОЛЧАНИЮ
100
AcDbPolyline
 90
     1961
 70
     1
 43
0.0
 10
-43.14993716
 20
-89.7097463
 10
-42.80887374
 20
-89.40064771999999
 10
-42.46992325999999
 20
-89.05406222000001
 10
-42.13380528
 20
-88.67206727999999
 10
-41.80123938
 20
-88.25674039
 10
-41.4729451
 20
-87.81015904
 10
-41.14964201
 20
-87.33440071
 10
-40.83204967999999
 20
-86.83154288999999
 10
-40.52088765999999
 20
-86.30366307
 10
-40.21687553
 20
-85.75283873
 10
-39.92073284
 20
-85.18114735000001
 10
-39.63317915
 20
-84.59066642999999
 10
-39.35493403
 20
-83.98347343999999
 10
-38.82924774
 20
-82.72726124
 10
-38.34943048
 20
-81.42913062999999
 10
-37.92123873
 20
-80.10570151000001
 10
-37.55042901
 20
-78.77359376
 10
-37.38834131
 20
-78.10947910999999
 10
-37.24275781
 20
-77.44942727
 10
-37.11439806
 20
-76.79551571000001
 10
-37.00398162
 20
-76.14982193
 10
-36.91222807
 20
-75.5144234
 10
-36.83985696
 20
-74.89139763
 10
-36.78758786
 20
-74.28282208
 10
-36.75614033
 20
-73.69077426
 10
-36.74623392
 20
-73.11733164
 10
-36.75858821
 20
-72.56457171
 10
-36.79392276
 20
-72.03457195999999
 10
-36.85295712
 20
-71.52940987
 10
-37.08588855
 20
-70.11891654999999
 10
-37.37785002
 20
-68.64627142999999
 10
-37.69154313
 20
-67.28593938999999
 10
-37.84488332
 20
-66.70241104999999
 10
-37.98966952
 20
-66.21238529
 10
-38.20318138
 20
-65.58953395999999
 10
-38.30776281
 20
-65.3295927
 10
-38.41435274
 20
-65.10142698
 10
-38.5255448
 20
-64.90312624000001
 10
-38.64393261
 20
-64.73277993
 10
-38.7721098
 20
-64.58847748
 10
-38.91266998
 20
-64.46830835
 10
-39.06820679
 20
-64.37036197000001
 10
-39.24131385
 20
-64.29272779999999
 10
-39.43458478
 20
-64.23349528
 10
-39.6506132
 20
-64.19075384999999
 10
-39.89199275
 20
-64.16259295999999
 10
-40.16131704
 20
-64.14710205
 10
-40.79417434999999
 20
-64.14648796
 10
-41.27317847999999
 20
-64.14448928
 10
-41.73067618
 20
-64.11696452
 10
-42.16531961
 20
-64.06473434
 10
-42.57576089999999
 20
-63.98861945
 10
-42.96065218999999
 20
-63.88944052
 10
-43.31864560999999
 20
-63.76801823
 10
-43.64839331
 20
-63.62517328
 10
-43.94854741
 20
-63.46172634
 10
-44.21776007
 20
-63.2784981
 10
-44.45468341
 20
-63.07630925
 10
-44.65796958
 20
-62.85598046
 10
-44.82627071999999
 20
-62.61833242
 10
-44.95823895
 20
-62.36418582
 10
-45.05252643
 20
-62.09436134
 10
-45.10778528
 20
-61.80967966
 10
-45.12266764999999
 20
-61.51096147
 10
-45.10757959
 20
-61.30664742
 10
-45.07053795
 20
-61.09926186
 10
-45.01242691
 20
-60.88943157
 10
-44.93413063
 20
-60.67778334999999
 10
-44.83653326999999
 20
-60.46494397
 10
-44.72051899
 20
-60.25154023
 10
-44.43677633
 20
-59.82554680999999
 10
-44.08997593
 20
-59.40481737999999
 10
-43.68719108999999
 20
-58.99436622999999
 10
-43.2354951
 20
-58.59920766
 10
-42.74196126999999
 20
-58.22435596
 10
-42.21366289
 20
-57.87482544
 10
-41.65767323999999
 20
-57.55563038
 10
-41.08106562999999
 20
-57.27178508
 10
-40.49091333999999
 20
-57.02830384
 10
-39.89428969
 20
-56.83020095999999
 10
-39.29826794
 20
-56.68249072
 10
-38.70992142
 20
-56.59018743
 10
-38.42083676
 20
-56.56638036
 10
-38.13632339
 20
-56.55830538
 10
-37.90344972
 20
-56.56754375
 10
-37.66130169
 20
-56.5947553
 10
-37.15313607000001
 20
-56.70007663999999
 10
-36.61973356
 20
-56.86822676
 10
-36.06900116
 20
-57.093163
 10
-35.50884588000001
 20
-57.36884273
 10
-34.94717475
 20
-57.68922329
 10
-34.39189477
 20
-58.04826205
 10
-33.85091296000001
 20
-58.43991636
 10
-33.33213632
 20
-58.85814358
 10
-32.84347188
 20
-59.29690106
 10
-32.39282663
 20
-59.75014616
 10
-31.98810761
 20
-60.21183623
 10
-31.63722181
 20
-60.67592863
 10
-31.34807626
 20
-61.13638071
 10
-31.22912701
 20
-61.36335331
 10
-31.12857796
 20
-61.58714983
 10
-31.04741747
 20
-61.80701496
 10
-30.98663392
 20
-62.02219335
 10
-30.92691359
 20
-62.23571689999999
 10
-30.84299165
 20
-62.47607501
 10
-30.60869275
 20
-63.0267208
 10
-30.29603679
 20
-63.65298246
 10
-29.91732332
 20
-64.33371173000001
 10
-29.4848519
 20
-65.04776035999999
 10
-29.01092207
 20
-65.77398008999999
 10
-28.5078334
 20
-66.49122264999999
 10
-27.98788544
 20
-67.17833981
 10
-25.44593267
 20
-70.4026066
 10
-23.02658125
 20
-65.63314696
 10
-22.47642975
 20
-64.60576949
 10
-21.89007923
 20
-63.62103019
 10
-21.26801552
 20
-62.67934746
 10
-20.61072449
 20
-61.78113971
 10
-19.91869198
 20
-60.92682535
 10
-19.19240384
 20
-60.11682279
 10
-18.43234592
 20
-59.35155044
 10
-17.63900407
 20
-58.63142671
 10
-16.81286414
 20
-57.95687
 10
-15.95441199
 20
-57.32829871999999
 10
-15.06413345
 20
-56.74613128
 10
-14.14251439
 20
-56.2107861
 10
-13.19004065
 20
-55.72268157999999
 10
-12.20719807
 20
-55.28223612
 10
-11.19447252
 20
-54.88986815
 10
-10.15234984
 20
-54.54599606
 10
-9.070466839999999
 20
-54.22906454999999
 10
-8.173773289999999
 20
-53.99804288
 10
-7.777959199999999
 20
-53.91411466
 10
-7.40814645
 20
-53.85090361
 10
-7.05756969
 20
-53.8081563
 10
-6.71946358
 20
-53.78561931
 10
-6.387062779999999
 20
-53.7830392
 10
-6.05360195
 20
-53.80016256
 10
-5.71231573
 20
-53.83673593000001
 10
-5.35643879
 20
-53.89250590999999
 10
-4.573851379999999
 20
-54.06062195
 10
-3.651716969999999
 20
-54.30248324
 10
-3.109873279999999
 20
-54.47025704
 10
-2.588246209999999
 20
-54.6688521
 10
-2.087306729999999
 20
-54.89693786
 10
-1.60752581
 20
-55.15318375999999
 10
-1.149374429999999
 20
-55.43625926
 10
-0.7133235500000001
 20
-55.7448338
 10
-0.29984414
 20
-56.07757681999999
 10
0.09059282
 20
-56.43315777
 10
0.45751637
 20
-56.81024609
 10
0.8004555299999999
 20
-57.20751124
 10
1.118939329999999
 20
-57.62362265
 10
1.412496799999999
 20
-58.05724978
 10
1.68065697
 20
-58.50706206
 10
1.92294888
 20
-58.97172894
 10
2.138901539999999
 20
-59.44991987
 10
2.328043989999999
 20
-59.94030429
 10
2.48990526
 20
-60.44155166
 10
2.62401438
 20
-60.95233141
 10
2.72990037
 20
-61.47131298
 10
2.80709227
 20
-61.99716584
 10
2.855119099999999
 20
-62.52855940999999
 10
2.8735099
 20
-63.06416314999999
 10
2.861793689999999
 20
-63.6026465
 10
2.8194995
 20
-64.14267891
 10
2.74615637
 20
-64.68292983000001
 10
2.64129331
 20
-65.22206869
 10
2.50443937
 20
-65.75876494
 10
2.335123559999999
 20
-66.29168803999999
 10
2.132874929999999
 20
-66.81950741999999
 10
1.89722249
 20
-67.34089253
 10
1.62769528
 20
-67.85451282
 10
1.32382232
 20
-68.35903772
 10
1.054023179999999
 20
-68.75489704999999
 10
0.75142469
 20
-69.15548902000001
 10
0.4178954400000001
 20
-69.55968695999999
 10
0.05530402
 20
-69.96636418
 10
-0.33448098
 20
-70.374394
 10
-0.74959096
 20
-70.78264973
 10
-1.188157329999999
 20
-71.1900047
 10
-1.648311499999999
 20
-71.59533222
 10
-2.62590886
 20
-72.39539817
 10
-3.6674343
 20
-73.17383413
 10
-4.757939089999999
 20
-73.92162663
 10
-5.88247447
 20
-74.62976220999999
 10
-7.02609172
 20
-75.28922740999999
 10
-8.17384209
 20
-75.89100876999999
 10
-9.31077684
 20
-76.42609283
 10
-9.870516869999999
 20
-76.66580664999999
 10
-10.42194723
 20
-76.88546610999999
 10
-10.9631993
 20
-77.0839445
 10
-11.49240451
 20
-77.26011515999999
 10
-12.00769427
 20
-77.41285139
 10
-12.50719996
 20
-77.54102652
 10
-12.98905302
 20
-77.64351385000001
 10
-13.45138483
 20
-77.71918671999999
 10
-13.89232682
 20
-77.76691843
 10
-14.31001038
 20
-77.7855823
 10
-14.70087036
 20
-77.80701473
 10
-14.86215193
 20
-77.83366228
 10
-15.0017607
 20
-77.87350778
 10
-15.12051625
 20
-77.92848402
 10
-15.21923821
 20
-78.00052382
 10
-15.29874616
 20
-78.09155997000001
 10
-15.35985972
 20
-78.20352527
 10
-15.40339848
 20
-78.33835252
 10
-15.43018206
 20
-78.49797452
 10
-15.44103005
 20
-78.68432407
 10
-15.43676206
 20
-78.89933397
 10
-15.38615655
 20
-79.42306603
 10
-15.28492234
 20
-80.08463308000001
 10
-15.16743912
 20
-80.69370163
 10
-15.02390516
 20
-81.28782381
 10
-14.85510248
 20
-81.86643344
 10
-14.66181311
 20
-82.42896434
 10
-14.44481905
 20
-82.97485030999999
 10
-14.20490235
 20
-83.50352517999999
 10
-13.94284502
 20
-84.01442276999999
 10
-13.65942908
 20
-84.50697686999999
 10
-13.35543655
 20
-84.98062131999999
 10
-13.03164946
 20
-85.43478992
 10
-12.68884984
 20
-85.86891649
 10
-12.32781969
 20
-86.28243484
 10
-11.94934105
 20
-86.67477879000001
 10
-11.55419593
 20
-87.04538216000001
 10
-11.14316637
 20
-87.39367875000001
 10
-10.71703438
 20
-87.71910239
 10
-10.27658198
 20
-88.02108689
 10
-9.822591199999999
 20
-88.29906605999999
 10
-9.35584406
 20
-88.55247371
 10
-8.877122579999999
 20
-88.78074367000001
 10
-8.387208779999999
 20
-88.98330975
 10
-7.886884689999999
 20
-89.15960576000001
 10
-7.376932329999999
 20
-89.30906550999999
 10
-6.858133719999999
 20
-89.43112283000001
 10
-6.331270879999999
 20
-89.52521153000001
 10
-5.797125839999999
 20
-89.59076540999999
 10
-5.256480619999999
 20
-89.62721831000001
 10
-4.710117239999999
 20
-89.63400402000001
 10
-4.15881772
 20
-89.61055636999999
 10
-3.603364089999999
 20
-89.55630918
 10
-3.04453837
 20
-89.47069625000001
 10
-2.483122569999999
 20
-89.35315139
 10
-1.77754886
 20
-89.16375576
 10
-1.06750085
 20
-88.93124185999999
 10
-0.35723438
 20
-88.65856221999999
 10
0.34899472
 20
-88.34866940000001
 10
1.0469306
 20
-88.00451595
 10
1.73231742
 20
-87.62905442
 10
2.400899359999999
 20
-87.22523735000001
 10
3.048420559999999
 20
-86.79601729999999
 10
3.670625199999999
 20
-86.34434682
 10
4.26325743
 20
-85.87317844000001
 10
4.822061419999999
 20
-85.38546472
 10
5.34278133
 20
-84.88415822
 10
5.821161319999999
 20
-84.37221147
 10
6.252945549999999
 20
-83.85257703
 10
6.633878179999999
 20
-83.32820744999999
 10
6.959703379999999
 20
-82.80205526999999
 10
7.13380681
 20
-82.47852048
 10
7.28970901
 20
-82.15499277000001
 10
7.427902369999999
 20
-81.82723509
 10
7.54887933
 20
-81.49101040999999
 10
7.65313231
 20
-81.14208168000001
 10
7.741153709999999
 20
-80.77621186
 10
7.813435949999999
 20
-80.3891639
 10
7.87047145
 20
-79.97670078
 10
7.912752639999999
 20
-79.53458544
 10
7.94077192
 20
-79.05858084000001
 10
7.955994429999999
 20
-77.9879557
 10
7.920078329999999
 20
-76.73092903
 10
7.83696295
 20
-75.25360449
 10
7.752945089999999
 20
-73.72248928000001
 10
7.72262827
 20
-72.39420681999999
 10
7.72960543
 20
-71.79034403999999
 10
7.752405079999999
 20
-71.21824886
 10
7.79182629
 20
-70.67160773000001
 10
7.84866813
 20
-70.14410714
 10
7.92372969
 20
-69.62943354
 10
8.017810029999999
 20
-69.12127341
 10
8.13170824
 20
-68.61331321
 10
8.26622339
 20
-68.09923943
 10
8.42215455
 20
-67.57273850999999
 10
8.60030081
 20
-67.02749694000001
 10
9.026434899999999
 20
-65.85553769
 10
9.362624479999999
 20
-65.04104166000001
 10
9.74553303
 20
-64.22992161999999
 10
10.17318967
 20
-63.42444296
 10
10.6436235
 20
-62.62687106
 10
11.15486363
 20
-61.83947133
 10
11.70493919
 20
-61.06450916
 10
12.29187927
 20
-60.30424994
 10
12.91371301
 20
-59.56095905
 10
13.5684695
 20
-58.8369019
 10
14.25417786
 20
-58.13434387
 10
14.96886721
 20
-57.45555035999999
 10
15.71056665
 20
-56.80278676
 10
16.4773053
 20
-56.17831846
 10
17.26711228
 20
-55.58441085
 10
18.07801669
 20
-55.02332932
 10
18.90804764
 20
-54.49733928
 10
19.51380623
 20
-54.16469661
 10
20.17797018
 20
-53.86173676
 10
20.89199701
 20
-53.58936017
 10
21.64734423
 20
-53.34846723
 10
22.43546937
 20
-53.13995838
 10
23.24782994
 20
-52.96473404
 10
24.07588346
 20
-52.82369462
 10
24.91108744
 20
-52.71774054
 10
25.74489941
 20
-52.64777222
 10
26.56877688
 20
-52.61469009
 10
27.37417737
 20
-52.61939455
 10
28.1525584
 20
-52.66278602999999
 10
28.89537749
 20
-52.74576495
 10
29.59409214
 20
-52.86923173
 10
30.24015989
 20
-53.03408678
 10
30.54078165
 20
-53.13231629
 10
30.82503824
 20
-53.24123053
 10
31.27313789
 20
-53.45463642
 10
31.70726673
 20
-53.71584139
 10
32.12536576
 20
-54.02141557
 10
32.52537598
 20
-54.36792909
 10
32.90523841000001
 20
-54.75195208
 10
33.26289404
 20
-55.17005469
 10
33.59628388
 20
-55.61880702999999
 10
33.90334894
 20
-56.09477924
 10
34.18203022
 20
-56.59454145
 10
34.43026872
 20
-57.1146638
 10
34.64600545
 20
-57.65171641
 10
34.82718141
 20
-58.20226942
 10
34.97173761
 20
-58.76289296
 10
35.07761505
 20
-59.33015715999999
 10
35.14275474
 20
-59.90063215
 10
35.16509768000001
 20
-60.47088806
 10
35.15355238
 20
-61.10380958
 10
35.11736203
 20
-61.68352849
 10
35.0550937
 20
-62.21175148
 10
34.96531444
 20
-62.69018524999999
 10
34.84659133
 20
-63.1205365
 10
34.69749142
 20
-63.50451193
 10
34.51658179
 20
-63.84381823
 10
34.30242949
 20
-64.14016211
 10
34.05360159
 20
-64.39525023999999
 10
33.76866515
 20
-64.61078935
 10
33.44618723
 20
-64.78848611
 10
33.08473491
 20
-64.93004723999999
 10
32.68287524
 20
-65.03717940999999
 10
32.23917528
 20
-65.11158935
 10
31.7522021
 20
-65.15498372999999
 10
31.22052277
 20
-65.16906925
 10
29.7078755
 20
-65.14885012
 10
29.09835361
 20
-65.11742554
 10
28.58314472
 20
-65.0663237
 10
28.15958274
 20
-64.99144416
 10
27.82500155
 20
-64.88868648
 10
27.69024558
 20
-64.82557195
 10
27.57673503
 20
-64.75395023
 10
27.48413661
 20
-64.67330875
 10
27.41211707
 20
-64.58313495999999
 10
27.36034315
 20
-64.48291631
 10
27.32848157
 20
-64.37214023999999
 10
27.31619908
 20
-64.25029419000001
 10
27.32316241
 20
-64.11686561999999
 10
27.3490383
 20
-63.97134196999999
 10
27.39349348
 20
-63.81321067
 10
27.53680866
 20
-63.45707495
 10
27.75044185
 20
-63.04435802
 10
28.03172693
 20
-62.57095944
 10
28.3779978
 20
-62.03277877
 10
28.78658833
 20
-61.42571558
 10
29.36348514
 20
-60.55813195
 10
29.80948645
 20
-59.82937702
 10
30.13136326
 20
-59.21768991
 10
30.24787091
 20
-58.94894651
 10
30.33588656
 20
-58.70130973
 10
30.39625659
 20
-58.47205946999999
 10
30.42982737
 20
-58.25847559999999
 10
30.43744527
 20
-58.05783803
 10
30.41995668
 20
-57.86742664
 10
30.37820796
 20
-57.68452132
 10
30.3130455
 20
-57.50640195999999
 10
30.22531566
 20
-57.33034845
 10
30.11586483
 20
-57.15364067
 10
29.970025
 20
-56.9539358
 10
29.81548786
 20
-56.77386524
 10
29.65253962
 20
-56.61314347
 10
29.48146651
 20
-56.47148497999999
 10
29.30255476
 20
-56.34860424
 10
29.11609059
 20
-56.24421573
 10
28.92236022
 20
-56.15803392
 10
28.72164988
 20
-56.08977329
 10
28.5142458
 20
-56.03914831
 10
28.3004342
 20
-56.00587347
 10
28.08050131
 20
-55.98966322999999
 10
27.85473334
 20
-55.99023208
 10
27.62341654
 20
-56.0072945
 10
27.38683711
 20
-56.04056495
 10
26.89903531
 20
-56.15458788
 10
26.39361773
 20
-56.33001668
 10
25.87287417
 20
-56.56456717
 10
25.33909445
 20
-56.85595516
 10
24.79456836
 20
-57.20189646
 10
24.2415857
 20
-57.60010689
 10
23.68243626
 20
-58.04830225999999
 10
23.11940987
 20
-58.54419838
 10
22.5547963
 20
-59.08551107
 10
21.99088537
 20
-59.66995613
 10
21.42996688
 20
-60.29524938
 10
20.87433063
 20
-60.95910663
 10
20.32626641
 20
-61.65924369999999
 10
19.78806403
 20
-62.3933764
 10
19.26201329
 20
-63.15922054
 10
18.75040399
 20
-63.95449193000001
 10
18.25552593
 20
-64.77690638999999
 10
17.77966892
 20
-65.62417972999999
 10
17.32512275
 20
-66.49402775999999
 10
16.89417722
 20
-67.38416628999999
 10
16.48912214
 20
-68.29231115
 10
16.11224731
 20
-69.21617813000001
 10
15.76584253
 20
-70.15348305999999
 10
15.45219759
 20
-71.10194174
 10
15.17360231
 20
-72.05926999
 10
14.94900891
 20
-72.96637706999999
 10
14.77059418
 20
-73.85851154
 10
14.63829982
 20
-74.7352927
 10
14.55206749
 20
-75.59633981000001
 10
14.51183889
 20
-76.44127216
 10
14.51755569
 20
-77.26970901
 10
14.56915958
 20
-78.08126966
 10
14.66659224
 20
-78.87557337
 10
14.80979535
 20
-79.65223942
 10
14.9987106
 20
-80.41088709
 10
15.23327966
 20
-81.15113566999999
 10
15.51344422
 20
-81.87260440999999
 10
15.83914596
 20
-82.57491261
 10
16.21032657
 20
-83.25767953999999
 10
16.62692772
 20
-83.92052447999999
 10
17.08889109
 20
-84.5630667
 10
17.59292557
 20
-85.18991327
 10
18.10069909
 20
-85.75385868999999
 10
18.62153826
 20
-86.25762145000001
 10
18.88977204
 20
-86.48778387
 10
19.16476972
 20
-86.70392005
 10
19.44769713
 20
-86.90636981999999
 10
19.7397201
 20
-87.09547298
 10
20.04200445
 20
-87.27156933999999
 10
20.35571602
 20
-87.43499871999999
 10
20.68202063
 20
-87.58610092999999
 10
21.02208411
 20
-87.72521577
 10
21.37707229
 20
-87.85268307
 10
21.748151
 20
-87.96884263
 10
22.54324332
 20
-88.16859777999999
 10
23.4166877
 20
-88.32719971000001
 10
24.37781075
 20
-88.44736692999999
 10
25.43593912
 20
-88.53181791
 10
26.60039942
 20
-88.58327115999999
 10
27.88051829
 20
-88.60444515000001
 10
29.28562236
 20
-88.59805839999999
 10
30.82503824
 20
-88.56682938
 10
32.88119726
 20
-88.49949198999999
 10
34.6537406
 20
-88.41126554
 10
36.18454196
 20
-88.29662007999999
 10
37.515475
 20
-88.15002567
 10
38.11907643
 20
-88.06301948999999
 10
38.68841342000001
 20
-87.96595234999999
 10
39.22872017
 20
-87.85813299999999
 10
39.7452309
 20
-87.73887019
 10
40.24317981
 20
-87.60747268999999
 10
40.72780112
 20
-87.46324923999999
 10
41.67799775999999
 20
-87.13355955
 10
43.63898076
 20
-86.38830093999999
 10
44.42920384999999
 20
-86.05592444
 10
44.78199017
 20
-85.88933609999999
 10
45.10855656999999
 20
-85.71849503999999
 10
45.41040073
 20
-85.54041173999999
 10
45.68902032999999
 20
-85.3520967
 10
45.94591306
 20
-85.15056040000001
 10
46.18257658
 20
-84.93281335
 10
46.40050858
 20
-84.69586601999999
 10
46.60120674
 20
-84.43672892
 10
46.78616873
 20
-84.15241253000001
 10
46.95689223
 20
-83.83992736000001
 10
47.11487492999999
 20
-83.49628387999999
 10
47.26161449
 20
-83.1184926
 10
47.3986086
 20
-82.703564
 10
47.52735494
 20
-82.24850859
 10
47.64935117999999
 20
-81.75033684
 10
47.766095
 20
-81.20605924999999
 10
47.98981611
 20
-79.96722853
 10
48.21049969
 20
-78.50810036999999
 10
48.44012717
 20
-76.80475869999999
 10
48.97413954000001
 20
-72.5697706
 10
49.48215998
 20
-68.36037817000001
 10
49.67019352
 20
-66.60992133
 10
49.81182447
 20
-65.07535758999999
 10
49.90523922
 20
-63.74148705999999
 10
49.94862419
 20
-62.59310988
 10
49.94016575999999
 20
-61.61502618
 10
49.91592853
 20
-61.18509442
 10
49.87805035
 20
-60.79203608
 10
49.82630452
 20
-60.43395117
 10
49.76046435
 20
-60.10893971
 10
49.68030311999999
 20
-59.81510171
 10
49.58559414999999
 20
-59.55053719
 10
49.47611073
 20
-59.31334617
 10
49.35162616
 20
-59.10162867
 10
49.21191375
 20
-58.91348469
 10
49.05674679
 20
-58.74701426
 10
48.88589858
 20
-58.60031739
 10
48.69914242
 20
-58.47149409
 10
48.49625162
 20
-58.35864439
 10
48.27699946
 20
-58.2598683
 10
48.04115926
 20
-58.17326582999999
 10
47.78850431
 20
-58.096937
 10
47.23184337
 20
-57.96750033
 10
46.83040448999999
 20
-57.91610054
 10
46.35192822999999
 20
-57.90261531
 10
45.81432117
 20
-57.92487523
 10
45.23548985
 20
-57.98071087
 10
44.63334085
 20
-58.06795284999999
 10
44.02578072999999
 20
-58.18443174
 10
43.43071603
 20
-58.32797814
 10
42.86605332999999
 20
-58.49642264999999
 10
42.33671394
 20
-58.66259843
 10
41.84288687
 20
-58.79964258
 10
41.39538020999999
 20
-58.90584161999999
 10
41.00500206
 20
-58.97948205
 10
40.68256052
 20
-59.01885038999999
 10
40.43886367999999
 20
-59.02223314
 10
40.28471964
 20
-58.98791682
 10
40.24460744999999
 20
-58.95608605
 10
40.23093648999999
 20
-58.91418793999999
 10
40.2593704
 20
-58.75937043
 10
40.34265958999999
 20
-58.58979461
 10
40.47778521
 20
-58.40728272999999
 10
40.66172843999999
 20
-58.21365704
 10
40.89147042999999
 20
-58.0107398
 10
41.16399237
 20
-57.80035326
 10
41.4762754
 20
-57.58431966999999
 10
41.8253007
 20
-57.36446128
 10
42.62150275999999
 20
-56.92055913
 10
43.52844789
 20
-56.48322484
 10
44.52198541
 20
-56.06703642
 10
45.57796463999999
 20
-55.68657189999999
 10
46.30072734
 20
-55.46519881
 10
46.9979036
 20
-55.28851863999999
 10
47.66928962
 20
-55.15623688
 10
48.31468163
 20
-55.06805905
 10
48.93387584
 20
-55.02369064999999
 10
49.52666846999999
 20
-55.02283719
 10
50.09285572999999
 20
-55.06520415
 10
50.63223385
 20
-55.15049706
 10
51.14459904
 20
-55.27842142
 10
51.62974752
 20
-55.44868272
 10
52.0874755
 20
-55.66098647
 10
52.51757921
 20
-55.91503818
 10
52.91985485
 20
-56.21054335
 10
53.29409865
 20
-56.54720748999999
 10
53.64010681999999
 20
-56.92473609
 10
53.95767558
 20
-57.34283467
 10
54.24660115
 20
-57.80120872
 10
54.50667975
 20
-58.29956375
 10
54.73770758
 20
-58.83760526999999
 10
54.93948087999999
 20
-59.41503878
 10
55.11179585
 20
-60.03156976999999
 10
55.25444871
 20
-60.68690377
 10
55.36723568
 20
-61.38074626
 10
55.44995297999999
 20
-62.11280276
 10
55.50239682
 20
-62.88277877
 10
55.52436342
 20
-63.69037979
 10
55.515649
 20
-64.53531133
 10
55.47604977999999
 20
-65.41727889
 10
55.40536197
 20
-66.33598797000001
 10
55.30338178
 20
-67.29114408
 10
55.16990545
 20
-68.28245272
 10
55.00472917999999
 20
-69.3096194
 10
54.66200574
 20
-71.38688476
 10
54.41023165
 20
-73.11090419
 10
54.27334219
 20
-74.30214549
 10
54.25545898
 20
-74.64187053999999
 10
54.26046671
 20
-74.737941
 10
54.27527266
 20
-74.78107649
 10
54.29992048999999
 20
-74.78394559999999
 10
54.33380547
 20
-74.76186975
 10
54.42689238999999
 20
-74.64757951
 10
54.54974445
 20
-74.44759836999999
 10
54.69757269
 20
-74.17131893
 10
55.04900185
 20
-73.42743556000001
 10
55.44286812
 20
-72.49107024
 10
56.24768755
 20
-70.52387277
 10
57.04787278
 20
-68.66516273000001
 10
57.84354733
 20
-66.9147551
 10
58.63483471
 20
-65.27246485
 10
59.42185845
 20
-63.73810695
 10
60.20474205
 20
-62.31149639
 10
60.98360903999999
 20
-60.99244813
 10
61.75858292
 20
-59.78077716
 10
62.52978722
 20
-58.67629843999999
 10
62.91401437
 20
-58.16419836
 10
63.29734544
 20
-57.67882696
 10
63.67979588
 20
-57.22016112
 10
64.06138111
 20
-56.7881777
 10
64.44211659
 20
-56.38285357
 10
64.82201774
 20
-56.00416561
 10
65.20110002
 20
-55.6520907
 10
65.57937885
 20
-55.32660569
 10
65.95686967999999
 20
-55.02768747
 10
66.33358794999999
 20
-54.75531291
 10
66.70954908999999
 20
-54.50945887
 10
67.08476855
 20
-54.29010224
 10
67.45926177
 20
-54.09721988
 10
67.83304418
 20
-53.93078865999999
 10
68.53860926
 20
-53.6492888
 10
69.1047404
 20
-53.45443699
 10
69.34789551
 20
-53.39074261
 10
69.57104486
 20
-53.35019645
 10
69.77913936
 20
-53.33329391
 10
69.97712992
 20
-53.3405304
 10
70.16996744
 20
-53.37240132
 10
70.36260283999999
 20
-53.42940206
 10
70.55998702
 20
-53.51202803999999
 10
70.76707089999999
 20
-53.62077465
 10
71.23014136
 20
-53.91861139
 10
71.79142149
 20
-54.3268755
 10
72.16565731
 20
-54.64133276
 10
72.53451914
 20
-55.01998748
 10
72.89541702
 20
-55.45666638
 10
73.24576098999999
 20
-55.94519618999999
 10
73.58296109
 20
-56.47940360999999
 10
73.90442735
 20
-57.05311537
 10
74.20756981
 20
-57.66015818999999
 10
74.48979851999999
 20
-58.29435879
 10
74.74852351
 20
-58.94954389
 10
74.98115482
 20
-59.61954019
 10
75.18510249000001
 20
-60.29817443999999
 10
75.35777656
 20
-60.97927334
 10
75.49658705999999
 20
-61.65666361
 10
75.59894404000001
 20
-62.32417197
 10
75.66225753000001
 20
-62.97562515
 10
75.68393758
 20
-63.60484985
 10
75.69971182999999
 20
-64.20066756
 10
75.75035994
 20
-64.69841662
 10
75.79032046
 20
-64.91337183
 10
75.84086996999999
 20
-65.10723757
 10
75.90263195999999
 20
-65.28115642999999
 10
75.97622995
 20
-65.43627096999999
 10
76.06228742999999
 20
-65.57372376
 10
76.16142791999999
 20
-65.69465737
 10
76.27427493
 20
-65.80021436
 10
76.40145194
 20
-65.89153731
 10
76.54358248
 20
-65.96976877999999
 10
76.70129004999999
 20
-66.03605134
 10
77.06593029
 20
-66.13734003000001
 10
77.49522617
 20
-66.23629583999999
 10
77.66534056000001
 20
-66.28821164999999
 10
77.80620104
 20
-66.34563267
 10
77.91813395
 20
-66.41146884
 10
78.00146564000001
 20
-66.48863013
 10
78.05652244
 20
-66.58002648
 10
78.08363070999999
 20
-66.68856786
 10
78.08311679
 20
-66.81716421
 10
78.05530701000001
 20
-66.96872548
 10
78.00052773
 20
-67.14616164
 10
77.91910527999999
 20
-67.35238262999999
 10
77.67763626999999
 20
-67.86281894
 10
77.33351072000001
 20
-68.52331402999999
 10
76.76232770999999
 20
-69.63745625
 10
76.28373118999999
 20
-70.64986725999999
 10
75.9024256
 20
-71.5461159
 10
75.62311542
 20
-72.31177102
 10
75.52317876
 20
-72.64111627
 10
75.45050512
 20
-72.93240145999999
 10
75.40568257
 20
-73.18382269
 10
75.38929917
 20
-73.39357606
 10
75.40194296999999
 20
-73.55985769
 10
75.44420202000001
 20
-73.68086367
 10
75.51666439999999
 20
-73.75479011999999
 10
75.61991815999999
 20
-73.77983313
 10
75.68153771
 20
-73.76717591000001
 10
75.75070381
 20
-73.73003814
 10
75.90866193
 20
-73.58732426
 10
76.08776497
 20
-73.36169814
 10
76.28198539
 20
-73.06316642999999
 10
76.48529565
 20
-72.70173578000001
 10
76.69166821000001
 20
-72.28741284
 10
76.89507552000001
 20
-71.83020426999999
 10
77.08949006
 20
-71.34011669999999
 10
77.41802353999999
 20
-70.54626580999999
 10
77.85486023
 20
-69.62404689
 10
78.38659327000001
 20
-68.59410377
 10
78.99981579999999
 20
-67.4770803
 10
79.68112094999999
 20
-66.29362030999999
 10
80.41710186000001
 20
-65.06436763
 10
81.19435167
 20
-63.80996611
 10
81.99946350000001
 20
-62.55105958
 10
82.8190305
 20
-61.30829187999999
 10
83.63964581000001
 20
-60.10230683999999
 10
84.44790256
 20
-58.95374831
 10
85.23039387999999
 20
-57.88326012
 10
85.97371292
 20
-56.91148611
 10
86.66445280000001
 20
-56.05907011
 10
87.28920667
 20
-55.34665597
 10
87.83456766
 20
-54.79488751
 10
88.19481463
 20
-54.47594335
 10
88.56125568000001
 20
-54.18060113
 10
88.93301239000001
 20
-53.90877058
 10
89.30920630999999
 20
-53.66036143
 10
89.68895901000001
 20
-53.43528340999999
 10
90.07139205999999
 20
-53.23344625
 10
90.45562700999999
 20
-53.05475967999999
 10
90.84078543
 20
-52.89913342
 10
91.22598888
 20
-52.76647721999999
 10
91.61035893000001
 20
-52.6567008
 10
91.99301714
 20
-52.56971388
 10
92.37308507999999
 20
-52.50542621000001
 10
92.74968429999999
 20
-52.4637475
 10
93.12193638
 20
-52.44458749
 10
93.48896287
 20
-52.4478559
 10
93.84988534999999
 20
-52.47346248
 10
94.20382535999999
 20
-52.52131694
 10
94.54990448
 20
-52.59132901
 10
94.88724428000001
 20
-52.68340844
 10
95.21496629999999
 20
-52.79746493
 10
95.53219213
 20
-52.93340824
 10
95.83804331999999
 20
-53.09114808
 10
96.13164143
 20
-53.27059418000001
 10
96.41210802999999
 20
-53.47165627999999
 10
96.67856468
 20
-53.69424411
 10
96.93013295
 20
-53.93826739
 10
97.1659344
 20
-54.20363585
 10
97.3850906
 20
-54.49025923
 10
97.58672310000001
 20
-54.79804725000001
 10
97.76995347000001
 20
-55.12690964
 10
97.93390328
 20
-55.47675614
 10
98.07769409
 20
-55.84749646
 10
98.27868064
 20
-56.47358406
 10
98.44664487999999
 20
-57.11953397
 10
98.58078472
 20
-57.79866316999999
 10
98.68029808999999
 20
-58.52428864
 10
98.74438294
 20
-59.30972736
 10
98.77223716999999
 20
-60.16829631
 10
98.76305874000001
 20
-61.11331246999999
 10
98.71604556000001
 20
-62.15809281
 10
98.63039557
 20
-63.31595431
 10
98.50530670000001
 20
-64.60021396000001
 10
98.33997687
 20
-66.02418873000001
 10
98.13360402
 20
-67.60119559999999
 10
97.88538608000001
 20
-69.34455154
 10
97.59452098
 20
-71.26757354999999
 10
96.88164100000001
 20
-75.70588363999999
 10
96.26727889999999
 20
-79.46467918
 10
95.81663744
 20
-82.35632133000001
 10
95.65051035000001
 20
-83.51550456
 10
95.52267149
 20
-84.50415306
 10
95.43224022
 20
-85.3376847
 10
95.37833589999999
 20
-86.03151733999998
 10
95.36007789000001
 20
-86.60106885999999
 10
95.37658554
 20
-87.06175714
 10
95.42697821
 20
-87.42900003
 10
95.51037527
 20
-87.71821542000001
 10
95.62589606000001
 20
-87.94482116999999
 10
95.77265993999999
 20
-88.12423515
 10
95.94978627999999
 20
-88.27187524999999
 10
96.15639443
 20
-88.40315932000001
 10
96.51363752000001
 20
-88.57763044
 10
96.91584003
 20
-88.70955685
 10
97.37165756000001
 20
-88.79936854
 10
97.88974569
 20
-88.84749551
 10
98.47876001000001
 20
-88.85436775
 10
99.14735612000001
 20
-88.82041526
 10
99.90418959999999
 20
-88.74606805
 10
100.75791605
 20
-88.6317561
 10
101.60858401
 20
-88.49978343
 10
102.36505737
 20
-88.36851679
 10
103.03039413
 20
-88.23526991999999
 10
103.60765229
 20
-88.09735657999999
 10
104.09988985
 20
-87.95209052
 10
104.51016481
 20
-87.79678549999999
 10
104.84153517
 20
-87.62875527
 10
105.09705892
 20
-87.44531358000001
 10
105.19733395
 20
-87.34697398999999
 10
105.27979407
 20
-87.24377418999999
 10
105.34482154
 20
-87.13537839999998
 10
105.39279861
 20
-87.02145084999999
 10
105.42410753
 20
-86.90165573999999
 10
105.43913054
 20
-86.77565730000001
 10
105.4382499
 20
-86.64311975
 10
105.42184786
 20
-86.50370731
 10
105.34400857
 20
-86.20291462999999
 10
105.20867066
 20
-85.87059301
 10
105.01889214
 20
-85.50405621000001
 10
104.77773101
 20
-85.10061797
 10
104.6559204
 20
-84.88614836000001
 10
104.53522976
 20
-84.63321105
 10
104.29980697
 20
-84.02345795
 10
104.07665978
 20
-83.29440799
 10
103.87098531
 20
-82.46911043999999
 10
103.6879807
 20
-81.57061461999999
 10
103.53284308
 20
-80.62196980999999
 10
103.41076958
 20
-79.64622531
 10
103.32695733
 20
-78.66643041999999
 10
103.29034911
 20
-77.89781881
 10
103.27964802
 20
-77.12950669999999
 10
103.29454757
 20
-76.36213565
 10
103.33474129
 20
-75.59634724999999
 10
103.39992269
 20
-74.83278305999999
 10
103.48978529
 20
-74.07208466
 10
103.60402261
 20
-73.31489361
 10
103.74232817
 20
-72.56185149
 10
103.90439548
 20
-71.81359987
 10
104.08991806
 20
-71.07078032
 10
104.29858943
 20
-70.33403441
 10
104.53010312
 20
-69.60400371999999
 10
104.78415262
 20
-68.88132981
 10
105.06043147
 20
-68.16665425
 10
105.35863319
 20
-67.46061862000001
 10
105.67845128
 20
-66.76386449
 10
106.01957927
 20
-66.07703343
 10
106.38171068
 20
-65.40076701
 10
106.76453902
 20
-64.7357068
 10
107.16775781
 20
-64.08249438
 10
107.59106057
 20
-63.44177131
 10
108.03414082
 20
-62.81417917
 10
108.49669207
 20
-62.20035953
 10
108.97840785
 20
-61.60095394999999
 10
109.47898166
 20
-61.01660402
 10
109.99810704
 20
-60.4479513
 10
110.53547749
 20
-59.89563736
 10
111.09078654
 20
-59.36030378
 10
111.66372769
 20
-58.84259211999999
 10
112.25399448
 20
-58.34314395999999
 10
112.86128042
 20
-57.86260088
 10
113.48527903
 20
-57.40160443
 10
114.24446707
 20
-56.87779162
 10
114.98090024
 20
-56.40652521999999
 10
115.69709321
 20
-55.98725099
 10
116.39556063
 20
-55.61941467
 10
117.07881718
 20
-55.30246203
 10
117.74937752
 20
-55.03583882
 10
118.40975632
 20
-54.81899078
 10
119.06246823
 20
-54.65136367
 10
119.71002792
 20
-54.53240325
 10
120.35495006
 20
-54.46155526
 10
120.99974931
 20
-54.43826547
 10
121.64694033
 20
-54.46197962
 10
122.29903779
 20
-54.53214346
 10
122.95855636
 20
-54.64820276
 10
123.6280107
 20
-54.80960326
 10
124.30991547
 20
-55.01579072
 10
124.74808916
 20
-55.18376769999999
 10
125.22220807
 20
-55.40624617
 10
125.72341177
 20
-55.67600595
 10
126.24283977
 20
-55.98582689
 10
126.77163164
 20
-56.32848881000001
 10
127.3009269
 20
-56.69677157
 10
127.82186511
 20
-57.08345497999999
 10
128.3255858
 20
-57.48131890999999
 10
128.80322852
 20
-57.88314317
 10
129.2459328
 20
-58.28170759999999
 10
129.6448382
 20
-58.66979204999999
 10
129.99108424
 20
-59.04017635999999
 10
130.27581048
 20
-59.38564035
 10
130.49015646
 20
-59.69896387
 10
130.62526172
 20
-59.97292675
 10
130.66033018
 20
-60.09289165
 10
130.67226579
 20
-60.20030883
 10
130.65713055
 20
-60.23864704
 10
130.61272199
 20
-60.27591021
 10
130.44206775
 20
-60.34643965
 10
130.1722688
 20
-60.41035351
 10
129.81529089
 20
-60.46610815
 10
129.38309976
 20
-60.51215993999999
 10
128.88766115
 20
-60.54696525
 10
128.3409408
 20
-60.56898043
 10
127.75490444
 20
-60.57666185
 10
126.72312296
 20
-60.60469766
 10
125.72389918
 20
-60.68903284000001
 10
125.23630969
 20
-60.75241944
 10
124.75663556
 20
-60.830009
 10
124.28480208
 20
-60.9218442
 10
123.82073457
 20
-61.02796775
 10
123.36435834
 20
-61.14842236
 10
122.91559869
 20
-61.28325073
 10
122.47438094
 20
-61.43249555
 10
122.04063038
 20
-61.59619952999999
 10
121.61427233
 20
-61.77440537999999
 10
121.19523211
 20
-61.96715579
 10
120.783435
 20
-62.17449347
 10
120.37880634
 20
-62.39646110999999
 10
119.98127142
 20
-62.63310143
 10
119.59075554
 20
-62.88445713
 10
119.20718403
 20
-63.15057088999999
 10
118.83048219
 20
-63.43148544
 10
118.46057533
 20
-63.72724346
 10
118.09738875
 20
-64.03788767
 10
117.74084777
 20
-64.36346075999999
 10
117.39087769
 20
-64.70400544
 10
116.71035148
 20
-65.43018037
 10
116.05521258
 20
-66.21675406
 10
115.42486346
 20
-67.06406815
 10
114.81870659
 20
-67.97246423999999
 10
114.5582455
 20
-68.41247008
 10
114.30605773
 20
-68.89456509
 10
114.06252189
 20
-69.41562118
 10
113.82801662
 20
-69.97251026
 10
113.60292055
 20
-70.56210423999999
 10
113.38761231
 20
-71.18127501
 10
113.18247054
 20
-71.82689449999999
 10
112.98787386
 20
-72.4958346
 10
112.8042009
 20
-73.18496722999999
 10
112.63183029
 20
-73.89116429000001
 10
112.32251066
 20
-75.34223934
 10
112.06294401
 20
-76.82403501999999
 10
111.85615938
 20
-78.31152659
 10
111.70518581
 20
-79.77968930999999
 10
111.61305235
 20
-81.20349844000001
 10
111.58999724
 20
-81.89095018000001
 10
111.58278805
 20
-82.55792924999999
 10
111.5918034
 20
-83.20130754999999
 10
111.61742193
 20
-83.81795698999999
 10
111.66002228
 20
-84.40474949
 10
111.71998306
 20
-84.95855693999999
 10
111.79768291
 20
-85.47625125999999
 10
111.89350046
 20
-85.95470435000001
 10
112.00781435
 20
-86.39078811999999
 10
112.1410032
 20
-86.78137447999999
 10
112.29344563
 20
-87.12333534
 10
112.46552029
 20
-87.41354259999999
 10
112.67114085
 20
-87.67719642999999
 10
112.90057376
 20
-87.90955764000001
 10
113.15233204
 20
-88.11119899999999
 10
113.42492873
 20
-88.28269332000001
 10
113.71687684
 20
-88.42461339000001
 10
114.02668938
 20
-88.53753199999999
 10
114.35287938
 20
-88.62202192999999
 10
114.69395986
 20
-88.67865598999999
 10
115.04844384
 20
-88.70800696999999
 10
115.41484433
 20
-88.71064764999999
 10
115.79167435
 20
-88.68715082999999
 10
116.17744693
 20
-88.63808930999999
 10
116.57067509
 20
-88.56403587
 10
116.96987183
 20
-88.4655633
 10
117.37355019
 20
-88.34324440000001
 10
117.78022319
 20
-88.19765197
 10
118.18840383
 20
-88.02935877999999
 10
118.59660515
 20
-87.83893765
 10
119.00334016
 20
-87.62696134
 10
119.40712188
 20
-87.39400267
 10
119.80646333
 20
-87.14063442
 10
120.19987753
 20
-86.86742939
 10
120.5858775
 20
-86.57496036000001
 10
120.96297626
 20
-86.26380012
 10
121.32968682
 20
-85.93452148
 10
121.68452222
 20
-85.58769721999999
 10
122.02599546
 20
-85.22390014
 10
122.35261957
 20
-84.84370302
 10
122.66290756
 20
-84.44767865999999
 10
122.95537246
 20
-84.03639984999999
 10
123.22852728
 20
-83.61043937999999
 10
123.48088505
 20
-83.17037005999999
 10
123.70449441
 20
-82.71264812
 10
123.93611109
 20
-82.15410943
 10
124.17469952
 20
-81.49918546
 10
124.4192241
 20
-80.75230768
 10
124.66864924
 20
-79.91790757
 10
124.92193934
 20
-79.00041661
 10
125.17805881
 20
-78.00426626
 10
125.43597206
 20
-76.93388801000001
 10
125.95303753
 20
-74.58817367
 10
126.46485102
 20
-71.99872538
 10
126.96312777
 20
-69.20099494
 10
127.43958306
 20
-66.23043414999999
 10
127.57604295
 20
-65.3779246
 10
127.70843734
 20
-64.73569675
 10
127.78083334
 20
-64.48607571
 10
127.86148099
 20
-64.28018978999999
 10
127.95346965
 20
-64.1150939
 10
128.05988865
 20
-63.98784294
 10
128.18382734
 20
-63.89549181
 10
128.32837505
 20
-63.8350954
 10
128.49662115
 20
-63.80370863
 10
128.69165496
 20
-63.79838637999999
 10
128.91656583
 20
-63.81618357
 10
129.17444311
 20
-63.85415508
 10
129.80145425
 20
-63.97884071
 10
131.75756174
 20
-64.39721339
 10
131.75756174
 20
-73.53741793000001
 10
131.76437761
 20
-75.19743681
 10
131.7862633
 20
-76.70852840000001
 10
131.82537592
 20
-78.08046792
 10
131.88387262
 20
-79.32303057999999
 10
131.96391051
 20
-80.4459916
 10
132.06764673
 20
-81.45912620999999
 10
132.19723838
 20
-82.37220963
 10
132.35484261
 20
-83.19501708
 10
132.54261654
 20
-83.93732377
 10
132.76271729
 20
-84.60890492999999
 10
133.01730198
 20
-85.21953577999999
 10
133.30852775
 20
-85.77899154
 10
133.63855172
 20
-86.29704741999999
 10
134.00953101
 20
-86.78347866000001
 10
134.42362275
 20
-87.24806046999999
 10
134.88298406
 20
-87.70056805999999
 10
135.03208665
 20
-87.8248634
 10
135.20318833
 20
-87.94156910999999
 10
135.39440807
 20
-88.05065965
 10
135.60386483
 20
-88.15210945
 10
136.0699653
 20
-88.33198471000001
 10
136.58644148
 20
-88.4809905
 10
137.13824512
 20
-88.59892245000001
 10
137.71032797
 20
-88.6855762
 10
138.28764177
 20
-88.74074735
 10
138.85513828
 20
-88.76423153999999
 10
139.39776922
 20
-88.75582438
 10
139.90048636
 20
-88.71532152
 10
140.34824144
 20
-88.64251856
 10
140.7259862
 20
-88.53721113
 10
140.88390213
 20
-88.47230437
 10
141.01867239
 20
-88.39919485999999
 10
141.12841594
 20
-88.31785704000001
 10
141.21125175
 20
-88.22826537
 10
141.26529879
 20
-88.13039430000001
 10
141.28867603
 20
-88.02421829
 10
141.27950244
 20
-87.90971177999999
 10
141.23589698
 20
-87.78684924
 10
141.19894873
 20
-87.674652
 10
141.18514597
 20
-87.54048070000001
 10
141.19383705
 20
-87.38565638
 10
141.22437028
 20
-87.2115001
 10
141.3483566
 20
-86.81047588
 10
141.5518916
 20
-86.34797645
 10
141.829762
 20
-85.83457026000001
 10
142.17675446
 20
-85.28082574
 10
142.58765569
 20
-84.69731131000001
 10
143.05725237
 20
-84.0945954
 10
145.32275543
 20
-81.32064951
 10
148.05671796
 20
-82.75611338999999
 10
149.01820012
 20
-83.24406166000001
 10
149.95674294
 20
-83.67906197000001
 10
150.89850618
 20
-84.06412446
 10
151.86964964
 20
-84.40225927
 10
152.37441388
 20
-84.55466946999999
 10
152.89633308
 20
-84.69647655000001
 10
153.43867723
 20
-84.82805678
 10
154.00471629
 20
-84.94978643000001
 10
155.22095905
 20
-85.16519906
 10
156.57122112
 20
-85.34572457999999
 10
158.08166229
 20
-85.49437313
 10
159.77844233
 20
-85.61415483999999
 10
161.68772102
 20
-85.70807987
 10
163.83565814
 20
-85.77915835
 10
166.24841347
 20
-85.83040042
 10
168.95214679
 20
-85.86481623
 10
175.33718647
 20
-85.89520960999999
 10
182.03519398
 20
-85.88323338
 10
184.8754858
 20
-85.85452967
 10
187.41722531
 20
-85.80602002
 10
189.69085424
 20
-85.73420775
 10
191.72681432
 20
-85.63559621000001
 10
193.55554728
 20
-85.50668874000001
 10
195.20749485
 20
-85.34398867
 10
196.71309877
 20
-85.14399932999999
 10
198.10280075
 20
-84.90322406999998
 10
198.76370157
 20
-84.76644901
 10
199.40704255
 20
-84.61816622
 10
200.65626587
 20
-84.28532911999999
 10
201.88091246
 20
-83.90121610999999
 10
203.11142405
 20
-83.46233052
 10
204.37824237
 20
-82.96517569
 10
205.71180914
 20
-82.40625495999999
 10
206.38677023
 20
-82.10766746999999
 10
207.04143976
 20
-81.80003883000001
 10
207.67580688
 20
-81.48354582999999
 10
208.28986075
 20
-81.15836524
 10
208.88359054
 20
-80.82467384999999
 10
209.45698539
 20
-80.48264843
 10
210.01003448
 20
-80.13246576
 10
210.54272696
 20
-79.77430262
 10
211.05505198
 20
-79.40833578999999
 10
211.5469987
 20
-79.03474205000001
 10
212.0185563
 20
-78.65369817
 10
212.46971391
 20
-78.26538095
 10
212.90046071
 20
-77.86996714999999
 10
213.31078585
 20
-77.46763357
 10
213.70067849
 20
-77.05855696
 10
214.07012779
 20
-76.64291412
 10
214.4191229
 20
-76.22088182999999
 10
214.74765299
 20
-75.79263686
 10
215.05570722
 20
-75.35835599000001
 10
215.34327473
 20
-74.918216
 10
215.61034471
 20
-74.47239367999999
 10
215.85690629
 20
-74.02106578999999
 10
216.08294864
 20
-73.56440913
 10
216.28846092
 20
-73.10260046
 10
216.47343229
 20
-72.63581657999999
 10
216.6378519
 20
-72.16423425000001
 10
216.78170892
 20
-71.68803024999999
 10
216.9049925
 20
-71.20738138
 10
217.00769181
 20
-70.7224644
 10
217.089796
 20
-70.23345609
 10
217.15129422
 20
-69.74053324
 10
217.19217565
 20
-69.24387262
 10
217.21242943
 20
-68.74365102
 10
217.21204473
 20
-68.24004519999999
 10
217.1910107
 20
-67.73323195999999
 10
217.14931651
 20
-67.22338806999999
 10
217.08695131
 20
-66.71069031
 10
217.00390426
 20
-66.19531545
 10
216.90016452
 20
-65.67744029
 10
216.77572125
 20
-65.15724159
 10
216.63056361
 20
-64.63489614
 10
216.46468075
 20
-64.11058072
 10
216.27806184
 20
-63.5844721
 10
216.07069603
 20
-63.05674706
 10
215.84257249
 20
-62.52758239
 10
215.59368036
 20
-61.99715486
 10
215.32400882
 20
-61.46564126
 10
215.03354702
 20
-60.93321835
 10
214.72228411
 20
-60.40006293
 10
214.39020926
 20
-59.86635177
 10
214.03731162
 20
-59.33226164
 10
213.66358036
 20
-58.79796934
 10
213.26900463
 20
-58.26365163
 10
212.8535736
 20
-57.7294853
 10
212.41727641
 20
-57.19564713
 10
211.96010223
 20
-56.66231389
 10
211.48204022
 20
-56.12966237
 10
210.98307954
 20
-55.59786934
 10
210.46320934
 20
-55.06711159
 10
209.92241879
 20
-54.53756588
 10
209.36069704
 20
-54.00940902
 10
208.77803325
 20
-53.48281776
 10
208.17441658
 20
-52.95796889
 10
207.54983619
 20
-52.43503919
 10
206.75470715
 20
-51.79562182
 10
205.93891625
 20
-51.16759576999999
 10
205.10136785
 20
-50.55050639
 10
204.24096634
 20
-49.94389904
 10
203.35661609
 20
-49.34731905
 10
202.44722147
 20
-48.76031179
 10
201.51168687
 20
-48.18242261
 10
200.54891666
 20
-47.61319684
 10
199.55781522
 20
-47.05217984999999
 10
198.53728692
 20
-46.49891698
 10
197.4862361399999
 20
-45.95295358
 10
196.40356725
 20
-45.413835
 10
195.28818464
 20
-44.8811066
 10
194.13899268
 20
-44.35431372
 10
192.95489575
 20
-43.8330017
 10
191.73479823
 20
-43.31671591
 10
190.47760448
 20
-42.80500169999999
 10
189.18221889
 20
-42.29740439999999
 10
187.84754583
 20
-41.79346937
 10
186.47248969
 20
-41.29274196999999
 10
185.05595483
 20
-40.79476753
 10
183.59684564
 20
-40.29909142
 10
182.09406649
 20
-39.80525898
 10
180.54652175
 20
-39.31281555
 10
177.31275304
 20
-38.33027717
 10
173.88677453
 20
-37.34783907
 10
170.25982121
 20
-36.36186405
 10
166.42312812
 20
-35.3687149
 10
163.27294357
 20
-34.58763654
 10
160.07190811
 20
-33.82716848
 10
156.7873138
 20
-33.08150831
 10
153.38645267
 20
-32.34485363000001
 10
149.83661676
 20
-31.61140204
 10
146.10509813
 20
-30.87535114
 10
142.15918882
 20
-30.13089852
 10
137.96618087
 20
-29.37224177
 10
133.49336632
 20
-28.5935785
 10
128.70803722
 20
-27.78910631
 10
123.57748561
 20
-26.95302278
 10
118.06900355
 20
-26.07952552
 10
112.14988306
 20
-25.16281213
 10
105.7874162
 20
-24.19708019
 10
91.60161153
 20
-22.09535109
 10
79.73313115999999
 20
-20.34469562
 10
68.07447264
 20
-18.59843774
 10
57.65759933
 20
-17.01235419
 10
49.51447456
 20
-15.7422217
 10
48.17739992999999
 20
-15.54276987
 10
47.58842108999999
 20
-15.47281204
 10
47.03076268
 20
-15.42556303
 10
46.48813578
 20
-15.40317037
 10
45.94425145999999
 20
-15.40778163
 10
45.38282082
 20
-15.44154438
 10
44.78755492
 20
-15.50660616
 10
44.14216484999999
 20
-15.60511454
 10
43.4303617
 20
-15.73921708
 10
42.63585653999999
 20
-15.91106133
 10
41.74236044999999
 20
-16.12279485
 10
39.59323982
 20
-16.67451994
 10
36.85268846
 20
-17.41157281
 10
31.60538413
 20
-18.81590764
 10
26.74520891
 20
-20.07881153
 10
22.34514054
 20
-21.18323552
 10
18.4781568
 20
-22.11213063
 10
15.21723545
 20
-22.84844789
 10
13.83685371
 20
-23.13906202
 10
12.63535423
 20
-23.37513832
 10
11.62185922
 20
-23.55454567
 10
10.80549091
 20
-23.67515295
 10
10.19537151
 20
-23.73482904
 10
9.97050585
 20
-23.74115191
 10
9.800623249999999
 20
-23.73144281
 10
9.59698148
 20
-23.68788769
 10
9.387395989999999
 20
-23.60624287
 10
9.17021354
 20
-23.4843155
 10
8.94378084
 20
-23.31991279
 10
8.70644464
 20
-23.11084191
 10
8.456551669999999
 20
-22.85491004
 10
8.19244868
 20
-22.54992436
 10
7.9124824
 20
-22.19369206
 10
7.61499956
 20
-21.78402032
 10
7.2983469
 20
-21.31871632
 10
6.600919079999999
 20
-20.21244026
 10
5.80697282
 20
-18.85732134
 10
4.903282039999999
 20
-17.23581701
 10
3.47550332
 20
-14.65589999
 10
2.14122203
 20
-12.29930266
 10
1.049820399999999
 20
-10.42648737
 10
0.64188141
 20
-9.752892479999999
 10
0.35068067
 20
-9.29791649
 10
-0.7480216600000001
 20
-7.67457614
 10
-3.90386576
 20
-13.31627296
 10
-5.168541499999999
 20
-15.54394507
 10
-6.279062459999999
 20
-17.43886231
 10
-7.115526359999999
 20
-18.80047585
 10
-7.39351745
 20
-19.21862223
 10
-7.5580309
 20
-19.42823689
 10
-7.65694237
 20
-19.4550048
 10
-7.86272876
 20
-19.45449974
 10
-8.56917089
 20
-19.3774801
 10
-9.625846519999999
 20
-19.20879669
 10
-10.98124484
 20
-18.96006826
 10
-12.58385508
 20
-18.64291352
 10
-14.38216644
 20
-18.26895122
 10
-18.35984938
 20
-17.39707887
 10
-22.50220734
 20
-16.43740107
 10
-26.39715401
 20
-15.4828677
 10
-28.12307114
 20
-15.036577
 10
-29.63260308
 20
-14.62642861
 10
-30.87423904
 20
-14.26404127
 10
-31.79646824
 20
-13.96103369
 10
-32.27945932
 20
-13.80733144
 10
-32.76384373
 20
-13.69741541
 10
-33.25999439
 20
-13.63127601
 10
-33.77828425
 20
-13.60890368
 10
-34.32908622
 20
-13.63028884
 10
-34.92277326
 20
-13.6954219
 10
-35.56971828
 20
-13.80429329
 10
-36.28029422
 20
-13.95689342
 10
-37.38626504
 20
-14.19196685
 10
-38.95729442
 20
-14.47326794
 10
-41.2521349
 20
-14.83836191
 10
-44.52953900999999
 20
-15.324814
 10
-49.04825929
 20
-15.97018946
 10
-55.06704827
 20
-16.81205351
 10
-72.63984247999999
 20
-19.23550833
 10
-83.21661142000001
 20
-20.69819446
 10
-92.93126347999999
 20
-22.06394167
 10
-101.84632163
 20
-23.34393842
 10
-110.02430881
 20
-24.5493732
 10
-117.52774798
 20
-25.6914345
 10
-124.4191621
 20
-26.78131079
 10
-130.76107413
 20
-27.83019057
 10
-136.61600702
 20
-28.84926231
 10
-142.04648374
 20
-29.84971449
 10
-144.62208946
 20
-30.34645465
 10
-147.11502724
 20
-30.8427356
 10
-149.53311245
 20
-31.33995591
 10
-151.88416047
 20
-31.83951413
 10
-154.17598666
 20
-32.34280882
 10
-156.4164064
 20
-32.85123854
 10
-158.6132350499999
 20
-33.36620186
 10
-160.77428798
 20
-33.88909733
 10
-162.90738056
 20
-34.42132352
 10
-165.02032817
 20
-34.96427898
 10
-169.21704992
 20
-36.08797196
 10
-173.4269762
 20
-37.27136477
 10
-175.42538365
 20
-37.85576676
 10
-177.37217109
 20
-38.44631667
 10
-179.26762854
 20
-39.04317898
 10
-181.112046
 20
-39.64651822
 10
-182.9057135
 20
-40.25649886
 10
-184.64892105
 20
-40.87328542
 10
-186.34195864
 20
-41.49704239
 10
-187.9851163
 20
-42.12793427
 10
-189.57868404
 20
-42.76612555999999
 10
-191.12295187
 20
-43.41178077
 10
-192.6182098
 20
-44.06506438
 10
-194.06474784
 20
-44.72614089999999
 10
-195.46285601
 20
-45.39517483
 10
-196.81282431
 20
-46.07233068
 10
-198.11494275
 20
-46.75777292
 10
-199.36950136
 20
-47.45166608
 10
-200.57679013
 20
-48.15417464
 10
-201.73709909
 20
-48.86546312
 10
-202.85071824
 20
-49.58569599
 10
-203.91793759
 20
-50.31503777000001
 10
-204.93904716
 20
-51.05365296
 10
-205.91433696
 20
-51.80170605
 10
-206.844097
 20
-52.55936155
 10
-207.72861729
 20
-53.32678395
 10
-208.56818784
 20
-54.10413775
 10
-209.36309866
 20
-54.89158746
 10
-210.11363977
 20
-55.68929757
 10
-210.82010118
 20
-56.49743258
 10
-211.4827729
 20
-57.31615699
 10
-212.10194493
 20
-58.1456353
 10
-212.6779073
 20
-58.98603201
 10
-213.21095002
 20
-59.83751162
 10
-213.6111013
 20
-60.54042505
 10
-213.97371155
 20
-61.24509814
 10
-214.29895428
 20
-61.95083375
 10
-214.58700299
 20
-62.65693478
 10
-214.8380312
 20
-63.36270408
 10
-215.0522124
 20
-64.06744455000001
 10
-215.2297201
 20
-64.77045904
 10
-215.37072781
 20
-65.47105045000001
 10
-215.47540903
 20
-66.16852163
 10
-215.54393727
 20
-66.86217547
 10
-215.57648604
 20
-67.55131484
 10
-215.57322883
 20
-68.23524261999999
 10
-215.53433916
 20
-68.91326168
 10
-215.45999053
 20
-69.5846749
 10
-215.35035645
 20
-70.24878515000001
 10
-215.20561042
 20
-70.90489530000001
 10
-215.02592595
 20
-71.55230824
 10
-214.81147654
 20
-72.19032683
 10
-214.5624357
 20
-72.81825396000001
 10
-214.27897694
 20
-73.43539248999999
 10
-213.96127375
 20
-74.04104529999999
 10
-213.60949966
 20
-74.63451527
 10
-213.22382815
 20
-75.21510527
 10
-212.80443274
 20
-75.78211817999999
 10
-212.35148694
 20
-76.33485686
 10
-211.86516424
 20
-76.87262420999999
 10
-211.34563816
 20
-77.39472308
 10
-210.7930822
 20
-77.90045636000001
 10
-210.20766986
 20
-78.38912692
 10
-209.58957466
 20
-78.86003764
 10
-208.93897009
 20
-79.31249139000001
 10
-208.25602966
 20
-79.74579105
 10
-207.37534282
 20
-80.26701817000001
 10
-206.50625523
 20
-80.75583874999999
 10
-205.64418429
 20
-81.2138589
 10
-204.78454738
 20
-81.64268478
 10
-203.9227619
 20
-82.04392251999999
 10
-203.05424523
 20
-82.41917826999999
 10
-202.17441476
 20
-82.77005816
 10
-201.27868788
 20
-83.09816834000001
 10
-200.36248198
 20
-83.40511494999999
 10
-199.42121444
 20
-83.69250411999999
 10
-198.45030265
 20
-83.96194201
 10
-197.44516401
 20
-84.21503473999999
 10
-196.4012159
 20
-84.45338845
 10
-195.3138757
 20
-84.6786093
 10
-194.17856082
 20
-84.89230342
 10
-192.99068863
 20
-85.09607694999999
 10
-191.20632471
 20
-85.3666246
 10
-190.35048814
 20
-85.4748567
 10
-189.49222586
 20
-85.56539589999999
 10
-188.61154589
 20
-85.63849340999999
 10
-187.68845625
 20
-85.69440043
 10
-186.70296497
 20
-85.73336815000001
 10
-185.63508006
 20
-85.75564778
 10
-184.46480955
 20
-85.76149050999999
 10
-183.17216146
 20
-85.75114754000001
 10
-180.13976463
 20
-85.68290930000001
 10
-176.37795373
 20
-85.55294265
 10
-171.72679294
 20
-85.36325718
 10
-168.46240108
 20
-85.21192488
 10
-165.16153705
 20
-85.03558126999999
 10
-161.91471284
 20
-84.84060034
 10
-158.81244044
 20
-84.63335603
 10
-155.94523182
 20
-84.42022231000001
 10
-153.40359899
 20
-84.20757315000001
 10
-151.27805391
 20
-84.00178250999999
 10
-149.65910859
 20
-83.80922435
 10
-148.23704036
 20
-83.60562179
 10
-146.81814832
 20
-83.38726953
 10
-144.02750586
 20
-82.91476858999999
 10
-141.36240726
 20
-82.40862695
 10
-138.89807854
 20
-81.88575001
 10
-137.76471102
 20
-81.62331872999999
 10
-136.70974574
 20
-81.36304316
 10
-135.74258595
 20
-81.10703646999999
 10
-134.87263491
 20
-80.85741181999999
 10
-134.10929587
 20
-80.61628240999999
 10
-133.46197208
 20
-80.38576138999999
 10
-132.9400668
 20
-80.16796195999999
 10
-132.55298328
 20
-79.96499728
 10
-132.39439628
 20
-79.84596793
 10
-132.24016671
 20
-79.68574005
 10
-132.08972545
 20
-79.48237888
 10
-131.94250336
 20
-79.23394967
 10
-131.79793131
 20
-78.93851764999999
 10
-131.65544018
 20
-78.59414806
 10
-131.51446083
 20
-78.19890614000001
 10
-131.37442413
 20
-77.75085713999999
 10
-131.09490217
 20
-76.68859885
 10
-130.81232125
 20
-75.39189511
 10
-130.52212834
 20
-73.84526784000001
 10
-130.21977038
 20
-72.03323897999999
 10
-129.87486018
 20
-69.80667787999999
 10
-129.58996823
 20
-67.8239216
 10
-129.36809773
 20
-66.07361043
 10
-129.21225189
 20
-64.5443846
 10
-129.1254339
 20
-63.22488438
 10
-129.10884885
 20
-62.64023145
 10
-129.11064696
 20
-62.10375002
 10
-129.13120363
 20
-61.61402011999999
 10
-129.17089427
 20
-61.16962179
 10
-129.23009427
 20
-60.76913504
 10
-129.30917904
 20
-60.41113992999999
 10
-129.40852396
 20
-60.09421648
 10
-129.52850445
 20
-59.81694471
 10
-129.66949591
 20
-59.57790468
 10
-129.83187372
 20
-59.37567639
 10
-130.0160133
 20
-59.2088399
 10
-130.22229004
 20
-59.07597521999999
 10
-130.45107935
 20
-58.97566239999999
 10
-130.70275662
 20
-58.90648146
 10
-130.97769725
 20
-58.86701244000001
 10
-131.27627664
 20
-58.85583537
 10
-131.5988702
 20
-58.87153028
 10
-131.94585332
 20
-58.9126772
 10
-132.3176014
 20
-58.97785617
 10
-132.71448984
 20
-59.06564721
 10
-133.58518942
 20
-59.30338566999999
 10
-134.25648896
 20
-59.50117929000001
 10
-134.75380421
 20
-59.63451853
 10
-135.08893243
 20
-59.69814434999999
 10
-135.19936307
 20
-59.70217127
 10
-135.27367092
 20
-59.6867977
 10
-135.31333067
 20
-59.65136624
 10
-135.31981696
 20
-59.59521951
 10
-135.29460446
 20
-59.51770015000001
 10
-135.23916783
 20
-59.41815075
 10
-135.0435208
 20
-59.15033237
 10
-134.74467318
 20
-58.7865053
 10
-134.51050938
 20
-58.53552699
 10
-134.21469971
 20
-58.26416873
 10
-133.86924978
 20
-57.98103084
 10
-133.48616519
 20
-57.69471369
 10
-133.07745155
 20
-57.41381761
 10
-132.65511445
 20
-57.14694295000001
 10
-132.23115951
 20
-56.90269005
 10
-131.81759234
 20
-56.68965927
 10
-131.25322302
 20
-56.44427202
 10
-130.69979175
 20
-56.2565293
 10
-130.15713828
 20
-56.12649322
 10
-129.62510238
 20
-56.05422587999999
 10
-129.10352383
 20
-56.03978938
 10
-128.59224238
 20
-56.08324583
 10
-128.09109781
 20
-56.18465733
 10
-127.59992988
 20
-56.34408599
 10
-127.11857836
 20
-56.56159392
 10
-126.64688301
 20
-56.8372432
 10
-126.1846836
 20
-57.17109596
 10
-125.7318199
 20
-57.56321429999999
 10
-125.28813168
 20
-58.01366031
 10
-124.85345869
 20
-58.5224961
 10
-124.42764072
 20
-59.08978379
 10
-124.01051752
 20
-59.71558547
 10
-123.47116659
 20
-60.61347481
 10
-123.24653521
 20
-61.03193698
 10
-123.04957797
 20
-61.44222381
 10
-122.87852843
 20
-61.85344503
 10
-122.73162015
 20
-62.27471038
 10
-122.60708671
 20
-62.71512959999999
 10
-122.50316165
 20
-63.18381242
 10
-122.41807855
 20
-63.68986858
 10
-122.35007097
 20
-64.24240782
 10
-122.29737247
 20
-64.85053987
 10
-122.25821662
 20
-65.52337448
 10
-122.21346711
 20
-67.0995903
 10
-122.20169093
 20
-69.04393318
 10
-122.1900271
 20
-70.34122744
 10
-122.15659822
 20
-71.55148803999999
 10
-122.10374821
 20
-72.64822678999999
 10
-122.03382102
 20
-73.60495548999999
 10
-121.94916056
 20
-74.39518596
 10
-121.85211077
 20
-74.99243001
 10
-121.79967235
 20
-75.21040456999999
 10
-121.74501557
 20
-75.37019945
 10
-121.68843342
 20
-75.46850363
 10
-121.63021889
 20
-75.50200608
 10
-121.3078359
 20
-75.47413752
 10
-120.91819968
 20
-75.39394701
 10
-120.47132832
 20
-75.26652712
 10
-119.97723989
 20
-75.09697038999999
 10
-119.44595249
 20
-74.89036937
 10
-118.88748418
 20
-74.65181660999999
 10
-118.31185305
 20
-74.38640467
 10
-117.72907718
 20
-74.09922607999999
 10
-117.14917465
 20
-73.79537342
 10
-116.58216354
 20
-73.47993921
 10
-116.03806193
 20
-73.15801602
 10
-115.52688789
 20
-72.83469639999999
 10
-115.05865952
 20
-72.51507289
 10
-114.64339489
 20
-72.20423805
 10
-114.29111208
 20
-71.90728442
 10
-114.01182917
 20
-71.62930457
 10
-113.85559738
 20
-71.43553525
 10
-113.68466006
 20
-71.1872958
 10
-113.30546334
 20
-70.54276089
 10
-112.88782806
 20
-69.72640869
 10
-112.44534325
 20
-68.76894801999999
 10
-111.99159796
 20
-67.70108772
 10
-111.54018126
 20
-66.55353664
 10
-111.10468218
 20
-65.35700361
 10
-110.69868977
 20
-64.14219746
 10
-110.11646919
 20
-62.3412429
 10
-109.57980507
 20
-60.74653885
 10
-109.08111735
 20
-59.35007893
 10
-108.61282598
 20
-58.1438568
 10
-108.1673509
 20
-57.11986608
 10
-107.95080071
 20
-56.67370552
 10
-107.73711207
 20
-56.27010042
 10
-107.52533747
 20
-55.90804999
 10
-107.31452942
 20
-55.58655345
 10
-107.10374041
 20
-55.30460998
 10
-106.89202292
 20
-55.06121881
 10
-106.67842945
 20
-54.85537912
 10
-106.4620125
 20
-54.68609014
 10
-106.24182455
 20
-54.55235104999999
 10
-106.01691811
 20
-54.45316107
 10
-105.78634566
 20
-54.3875194
 10
-105.5491597
 20
-54.35442523999999
 10
-105.30441272
 20
-54.35287781
 10
-105.05115722
 20
-54.3818763
 10
-104.78844568
 20
-54.44041991999999
 10
-104.51533061
 20
-54.52750787
 10
-104.23086449
 20
-54.64213937
 10
-103.93409982
 20
-54.7833136
 10
-103.2998848
 20
-55.14128712
 10
-102.6051055
 20
-55.59342208
 10
-100.65432711
 20
-56.92474247999999
 10
-101.89299455
 20
-59.88356087999999
 10
-102.23386604
 20
-60.74968596
 10
-102.5640991
 20
-61.69094874
 10
-102.88213236
 20
-62.69879945
 10
-103.18640448
 20
-63.76468829
 10
-103.4753541
 20
-64.88006549000001
 10
-103.74741987
 20
-66.03638128
 10
-104.00104042
 20
-67.22508587
 10
-104.2346544
 20
-68.43762948
 10
-104.44670046
 20
-69.66546232999999
 10
-104.63561725
 20
-70.90003464999999
 10
-104.7998434
 20
-72.13279665
 10
-104.93781756
 20
-73.35519856000001
 10
-105.04797838
 20
-74.55869060000001
 10
-105.1287645
 20
-75.73472298
 10
-105.17861456
 20
-76.87474593000001
 10
-105.19596721
 20
-77.97020965999999
 10
-105.16830731
 20
-79.30258696999999
 10
-105.13370544
 20
-79.93042907
 10
-105.08573412
 20
-80.53209619
 10
-105.02475222
 20
-81.10713037
 10
-104.9511186
 20
-81.65507365000001
 10
-104.86519213
 20
-82.17546807999999
 10
-104.76733168
 20
-82.66785568000001
 10
-104.65789613
 20
-83.13177851
 10
-104.53724433
 20
-83.56677860000001
 10
-104.40573516
 20
-83.97239799999999
 10
-104.26372748
 20
-84.34817875
 10
-104.11158017
 20
-84.69366288000001
 10
-103.9496521
 20
-85.00839243999999
 10
-103.77830212
 20
-85.29190945999999
 10
-103.59788911
 20
-85.543756
 10
-103.40877195
 20
-85.76347409
 10
-103.21130949
 20
-85.95060576999999
 10
-103.0058606
 20
-86.10469308
 10
-102.79278416
 20
-86.22527805999999
 10
-102.57243903
 20
-86.31190275999999
 10
-102.34518409
 20
-86.36410922000001
 10
-102.11137819
 20
-86.38143945999999
 10
-101.87138021
 20
-86.36343555000001
 10
-101.62554902
 20
-86.30963951
 10
-101.37424348
 20
-86.21959338999999
 10
-101.11782247
 20
-86.09283922999999
 10
-100.85664485
 20
-85.92891907
 10
-100.59106949
 20
-85.72737496
 10
-100.32145526
 20
-85.48774892
 10
-100.04816103
 20
-85.209583
 10
-99.77154566999999
 20
-84.89241924999999
 10
-99.38188095
 20
-84.39718220999999
 10
-99.22880139
 20
-84.17192298999999
 10
-99.10355797000001
 20
-83.95210428
 10
-99.00615138
 20
-83.73062683
 10
-98.93658231999999
 20
-83.50039135999999
 10
-98.89485148
 20
-83.25429861000001
 10
-98.88095957
 20
-82.98524931999999
 10
-98.89490727000001
 20
-82.68614421
 10
-98.93669529
 20
-82.34988404
 10
-99.00632433
 20
-81.96936951999999
 10
-99.10379507000001
 20
-81.53750139999999
 10
-99.38226449
 20
-80.49130728999999
 10
-99.77210911
 20
-79.15450758
 10
-100.04687383
 20
-78.15735673
 10
-100.26990228
 20
-77.18767783
 10
-100.44062507
 20
-76.24149366000001
 10
-100.55847282
 20
-75.31482699999999
 10
-100.62287612
 20
-74.40370061
 10
-100.63326561
 20
-73.50413725999999
 10
-100.58907187
 20
-72.61215973
 10
-100.48972554
 20
-71.72379078999999
 10
-100.33465721
 20
-70.8350532
 10
-100.12329749
 20
-69.94196975
 10
-99.85507701000001
 20
-69.04056319999999
 10
-99.52942636999999
 20
-68.12685633
 10
-99.14577617
 20
-67.19687190000001
 10
-98.70355704000001
 20
-66.24663269
 10
-98.20219958
 20
-65.27216146
 10
-97.6411344
 20
-64.269481
 10
-97.11835215
 20
-63.41224438
 10
-96.56445087999999
 20
-62.58607189
 10
-95.98134124000001
 20
-61.79167778
 10
-95.37093388
 20
-61.0297763
 10
-94.73513946999998
 20
-60.3010817
 10
-94.07586866
 20
-59.60630823999999
 10
-93.3950321
 20
-58.94617016
 10
-92.69454045000001
 20
-58.32138173
 10
-91.97630436
 20
-57.73265719
 10
-91.24223449
 20
-57.18071079
 10
-90.49424149
 20
-56.6662568
 10
-89.73423602
 20
-56.19000944999999
 10
-88.96412873
 20
-55.75268301
 10
-88.18583028
 20
-55.35499173
 10
-87.40125132000001
 20
-54.99764985
 10
-86.61230252000001
 20
-54.68137163
 10
-85.82089450999999
 20
-54.40687133
 10
-85.02893796
 20
-54.1748632
 10
-84.23834353
 20
-53.98606148999999
 10
-83.45102187
 20
-53.84118044
 10
-82.66888362999999
 20
-53.74093433
 10
-81.89383945999999
 20
-53.68603738
 10
-81.12780003999999
 20
-53.67720387
 10
-80.37267599999999
 20
-53.71514805
 10
-79.63037799999999
 20
-53.80058415
 10
-78.9028167
 20
-53.93422645
 10
-78.19190276
 20
-54.11678917999999
 10
-77.49954683
 20
-54.34898661
 10
-76.82765956
 20
-54.63153298
 10
-76.17815161
 20
-54.96514255000001
 10
-75.55293363
 20
-55.35052957
 10
-74.95391628
 20
-55.78840829
 10
-74.71753157000001
 20
-55.94472557
 10
-74.44306555
 20
-56.07072291
 10
-74.13362942
 20
-56.16682396
 10
-73.79233439
 20
-56.23345238999999
 10
-73.42229166
 20
-56.27103188
 10
-73.02661243999999
 20
-56.27998609
 10
-72.60840792999999
 20
-56.26073868
 10
-72.17078933999999
 20
-56.21371332999999
 10
-71.71686787
 20
-56.13933369
 10
-71.24975473000001
 20
-56.03802344
 10
-70.77256113
 20
-55.91020624
 10
-70.28839825999999
 20
-55.75630576
 10
-69.80037733
 20
-55.57674566
 10
-69.31160955999999
 20
-55.37194962
 10
-68.82520613
 20
-55.1423413
 10
-68.34427827
 20
-54.88834436
 10
-67.86519982999999
 20
-54.61127123
 10
-67.45109824
 20
-54.35066242
 10
-67.10196306
 20
-54.10671267
 10
-66.81778383
 20
-53.87961673
 10
-66.59855007
 20
-53.66956933
 10
-66.44425135
 20
-53.47676523
 10
-66.3548772
 20
-53.30139917
 10
-66.33453356
 20
-53.22031625000001
 10
-66.33041715
 20
-53.14366588
 10
-66.34252666
 20
-53.07147238999999
 10
-66.37086076999999
 20
-53.00376012
 10
-66.41541817
 20
-52.94055342
 10
-66.47619757
 20
-52.88187663
 10
-66.64641711999999
 20
-52.77821014
 10
-66.88150894
 20
-52.69295541
 10
-67.18146259
 20
-52.62630718
 10
-67.54626759999999
 20
-52.57846019
 10
-67.97591352000001
 20
-52.54960918
 10
-68.47038988
 20
-52.5399489
 10
-68.80325658
 20
-52.53187685
 10
-69.15325194000001
 20
-52.5081061
 10
-69.89826812
 20
-52.41614091
 10
-70.69271722999999
 20
-52.26939812
 10
-71.52387811
 20
-52.07322256
 10
-72.37902959999999
 20
-51.83295903
 10
-73.24545053
 20
-51.55395233
 10
-74.11041973999999
 20
-51.24154729
 10
-74.96121603999999
 20
-50.9010887
 10
-75.78511828
 20
-50.53792137
 10
-76.56940529
 20
-50.15739011
 10
-77.30135590999999
 20
-49.76483974
 10
-77.96824896
 20
-49.36561506
 10
-78.55736326999999
 20
-48.96506087
 10
-79.05597767999999
 20
-48.56852199
 10
-79.26737206
 20
-48.37342855
 10
-79.45137103
 20
-48.18134323
 10
-79.60638444
 20
-47.99293414
 10
-79.73082214
 20
-47.80886939
 10
-79.99385856
 20
-47.33231905
 10
-80.09365667
 20
-47.11337394
 10
-80.17178495000001
 20
-46.90262396
 10
-80.22785109
 20
-46.69655044999999
 10
-80.26146277
 20
-46.49163472
 10
-80.27222768999999
 20
-46.2843581
 10
-80.25975350999999
 20
-46.07120190999999
 10
-80.22364792000001
 20
-45.84864748
 10
-80.16351861
 20
-45.61317611999999
 10
-80.07897327
 20
-45.36126917999999
 10
-79.96961955999999
 20
-45.08940796
 10
-79.67491782
 20
-44.47174798999999
 10
-79.27627486
 20
-43.73204681999999
 10
-79.03458075999999
 20
-43.33292682999999
 10
-78.76363713
 20
-42.94827455
 10
-78.46523718
 20
-42.57854114999999
 10
-78.14117410999999
 20
-42.22417776999999
 10
-77.79324111
 20
-41.88563556
 10
-77.42323138999999
 20
-41.56336567999999
 10
-77.03293814
 20
-41.25781927
 10
-76.62415457999999
 20
-40.96944749
 10
-76.1986739
 20
-40.69870147999999
 10
-75.7582893
 20
-40.44603239999999
 10
-75.30479398999999
 20
-40.21189139999999
 10
-74.83998115999999
 20
-39.99672962
 10
-74.36564401
 20
-39.80099823
 10
-73.88357576
 20
-39.62514836
 10
-73.39556958
 20
-39.46963118
 10
-72.9034187
 20
-39.33489783
 10
-72.40891631
 20
-39.22139946
 10
-71.91385561
 20
-39.12958722
 10
-71.4200298
 20
-39.05991227
 10
-70.92923208000001
 20
-39.01282575
 10
-70.44325566000001
 20
-38.98877881
 10
-69.96389372999999
 20
-38.98822262
 10
-69.49293950000001
 20
-39.01160831
 10
-69.03218616
 20
-39.05938703
 10
-68.58342691999999
 20
-39.13200995
 10
-68.14845498
 20
-39.22992821
 10
-67.72906353999999
 20
-39.35359295
 10
-67.32704581
 20
-39.50345534
 10
-66.94419497
 20
-39.67996651
 10
-66.58230424
 20
-39.88357763
 10
-66.24316681
 20
-40.11473985
 10
-65.92857589000001
 20
-40.3739043
 10
-65.55199272999999
 20
-40.73317786999999
 10
-65.19248985
 20
-41.11250302
 10
-64.85106285
 20
-41.50983767999999
 10
-64.52870732
 20
-41.92313976
 10
-64.22641886
 20
-42.35036721
 10
-63.94519307
 20
-42.78947792999999
 10
-63.68602554
 20
-43.23842985
 10
-63.44991189
 20
-43.69518090999999
 10
-63.23784769
 20
-44.15768901999999
 10
-63.05082856
 20
-44.62391211999999
 10
-62.88985009000001
 20
-45.09180811
 10
-62.75590788
 20
-45.55933494
 10
-62.64999753
 20
-46.02445052
 10
-62.57311463
 20
-46.48511277999999
 10
-62.52625479
 20
-46.93927965
 10
-62.51041359
 20
-47.38490903999999
 10
-62.50031264
 20
-48.0923478
 10
-62.46146214
 20
-48.6406862
 10
-62.42724909999999
 20
-48.86064197
 10
-62.38104062
 20
-49.04736170999999
 10
-62.32123400999999
 20
-49.20302508999999
 10
-62.24622661
 20
-49.3298118
 10
-62.15441571
 20
-49.42990152
 10
-62.04419864
 20
-49.50547393
 10
-61.91397271
 20
-49.55870873
 10
-61.76213524
 20
-49.59178559
 10
-61.58708355
 20
-49.6068842
 10
-61.38721496
 20
-49.60618422999999
 10
-60.9066163
 20
-49.56610733
 10
-60.49927799999999
 20
-49.49318899
 10
-60.31235837
 20
-49.43826954
 10
-60.13595575
 20
-49.37040888
 10
-59.96958313
 20
-49.28913126
 10
-59.81275351
 20
-49.19396091
 10
-59.6649799
 20
-49.08442209
 10
-59.52577527999999
 20
-48.96003902
 10
-59.39465264999999
 20
-48.82033595
 10
-59.27112500999999
 20
-48.66483712
 10
-59.04490667000001
 20
-48.30454913
 10
-58.84322425
 20
-47.87536897999999
 10
-58.66218171999999
 20
-47.37349058
 10
-57.95672824
 20
-45.23660421
 10
-57.22101796
 20
-43.15363999
 10
-56.45777949
 20
-41.12966801999999
 10
-55.66974144
 20
-39.16975837
 10
-54.85963243
 20
-37.27898114
 10
-54.03018107
 20
-35.46240639
 10
-53.18411598
 20
-33.72510423
 10
-52.32416577
 20
-32.07214473
 10
-51.45305905
 20
-30.50859799
 10
-50.57352444
 20
-29.03953407
 10
-49.68829055
 20
-27.67002308
 10
-49.24438906999999
 20
-27.02418433
 10
-48.80008601
 20
-26.40513509
 10
-48.35572243
 20
-25.81350912
 10
-47.91163940999999
 20
-25.24994019
 10
-47.46817803999999
 20
-24.71506205
 10
-47.02567939
 20
-24.20950846
 10
-46.58448453
 20
-23.73391319
 10
-46.14493454
 20
-23.28890999
 10
-45.70737051
 20
-22.87513263
 10
-45.2721335
 20
-22.49321487
 10
-44.79944269999999
 20
-22.1158573
 10
-44.28789118
 20
-21.74632238
 10
-43.7429456
 20
-21.38688999
 10
-43.17007263999999
 20
-21.03984
 10
-42.57473895999999
 20
-20.7074523
 10
-41.96241126
 20
-20.39200677
 10
-41.33855619
 20
-20.09578329
 10
-40.70864044
 20
-19.82106174
 10
-40.07813067999999
 20
-19.57012199
 10
-39.45249358
 20
-19.34524393
 10
-38.83719582
 20
-19.14870744
 10
-38.23770407
 20
-18.9827924
 10
-37.65948501
 20
-18.84977869
 10
-37.10800531
 20
-18.75194618
 10
-36.58873164
 20
-18.69157477
 10
-36.10713069
 20
-18.67094432
 10
-35.54906115
 20
-18.68720518
 10
-34.98141773
 20
-18.73528875
 10
-34.40679109
 20
-18.8141465
 10
-33.82777185
 20
-18.92272992
 10
-33.24695068
 20
-19.05999048
 10
-32.66691821
 20
-19.22487966
 10
-32.09026508
 20
-19.41634894
 10
-31.51958194
 20
-19.6333498
 10
-30.95745944
 20
-19.87483371
 10
-30.40648822
 20
-20.13975216
 10
-29.86925891
 20
-20.42705663
 10
-29.34836218
 20
-20.73569859
 10
-28.84638866
 20
-21.06462952
 10
-28.36592899
 20
-21.4128009
 10
-27.90957382
 20
-21.77916421
 10
-27.47991379
 20
-22.16267093
 10
-26.85560276
 20
-22.77183468
 10
-26.59987928
 20
-23.04498914
 10
-26.37929231
 20
-23.3052322
 10
-26.19197818
 20
-23.55859405
 10
-26.03607325
 20
-23.81110484
 10
-25.90971388
 20
-24.06879475
 10
-25.81103642
 20
-24.33769396
 10
-25.73817721
 20
-24.62383262
 10
-25.68927261
 20
-24.93324091
 10
-25.66245897
 20
-25.271949
 10
-25.65587265
 20
-25.64598705
 10
-25.66764999
 20
-26.06138525
 10
-25.69592735
 20
-26.52417375
 10
-25.79452752
 20
-27.61604236
 10
-25.88908304
 20
-28.30015091
 10
-26.03524171
 20
-29.00348981
 10
-26.23126933
 20
-29.72415466
 10
-26.47543169
 20
-30.46024104
 10
-26.76599458
 20
-31.20984458
 10
-27.10122379
 20
-31.97106085
 10
-27.4793851
 20
-32.74198547000001
 10
-27.89874432
 20
-33.52071404
 10
-28.35756723
 20
-34.30534214
 10
-28.85411962
 20
-35.0939654
 10
-29.38666728
 20
-35.88467939
 10
-29.95347601
 20
-36.67557973
 10
-30.55281158
 20
-37.46476201
 10
-31.1829398
 20
-38.25032184
 10
-31.84212646
 20
-39.03035481
 10
-32.52863734
 20
-39.80295652
 10
-33.24073824
 20
-40.56622257999999
 10
-33.97669494
 20
-41.31824858
 10
-34.73477323
 20
-42.05713011999999
 10
-35.51323892
 20
-42.78096279999999
 10
-36.31035778
 20
-43.48784223
 10
-37.12439561
 20
-44.175864
 10
-37.9536182
 20
-44.84312371
 10
-38.79629133
 20
-45.48771697
 10
-39.65068081
 20
-46.10773936
 10
-40.51505242
 20
-46.7012865
 10
-41.38767194999999
 20
-47.26645398
 10
-42.26680519
 20
-47.8013374
 10
-43.15071793
 20
-48.30403237
 10
-44.03767596
 20
-48.77263448
 10
-44.92594507999999
 20
-49.20523932
 10
-45.81379107
 20
-49.59994251
 10
-47.39292266999999
 20
-50.2724472
 10
-48.03234724
 20
-50.57207106999999
 10
-48.58610740999999
 20
-50.87410765
 10
-48.83424532
 20
-51.03231938
 10
-49.06502548999999
 20
-51.19868069999999
 10
-49.27980072
 20
-51.37570708
 10
-49.47992379
 20
-51.56591398999999
 10
-49.6667475
 20
-51.7718169
 10
-49.84162463
 20
-51.99593129
 10
-50.00590797
 20
-52.24077263
 10
-50.1609503
 20
-52.50885636999999
 10
-50.30810443
 20
-52.80269801
 10
-50.44872314
 20
-53.124813
 10
-50.58415921
 20
-53.47771682
 10
-50.71576542999999
 20
-53.86392493999999
 10
-50.97289951
 20
-54.74631596
 10
-51.23094767
 20
-55.79210983
 10
-51.50073223999999
 20
-57.02143032
 10
-51.79307552
 20
-58.4544012
 10
-52.48872744999999
 20
-62.01178917
 10
-52.59927806
 20
-62.62179698
 10
-52.70277573
 20
-63.27902883
 10
-52.88859824
 20
-64.71983190999999
 10
-53.04616685
 20
-66.30353288000001
 10
-53.17545347
 20
-67.99946624
 10
-53.27642998
 20
-69.77696647000001
 10
-53.34906826
 20
-71.60536806999999
 10
-53.39334020999999
 20
-73.45400552
 10
-53.40921773
 20
-75.29221332999999
 10
-53.39667268
 20
-77.08932596
 10
-53.35567698
 20
-78.81467793
 10
-53.2862025
 20
-80.43760371000001
 10
-53.18822113
 20
-81.92743779
 10
-53.06170477
 20
-83.25351467
 10
-52.9066253
 20
-84.38516884
 10
-52.81836561
 20
-84.86850443999999
 10
-52.72295461
 20
-85.29173479
 10
-52.62038877
 20
-85.65102669999999
 10
-52.51066459
 20
-85.942547
 10
-52.30338565
 20
-86.38987537
 10
-52.08577275999999
 20
-86.81788457999999
 10
-51.85830934
 20
-87.22638007
 10
-51.62147884
 20
-87.61516728
 10
-51.37576468
 20
-87.98405166
 10
-51.12165032
 20
-88.33283866
 10
-50.85961917
 20
-88.6613337
 10
-50.59015468
 20
-88.96934224
 10
-50.31374029
 20
-89.25666971
 10
-50.03085942
 20
-89.52312156999999
 10
-49.74199552
 20
-89.76850324999999
 10
-49.44763202
 20
-89.99262018999999
 10
-49.14825236
 20
-90.19527784
 10
-48.84433996
 20
-90.37628164
 10
-48.53637828
 20
-90.53543703
 10
-48.22485074
 20
-90.67254946
 10
-47.91024077
 20
-90.78742437
 10
-47.59303183
 20
-90.87986720000001
 10
-47.27370732999999
 20
-90.94968339000001
 10
-46.95275072
 20
-90.99667839
 10
-46.63064542999999
 20
-91.02065763
 10
-46.3078749
 20
-91.02142656999999
 10
-45.98492257
 20
-90.99879063999999
 10
-45.66227185999999
 20
-90.95255528
 10
-45.34040622
 20
-90.88252595
 10
-45.01980908
 20
-90.78850807
 10
-44.70096387
 20
-90.6703071
 10
-44.38435403999999
 20
-90.52772848
 10
-44.07046302
 20
-90.36057764
 10
-43.75977424
 20
-90.16866004
 10
-43.45277114
 20
-89.95178110999999
 10
-43.14993716
 20
-89.7097463
  0
LWPOLYLINE
  5
F4E
330
74
100
AcDbEntity
  8
ПО_УМОЛЧАНИЮ
100
AcDbPolyline
 90
       95
 70
     1
 43
0.0
 10
-87.85907124999999
 20
-75.79930353
 10
-87.59391562999999
 20
-75.67624001
 10
-87.30926850999999
 20
-75.51742267999999
 10
-87.00664585
 20
-75.32466141
 10
-86.68756364
 20
-75.09976609
 10
-86.00608449
 20
-74.56081274999999
 10
-85.27695891
 20
-73.91504166
 10
-84.51231474
 20
-73.17693181
 10
-83.72427983999999
 20
-72.36096218
 10
-82.92498204999999
 20
-71.48161176000001
 10
-82.12654922
 20
-70.55335955
 10
-81.34110918999999
 20
-69.59068452
 10
-80.58078982999999
 20
-68.60806568
 10
-79.85771896
 20
-67.61998199999999
 10
-79.18402444999999
 20
-66.64091248
 10
-78.57183413
 20
-65.68533610999999
 10
-78.03327586
 20
-64.76773188
 10
-77.58047748
 20
-63.90257876999999
 10
-77.39002820999999
 20
-63.49419608
 10
-77.22556685
 20
-63.10435577999999
 10
-76.85048687
 20
-62.13408051
 10
-76.57885684
 20
-61.34880487
 10
-76.48135311999999
 20
-61.01356813999999
 10
-76.40913295999999
 20
-60.7102128
 10
-76.36200339
 20
-60.43394934
 10
-76.33977142
 20
-60.17998824
 10
-76.34224408
 20
-59.94354001
 10
-76.3692284
 20
-59.71981514
 10
-76.4205314
 20
-59.50402411999999
 10
-76.49596010999999
 20
-59.29137744
 10
-76.59532153
 20
-59.07708559
 10
-76.71842271
 20
-58.85635907000001
 10
-77.03507242
 20
-58.376444
 10
-77.25055082
 20
-58.09286886
 10
-77.47851914
 20
-57.83483026999999
 10
-77.71827884
 20
-57.60213655
 10
-77.96913141
 20
-57.39459605
 10
-78.23037832
 20
-57.21201712
 10
-78.50132105
 20
-57.05420807
 10
-78.78126108
 20
-56.92097727
 10
-79.06949988
 20
-56.81213303999999
 10
-79.36533891999999
 20
-56.72748372
 10
-79.66807970000001
 20
-56.66683766
 10
-79.97702368
 20
-56.63000319
 10
-80.29147233000001
 20
-56.61678865999999
 10
-80.61072714999999
 20
-56.62700239
 10
-80.93408959999999
 20
-56.66045273
 10
-81.26086114999999
 20
-56.71694802
 10
-81.5903433
 20
-56.79629659999999
 10
-81.92183750999999
 20
-56.89830681
 10
-82.25464526000001
 20
-57.02278698
 10
-82.58806803
 20
-57.16954546
 10
-82.92140729000001
 20
-57.33839059000001
 10
-83.25396451999999
 20
-57.52913069
 10
-83.5850412
 20
-57.74157412
 10
-83.91393881
 20
-57.97552922
 10
-84.23995881999999
 20
-58.23080431000001
 10
-84.5624027
 20
-58.50720774
 10
-84.88057193999999
 20
-58.80454785
 10
-85.19376800999999
 20
-59.12263298
 10
-85.5012924
 20
-59.46127147
 10
-85.80244656000001
 20
-59.82027166
 10
-86.09653199
 20
-60.19944188
 10
-86.38285016000001
 20
-60.59859046999999
 10
-86.66070254999999
 20
-61.01752578
 10
-87.22432486
 20
-61.94306953
 10
-87.76765866999999
 20
-62.9167757
 10
-88.28762844000001
 20
-63.92902613
 10
-88.78115864999999
 20
-64.97020265999999
 10
-89.24517376999999
 20
-66.03068715
 10
-89.67659828
 20
-67.10086144
 10
-90.07235663999999
 20
-68.17110737
 10
-90.42937333000001
 20
-69.2318068
 10
-90.74457282999999
 20
-70.27334156000001
 10
-91.0148796
 20
-71.28609351
 10
-91.23721811000001
 20
-72.2604445
 10
-91.40851285
 20
-73.18677637
 10
-91.52568829000001
 20
-74.05547095999999
 10
-91.58566888999999
 20
-74.85691012
 10
-91.59325002
 20
-75.22940325
 10
-91.58537913000001
 20
-75.58147571000001
 10
-91.56167176
 20
-75.91192524
 10
-91.52174348
 20
-76.21954956
 10
-91.48791045000001
 20
-76.33414557
 10
-91.42696904999999
 20
-76.42983417
 10
-91.33915437
 20
-76.50664234
 10
-91.22470155
 20
-76.56459705999999
 10
-91.08384566999999
 20
-76.6037253
 10
-90.91682185999999
 20
-76.62405404000001
 10
-90.72386522
 20
-76.62561024999999
 10
-90.50521086000001
 20
-76.60842092
 10
-89.99174942000001
 20
-76.5179135
 10
-89.37831841999999
 20
-76.35274759000001
 10
-88.66679874
 20
-76.113139
 10
-87.85907124999999
 20
-75.79930353
  0
LWPOLYLINE
  5
FAF
330
74
100
AcDbEntity
  8
ПО_УМОЛЧАНИЮ
100
AcDbPolyline
 90
       99
 70
     1
 43
0.0
 10
-8.36062794
 20
-71.16402503
 10
-7.833413529999999
 20
-70.67705017999999
 10
-7.3252388
 20
-70.18411464
 10
-6.836494349999999
 20
-69.68619344
 10
-6.36757077
 20
-69.18426155999999
 10
-5.918858659999999
 20
-68.67929404
 10
-5.490748619999999
 20
-68.17226588
 10
-5.083631259999999
 20
-67.66415207999999
 10
-4.69789716
 20
-67.15592767
 10
-4.33393694
 20
-66.64856765999999
 10
-3.992141179999999
 20
-66.14304704
 10
-3.672900489999999
 20
-65.64034085
 10
-3.376605459999999
 20
-65.14142407999999
 10
-3.1036467
 20
-64.64727174
 10
-2.854414799999999
 20
-64.15885885999999
 10
-2.629300359999999
 20
-63.67716043
 10
-2.42869399
 20
-63.20315148
 10
-2.25298627
 20
-62.73780700999999
 10
-2.10256781
 20
-62.28210202999999
 10
-1.97782922
 20
-61.83701156
 10
-1.87916107
 20
-61.4035106
 10
-1.80695399
 20
-60.98257417
 10
-1.761598559999999
 20
-60.57517728
 10
-1.74348538
 20
-60.18229493999999
 10
-1.75300505
 20
-59.80490214999999
 10
-1.79054818
 20
-59.44397394
 10
-1.85650536
 20
-59.10048532
 10
-1.95126718
 20
-58.77541128
 10
-2.07522426
 20
-58.46972685
 10
-2.22876718
 20
-58.18440704
 10
-2.41228655
 20
-57.92042685
 10
-2.626172959999999
 20
-57.6787613
 10
-2.87081702
 20
-57.4603854
 10
-3.18467547
 20
-57.23187945
 10
-3.505907619999999
 20
-57.03794201
 10
-3.83391655
 20
-56.87814463
 10
-4.168105309999999
 20
-56.75205885
 10
-4.507876969999999
 20
-56.65925623999999
 10
-4.852634609999999
 20
-56.59930833
 10
-5.201781289999999
 20
-56.57178669
 10
-5.55472008
 20
-56.57626287
 10
-5.91085405
 20
-56.61230841
 10
-6.269586269999999
 20
-56.67949487
 10
-6.630319799999999
 20
-56.7773938
 10
-6.99245771
 20
-56.90557675
 10
-7.35540308
 20
-57.06361527
 10
-7.71855897
 20
-57.25108092
 10
-8.08132845
 20
-57.46754523999999
 10
-8.443114579999999
 20
-57.71257979
 10
-8.80332044
 20
-57.98575611
 10
-9.1613491
 20
-58.28664577
 10
-9.516603619999999
 20
-58.6148203
 10
-9.86848707
 20
-58.96985126
 10
-10.21640251
 20
-59.35131021
 10
-10.55975303
 20
-59.7587687
 10
-10.89794168
 20
-60.19179827
 10
-11.23037153
 20
-60.64997048
 10
-11.55644566
 20
-61.13285687
 10
-11.87556713
 20
-61.64002900999999
 10
-12.18713901
 20
-62.17105844
 10
-12.49056437
 20
-62.72551671
 10
-12.78524627
 20
-63.30297536999999
 10
-13.07058779
 20
-63.90300598999999
 10
-13.34599199
 20
-64.5251801
 10
-13.61086194
 20
-65.16906925
 10
-14.31069376
 20
-67.00863701999999
 10
-14.90056196
 20
-68.7120128
 10
-15.15275414
 20
-69.50611378000001
 10
-15.37564873
 20
-70.25834887000001
 10
-15.56864351
 20
-70.9661121
 10
-15.73113625
 20
-71.62679751
 10
-15.86252472
 20
-72.23779913
 10
-15.96220671
 20
-72.79651099999999
 10
-16.02957997
 20
-73.30032715999999
 10
-16.06404229
 20
-73.74664163
 10
-16.06499143
 20
-74.13284846
 10
-16.03182517
 20
-74.45634167
 10
-15.96394129
 20
-74.71451532
 10
-15.91679204
 20
-74.81829293
 10
-15.86073755
 20
-74.90476342
 10
-15.78344716
 20
-74.98594102
 10
-15.69060556
 20
-75.05163802
 10
-15.58275439
 20
-75.10212457
 10
-15.4604353
 20
-75.13767083000001
 10
-15.32418994
 20
-75.15854695
 10
-15.17455997
 20
-75.16502307
 10
-14.83731277
 20
-75.13585595000001
 10
-14.45302693
 20
-75.0523307
 10
-14.02603563
 20
-74.91660854
 10
-13.56067208
 20
-74.73085068
 10
-13.0612695
 20
-74.49721835
 10
-12.53216108
 20
-74.21787276
 10
-11.97768002
 20
-73.89497514
 10
-11.40215955
 20
-73.53068670999999
 10
-10.80993285
 20
-73.12716867999999
 10
-10.20533313
 20
-72.68658227999999
 10
-9.5926936
 20
-72.21108872000001
 10
-8.97634747
 20
-71.70284923
 10
-8.36062794
 20
-71.16402503
  0
LWPOLYLINE
  5
1014
330
74
100
AcDbEntity
  8
ПО_УМОЛЧАНИЮ
100
AcDbPolyline
 90
       63
 70
     1
 43
0.0
 10
-63.95747486
 20
-48.31945946
 10
-63.96615924
 20
-48.10546419
 10
-63.99178317
 20
-47.88797881999999
 10
-64.09127436999999
 20
-47.44508315
 10
-64.25079787
 20
-46.99586311
 10
-64.46520308
 20
-46.54540938
 10
-64.7293394
 20
-46.09881263
 10
-65.03805624
 20
-45.66116353
 10
-65.38620301
 20
-45.23755273999999
 10
-65.76862912999999
 20
-44.83307094999999
 10
-66.18018399
 20
-44.45280881
 10
-66.61571700999999
 20
-44.10185701
 10
-67.07007758999999
 20
-43.78530621
 10
-67.53811514
 20
-43.50824709
 10
-68.01467907
 20
-43.27577030999999
 10
-68.49461879999999
 20
-43.09296653999999
 10
-68.97278371
 20
-42.96492644999999
 10
-69.20959105999999
 20
-42.92303363
 10
-69.44402323
 20
-42.89674072999999
 10
-69.90919171
 20
-42.88282155
 10
-70.37246813
 20
-42.91165641
 10
-70.82883115
 20
-42.97982998
 10
-71.27325938
 20
-43.08392694
 10
-71.70073148
 20
-43.22053198999999
 10
-72.10622607000001
 20
-43.38622979
 10
-72.48472179
 20
-43.57760504
 10
-72.83119727
 20
-43.79124242
 10
-73.14063115999999
 20
-44.0237266
 10
-73.40800209
 20
-44.27164228
 10
-73.62828869000001
 20
-44.53157413
 10
-73.79646959999999
 20
-44.80010682999999
 10
-73.90752345
 20
-45.07382508
 10
-73.94005855999999
 20
-45.21156149
 10
-73.95642889
 20
-45.34931354
 10
-73.95600678
 20
-45.48665431999999
 10
-73.93816454
 20
-45.62315691
 10
-73.90227453
 20
-45.75839439
 10
-73.84770905
 20
-45.89193986
 10
-73.78630561
 20
-45.9894467
 10
-73.69286468999999
 20
-46.0963205
 10
-73.41731514999999
 20
-46.33493092
 10
-73.03594986
 20
-46.60129498999999
 10
-72.56365823999999
 20
-46.88893657
 10
-72.01532969999999
 20
-47.19137950999999
 10
-71.40585366
 20
-47.50214767
 10
-70.75011954999999
 20
-47.81476492
 10
-70.06301679
 20
-48.12275511
 10
-69.35943478999999
 20
-48.4196421
 10
-68.65426297
 20
-48.69894976
 10
-67.96239076
 20
-48.95420193
 10
-67.29870758
 20
-49.17892248
 10
-66.67810283
 20
-49.36663528
 10
-66.11546596
 20
-49.51086415999999
 10
-65.62568636
 20
-49.60513301
 10
-65.22365347
 20
-49.64296567
 10
-64.92332195999999
 20
-49.62875215
 10
-64.6644533
 20
-49.57224565
 10
-64.44661022
 20
-49.47298913
 10
-64.26935548
 20
-49.33052553999999
 10
-64.13225183
 20
-49.14439782
 10
-64.03486200999999
 20
-48.91414894
 10
-63.97674877
 20
-48.63932184
 10
-63.95747486
 20
-48.31945946
  0
LWPOLYLINE
  5
1055
330
74
100
AcDbEntity
  8
ПО_УМОЛЧАНИЮ
100
AcDbPolyline
 90
       90
 70
     1
 43
0.0
 10
-43.15186559999999
 20
-44.06020467
 10
-42.44146116999999
 20
-43.50997355999999
 10
-41.74424187
 20
-42.92331896999999
 10
-41.06147579
 20
-42.30303448999999
 10
-40.39443099999999
 20
-41.65191372
 10
-39.74437559
 20
-40.97275025
 10
-39.11257765
 20
-40.26833766
 10
-38.50030526
 20
-39.54146955
 10
-37.90882651
 20
-38.79493951
 10
-37.33940949
 20
-38.03154114
 10
-36.79332227
 20
-37.25406803
 10
-36.27183295
 20
-36.46531376
 10
-35.7762096
 20
-35.66807194
 10
-35.30772033
 20
-34.86513614
 10
-34.8676332
 20
-34.05929997
 10
-34.45721631
 20
-33.25335702
 10
-34.07773774000001
 20
-32.45010088
 10
-33.73046557
 20
-31.65232514
 10
-33.4166679
 20
-30.86282339
 10
-33.13761281
 20
-30.08438923
 10
-32.89456838
 20
-29.31981624
 10
-32.68880269
 20
-28.57189803
 10
-32.52158384
 20
-27.84342818
 10
-32.39417991
 20
-27.13720027
 10
-32.30785898
 20
-26.45600792
 10
-32.26388915
 20
-25.8026447
 10
-32.26353848
 20
-25.17990422
 10
-32.30807508
 20
-24.59058005
 10
-32.39876702
 20
-24.0374658
 10
-32.53688240000001
 20
-23.52335506
 10
-32.62412015000001
 20
-23.281799
 10
-32.72368929000001
 20
-23.05104142
 10
-32.83574833
 20
-22.8314315
 10
-32.96045578
 20
-22.62331846
 10
-33.09797015
 20
-22.42705149
 10
-33.24844996
 20
-22.24297979
 10
-33.50525941
 20
-21.97427581
 10
-33.77099103
 20
-21.73930938
 10
-34.04518464000001
 20
-21.53778441
 10
-34.32738004
 20
-21.36940477
 10
-34.61711704
 20
-21.23387437
 10
-34.91393545
 20
-21.13089709
 10
-35.21737508
 20
-21.06017682
 10
-35.52697574
 20
-21.02141745
 10
-35.84227723
 20
-21.01432288
 10
-36.16281937
 20
-21.038597
 10
-36.48814196
 20
-21.09394369
 10
-36.81778481
 20
-21.18006685
 10
-37.15128773
 20
-21.29667037
 10
-37.48819052
 20
-21.44345813
 10
-37.82803301
 20
-21.62013404
 10
-38.17035499
 20
-21.82640198
 10
-38.51469627
 20
-22.06196583
 10
-38.86059667
 20
-22.32652951
 10
-39.20759598
 20
-22.61979688
 10
-39.55523403
 20
-22.94147185
 10
-39.90305061
 20
-23.29125831
 10
-40.25058554
 20
-23.66886014
 10
-40.59737862
 20
-24.07398124
 10
-40.94296966
 20
-24.5063255
 10
-41.28689847999999
 20
-24.9655968
 10
-41.62870488
 20
-25.45149905
 10
-41.96792867
 20
-25.96373613
 10
-42.30410964999999
 20
-26.50201193
 10
-42.63678764
 20
-27.06603034
 10
-42.96550244
 20
-27.65549526
 10
-43.28979386999999
 20
-28.27011057
 10
-43.60920172
 20
-28.90958017
 10
-44.07728249
 20
-29.89637062
 10
-44.54081808
 20
-30.92001592
 10
-44.99743048
 20
-31.97359449
 10
-45.44474166999999
 20
-33.05018472
 10
-45.88037363
 20
-34.14286504
 10
-46.30194835
 20
-35.24471384
 10
-46.7070878
 20
-36.34880953
 10
-47.09341399
 20
-37.44823053
 10
-47.45854887
 20
-38.53605524000001
 10
-47.80011445
 20
-39.60536206
 10
-48.1157327
 20
-40.64922941999999
 10
-48.40302561
 20
-41.6607357
 10
-48.65961516
 20
-42.63295933
 10
-48.88312333
 20
-43.55897870999999
 10
-49.0711721
 20
-44.43187223999999
 10
-49.22138347
 20
-45.24471834999999
 10
-49.70716925
 20
-48.15018357999999
 10
-47.52643182999999
 20
-46.91817090999999
 10
-46.50658557999999
 20
-46.3115056
 10
-45.34184882
 20
-45.57043809999999
 10
-44.17576201
 20
-44.78874545
 10
-43.15186559999999
 20
-44.06020467
  0
LWPOLYLINE
  5
10B1
330
74
100
AcDbEntity
  8
ПО_УМОЛЧАНИЮ
100
AcDbPolyline
 90
      378
 70
     1
 43
0.0
 10
26.84561975
 20
-12.55056389
 10
29.40708337
 20
-11.89891156
 10
31.88000413
 20
-11.2264071
 10
34.2672974
 20
-10.53180896
 10
36.57187855
 20
-9.81387557
 10
38.79666295
 20
-9.071365359999999
 10
40.94456596999999
 20
-8.303036759999999
 10
43.01850296
 20
-7.5076482
 10
45.0213893
 20
-6.683958109999999
 10
46.95614035
 20
-5.830724929999999
 10
48.82567147999999
 20
-4.94670709
 10
50.63289806
 20
-4.03066302
 10
52.38073544
 20
-3.08135114
 10
54.07209901
 20
-2.0975299
 10
55.70990413
 20
-1.077957719999999
 10
57.29706616
 20
-0.02139303
 10
58.83650046
 20
1.073405729999999
 10
59.79612876
 20
1.788390879999999
 10
60.67601444000001
 20
2.465821459999999
 10
61.48038221
 20
3.110760759999999
 10
62.21345676
 20
3.728272039999999
 10
62.87946279999999
 20
4.32341858
 10
63.48262501
 20
4.901263659999999
 10
64.02716811000001
 20
5.46687055
 10
64.51731678
 20
6.02530253
 10
64.95729573
 20
6.58162287
 10
65.35132964999999
 20
7.140894849999999
 10
65.70364324999999
 20
7.708181749999999
 10
66.01846121
 20
8.288546829999999
 10
66.30000825
 20
8.887053379999999
 10
66.55250904999999
 20
9.508764669999999
 10
66.78018833
 20
10.15874397
 10
66.98727076
 20
10.84205456
 10
67.10770307999999
 20
11.33032127
 10
67.19617364
 20
11.82696851
 10
67.25333575
 20
12.33091921
 10
67.27984278
 20
12.84109633
 10
67.27634805
 20
13.3564228
 10
67.2435049
 20
13.87582155
 10
67.18196666999999
 20
14.39821554
 10
67.09238670000001
 20
14.9225277
 10
66.97541832999999
 20
15.44768096
 10
66.83171489
 20
15.97259828
 10
66.66192973
 20
16.49620259
 10
66.46671616999999
 20
17.01741682
 10
66.24672757
 20
17.53516393
 10
66.00261725
 20
18.04836684
 10
65.73503856000001
 20
18.55594851
 10
65.44464483
 20
19.05683186
 10
65.1320894
 20
19.54993984
 10
64.79802560999999
 20
20.0341954
 10
64.44310681000001
 20
20.50852146
 10
64.06798631
 20
20.97184097
 10
63.67331748
 20
21.42307687
 10
63.25975363
 20
21.8611521
 10
62.82794812
 20
22.28498959
 10
62.37855427
 20
22.6935123
 10
61.91222543
 20
23.08564315
 10
61.42961494
 20
23.4603051
 10
60.93137612999999
 20
23.81642107
 10
60.41816234
 20
24.15291401
 10
59.89062691
 20
24.46870686
 10
59.34942318
 20
24.76272256
 10
58.79520448
 20
25.03388404
 10
58.22862416
 20
25.28111426
 10
57.60899563
 20
25.5092633
 10
56.95964759
 20
25.6991375
 10
56.28395054
 20
25.85187601
 10
55.58527502
 20
25.968618
 10
54.86699154
 20
26.05050263
 10
54.13247060999999
 20
26.09866905
 10
53.38508276
 20
26.11425643
 10
52.6281985
 20
26.09840393
 10
51.86518834000001
 20
26.0522507
 10
51.09942281
 20
25.97693591
 10
50.33427242
 20
25.87359872
 10
49.5731077
 20
25.74337829
 10
48.81929915
 20
25.58741377
 10
48.07621729
 20
25.40684433
 10
47.34723265
 20
25.20280913
 10
46.63571574
 20
24.97644733
 10
45.94503707
 20
24.72889809
 10
45.27856717
 20
24.46130057
 10
44.63967655
 20
24.17479392
 10
44.03173573
 20
23.87051732
 10
43.45811523
 20
23.54960992
 10
42.92218556
 20
23.21321087
 10
42.42731724
 20
22.86245935
 10
41.97688079
 20
22.4984945
 10
41.57424673
 20
22.1224555
 10
41.22278557
 20
21.7354815
 10
40.92586783
 20
21.33871166
 10
40.68686403
 20
20.93328514
 10
40.59013315
 20
20.72768161
 10
40.50914469
 20
20.5203411
 10
40.44431998
 20
20.311406
 10
40.39608032
 20
20.1010187
 10
40.36484704
 20
19.8893216
 10
40.35104144
 20
19.6764571
 10
40.35508485
 20
19.4625676
 10
40.37739857
 20
19.24779547
 10
40.41706295
 20
19.01383069
 10
40.46638571999999
 20
18.80441916
 10
40.52959186999999
 20
18.61768341
 10
40.61090637
 20
18.45174598
 10
40.71455419
 20
18.30472938
 10
40.84476032
 20
18.17475615
 10
41.00574971999999
 20
18.05994882
 10
41.20174738
 20
17.95842991
 10
41.43697825999999
 20
17.86832197
 10
41.71566734999999
 20
17.78774751
 10
42.04203962
 20
17.71482908
 10
42.42032005
 20
17.64768919
 10
43.34950528
 20
17.52323517
 10
44.53702284
 20
17.39936569
 10
45.24603996999999
 20
17.3204267
 10
45.90857063
 20
17.22538617
 10
46.5247174
 20
17.11418727
 10
47.09458286
 20
16.98677314
 10
47.61826958999999
 20
16.84308694
 10
48.09588018
 20
16.68307183
 10
48.52751719
 20
16.50667096
 10
48.91328321999999
 20
16.31382748
 10
49.25328083
 20
16.10448456
 10
49.54761262
 20
15.87858534
 10
49.79638115
 20
15.63607298
 10
49.99968901999999
 20
15.37689063
 10
50.15763879
 20
15.10098146
 10
50.27033305999999
 20
14.8082886
 10
50.33787439000001
 20
14.49875523
 10
50.36036537
 20
14.17232449
 10
50.33375189
 20
13.89913126
 10
50.25670313
 20
13.60142067
 10
50.1334066
 20
13.28392007
 10
49.96804982
 20
12.95135683
 10
49.76482029999999
 20
12.60845829
 10
49.52790554999999
 20
12.2599518
 10
49.26149309
 20
11.91056471
 10
48.96977042999999
 20
11.56502439
 10
48.65692509
 20
11.22805817
 10
48.32714458
 20
10.90439341
 10
47.98461641
 20
10.59875746
 10
47.63352808999999
 20
10.31587768
 10
47.27806714999999
 20
10.06048142
 10
46.9224211
 20
9.83729602
 10
46.57077744
 20
9.651048839999999
 10
46.2273237
 20
9.506467239999999
 10
45.78208593
 20
9.352244739999999
 10
45.36027838999999
 20
9.221495739999999
 10
44.95667014
 20
9.114643909999999
 10
44.56603025999999
 20
9.03211293
 10
44.18312779999999
 20
8.97432646
 10
43.80273183999999
 20
8.941708189999999
 10
43.41961143999999
 20
8.93468178
 10
43.02853566999999
 20
8.953670909999999
 10
42.62427359
 20
8.999099259999999
 10
42.20159427
 20
9.07139049
 10
41.75526676999999
 20
9.17096828
 10
41.28006016999999
 20
9.2982563
 10
40.77074352999999
 20
9.453678229999999
 10
40.22208591
 20
9.63765773
 10
38.98582401
 20
10.09298418
 10
38.20596006
 20
10.41594972
 10
37.4700079
 20
10.7684358
 10
36.7788509
 20
11.14937506
 10
36.13337242
 20
11.55770013
 10
35.53445582
 20
11.99234365
 10
34.98298447
 20
12.45223824
 10
34.47984173
 20
12.93631654
 10
34.02591097
 20
13.44351119
 10
33.62207554
 20
13.97275481
 10
33.26921882
 20
14.52298003
 10
32.96822415
 20
15.0931195
 10
32.71997492
 20
15.68210584
 10
32.52535447
 20
16.28887169
 10
32.38524618
 20
16.91234968
 10
32.30053341
 20
17.55147244
 10
32.27209951
 20
18.2051726
 10
32.27209951
 20
20.94577089
 10
29.26941952
 20
19.22001742
 10
28.63364132
 20
18.86769249
 10
28.02475239
 20
18.55871187
 10
27.43768866
 20
18.29275777
 10
26.86738608
 20
18.06951239
 10
26.30878059
 20
17.88865794
 10
25.75680812
 20
17.74987662
 10
25.20640462
 20
17.65285063
 10
24.65250603
 20
17.59726218
 10
24.09004828
 20
17.58279348
 10
23.51396733
 20
17.60912672
 10
22.91919909
 20
17.67594412
 10
22.30067953
 20
17.78292787
 10
21.65334457
 20
17.92976017
 10
20.97213016
 20
18.11612324
 10
20.25197223
 20
18.34169928
 10
19.48780673
 20
18.60617048
 10
18.85181639
 20
18.84633043
 10
18.27257515
 20
19.08943853
 10
17.74791428
 20
19.33819853
 10
17.27566505
 20
19.59531419
 10
16.85365873
 20
19.86348927
 10
16.47972658
 20
20.14542752
 10
16.15169989
 20
20.44383271
 10
15.86740991
 20
20.76140859
 10
15.62468792
 20
21.10085892
 10
15.42136519
 20
21.46488746
 10
15.25527298
 20
21.85619796
 10
15.12424257
 20
22.27749418
 10
15.02610523
 20
22.73147989
 10
14.95869222
 20
23.22085883
 10
14.91983481
 20
23.74833477
 10
14.90736429
 20
24.31661146
 10
14.92617712
 20
24.90972841
 10
14.98389923
 20
25.43682663
 10
15.08245607
 20
25.89851342
 10
15.1476492
 20
26.10501732
 10
15.22377305
 20
26.29539609
 10
15.31106829
 20
26.46972566
 10
15.40977561
 20
26.62808194
 10
15.52013568
 20
26.77054083
 10
15.64238918
 20
26.89717825
 10
15.77677679
 20
27.00807012
 10
15.9235392
 20
27.10329234
 10
16.08291707
 20
27.18292083
 10
16.25515109
 20
27.2470315
 10
16.44048193
 20
27.29570027
 10
16.63915028
 20
27.32900304
 10
16.85139682
 20
27.34701573
 10
17.07746222
 20
27.34981425
 10
17.57201233
 20
27.31007243
 10
18.12472604
 20
27.21038488
 10
18.73752878
 20
27.05135891
 10
19.41234599
 20
26.83360181
 10
20.1511031
 20
26.55772088
 10
20.95572554
 20
26.22432343
 10
24.47607384
 20
24.70415364
 10
25.91623765
 20
26.11524121
 10
26.20056957
 20
26.42329972
 10
26.45003076
 20
26.75473423
 10
26.66520155
 20
27.10802604
 10
26.84666227
 20
27.48165643
 10
26.99499324
 20
27.87410669
 10
27.11077477
 20
28.28385809
 10
27.19458719
 20
28.70939192
 10
27.24701083
 20
29.14918948
 10
27.268626
 20
29.60173205
 10
27.26001303
 20
30.0655009
 10
27.22175224
 20
30.53897734
 10
27.15442395
 20
31.02064263
 10
27.05860849
 20
31.50897808
 10
26.93488618
 20
32.00246496
 10
26.78383733
 20
32.49958456
 10
26.60604228
 20
32.99881816
 10
26.40208134
 20
33.49864705
 10
26.17253484
 20
33.99755253
 10
25.9179831
 20
34.49401586
 10
25.63900644
 20
34.98651834
 10
25.33618518
 20
35.47354125
 10
25.01009965
 20
35.95356588
 10
24.66133017
 20
36.42507352
 10
24.29045706
 20
36.88654545
 10
23.89806065
 20
37.33646295
 10
23.48472125
 20
37.77330731
 10
23.05101919
 20
38.19555982
 10
22.59753479
 20
38.60170176
 10
22.12484837
 20
38.99021442
 10
21.63354026
 20
39.35957908000001
 10
21.12419078
 20
39.70827703
 10
20.59738025
 20
40.03478955
 10
20.05812552
 20
40.3206922
 10
19.46708334
 20
40.57633866999999
 10
18.82968236
 20
40.8013838
 10
18.15135125
 20
40.99548245
 10
17.43751868
 20
41.15828943999999
 10
16.6936133
 20
41.28945962
 10
15.92506378
 20
41.38864783999999
 10
15.13729878
 20
41.45550892
 10
14.33574696
 20
41.48969773
 10
13.525837
 20
41.49086909
 10
12.71299754
 20
41.45867785
 10
11.90265725
 20
41.39277885
 10
11.1002448
 20
41.29282692999999
 10
10.31118885
 20
41.15847694
 10
9.54091805
 20
40.98938372
 10
8.79486108
 20
40.78520209999999
 10
8.225702139999999
 20
40.58716505999999
 10
7.60765674
 20
40.32639471
 10
6.95253705
 20
40.0113296
 10
6.27215522
 20
39.65040828
 10
5.57832341
 20
39.25206932
 10
4.882853779999999
 20
38.82475127
 10
4.197558479999999
 20
38.37689268
 10
3.534249669999999
 20
37.91693211
 10
2.904739499999999
 20
37.45330813000001
 10
2.32084014
 20
36.99445927
 10
1.79436374
 20
36.54882411
 10
1.33712245
 20
36.12484119
 10
0.9609284399999999
 20
35.73094907
 10
0.67759386
 20
35.37558632
 10
0.5744401500000001
 20
35.2149905
 10
0.49893086
 20
35.06719147
 10
0.4525425000000001
 20
34.93324407
 10
0.4367516000000001
 20
34.8142031
 10
0.4756117000000001
 20
34.69091715
 10
0.58698587
 20
34.52099319
 10
0.76306489
 20
34.31207657
 10
0.9960395699999999
 20
34.07181267
 10
1.27810069
 20
33.80784683
 10
1.601439049999999
 20
33.52782442
 10
1.958245439999999
 20
33.23939080000001
 10
2.34071065
 20
32.95019133
 10
2.76552467
 20
32.60033342
 10
3.24370394
 20
32.13805096
 10
3.758928969999999
 20
31.58317905
 10
4.29488028
 20
30.95555278
 10
4.835238359999999
 20
30.27500725
 10
5.363683729999999
 20
29.56137756
 10
5.86389689
 20
28.8344988
 10
6.31955835
 20
28.11420607
 10
6.935674109999999
 20
27.05494928
 10
7.192557909999999
 20
26.57504297
 10
7.41796977
 20
26.11692121
 10
7.6138928
 20
25.67206136
 10
7.78231009
 20
25.2319408
 10
7.925204739999999
 20
24.78803689
 10
8.044559839999999
 20
24.331827
 10
8.1423585
 20
23.8547885
 10
8.22058381
 20
23.34839876
 10
8.28121887
 20
22.80413513
 10
8.32624676
 20
22.213475
 10
8.37741347
 20
20.85887468
 10
8.38994871
 20
19.21641673
 10
8.373297689999999
 20
18.20506858
 10
8.32511788
 20
17.18021561
 10
8.24558387
 20
16.1426253
 10
8.13487027
 20
15.09306512
 10
7.993151659999999
 20
14.03230254
 10
7.820602639999999
 20
12.96110503
 10
7.617397809999999
 20
11.88024006
 10
7.383711749999999
 20
10.79047511
 10
7.11971907
 20
9.692577639999999
 10
6.82559435
 20
8.58731513
 10
6.501512199999999
 20
7.475455039999999
 10
6.147647199999999
 20
6.357764859999999
 10
5.764173959999999
 20
5.235012049999999
 10
5.351267059999999
 20
4.10796407
 10
4.909101099999999
 20
2.97738841
 10
4.43785068
 20
1.84405254
 10
3.267223529999999
 20
-0.89001307
 10
6.234396219999999
 20
-5.415009569999999
 10
6.88683048
 20
-6.3724496
 10
7.604506269999999
 20
-7.359342879999999
 10
8.3639212
 20
-8.347390719999999
 10
9.14157291
 20
-9.308294449999999
 10
9.913959009999999
 20
-10.21375541
 10
10.65757713
 20
-11.03547493
 10
11.34892488
 20
-11.74515432
 10
11.96449989
 20
-12.31449494
 10
12.85081107
 20
-13.06413066
 10
13.5766777
 20
-13.63116652
 10
13.89802612
 20
-13.85253414
 10
14.20156158
 20
-14.03584138
 10
14.49471681
 20
-14.18361808
 10
14.78492452
 20
-14.29839411
 10
15.07961744
 20
-14.38269933
 10
15.3862283
 20
-14.4390636
 10
15.71218983
 20
-14.47001677
 10
16.06493474
 20
-14.47808871
 10
16.45189577
 20
-14.46580927
 10
16.88050563
 20
-14.43570831
 10
17.89240278
 20
-14.33216128
 10
18.64631786
 20
-14.23140328
 10
19.57803074
 20
-14.08119014
 10
20.65081924
 20
-13.88882919
 10
21.82796117
 20
-13.66162776
 10
24.34841666
 20
-13.13193278
 10
25.61828584
 20
-12.84405391
 10
26.84561975
 20
-12.55056389
  0
LWPOLYLINE
  5
122D
330
74
100
AcDbEntity
  8
ПО_УМОЛЧАНИЮ
100
AcDbPolyline
 90
      334
 70
     1
 43
0.0
 10
-9.89770636
 20
-10.49071864
 10
-9.549114319999999
 20
-10.16814452
 10
-9.13030003
 20
-9.745200669999999
 10
-8.657123439999999
 20
-9.239868319999999
 10
-8.14544448
 20
-8.67012871
 10
-7.07001915
 20
-7.409352639999999
 10
-6.537992659999999
 20
-6.754278649999999
 10
-6.030903529999999
 20
-6.10672233
 10
-5.154384389999999
 20
-4.973185169999999
 10
-4.812930719999999
 20
-4.50283589
 10
-4.539269339999999
 20
-4.068604119999999
 10
-4.428623649999999
 20
-3.858431829999999
 10
-4.335841499999999
 20
-3.64936834
 10
-4.261228049999999
 20
-3.43877347
 10
-4.205088459999999
 20
-3.22400702
 10
-4.16772788
 20
-3.0024288
 10
-4.149451479999999
 20
-2.77139864
 10
-4.15056441
 20
-2.52827633
 10
-4.17137183
 20
-2.27042168
 10
-4.212178899999999
 20
-1.995194509999999
 10
-4.27329077
 20
-1.699954619999999
 10
-4.45764955
 20
-1.038875929999999
 10
-4.726889429999999
 20
-0.26606411
 10
-5.08345169
 20
0.63960239
 10
-5.52977757
 20
1.699245069999999
 10
-6.068308339999999
 20
2.93398546
 10
-7.431749589999999
 20
6.01324546
 10
-7.95267146
 20
7.22351319
 10
-8.44537391
 20
8.433178979999999
 10
-8.909894559999999
 20
9.64238957
 10
-9.34627105
 20
10.85129168
 10
-9.75454103
 20
12.06003203
 10
-10.13474212
 20
13.26875736
 10
-10.48691196
 20
14.47761439
 10
-10.81108818
 20
15.68674984
 10
-11.10730843
 20
16.89631045
 10
-11.37561034
 20
18.10644295
 10
-11.61603154
 20
19.31729405
 10
-11.82860967
 20
20.52901049
 10
-12.01338236
 20
21.741739
 10
-12.17038726
 20
22.9556263
 10
-12.29966199
 20
24.17081911
 10
-12.40124419
 20
25.38746418
 10
-12.55963353
 20
27.32725781
 10
-12.64704584
 20
28.11167695
 10
-12.74720694
 20
28.77889762
 10
-12.86556957
 20
29.33375981
 10
-13.0075865
 20
29.7811035
 10
-13.08916932
 20
29.96596841
 10
-13.17871049
 20
30.12576869
 10
-13.27689162
 20
30.26110935
 10
-13.3843943
 20
30.37259537
 10
-13.50190012
 20
30.46083176
 10
-13.63009069
 20
30.52642351
 10
-13.76964758
 20
30.56997563
 10
-13.92125241
 20
30.59209311
 10
-14.08558676
 20
30.59338096
 10
-14.26333223
 20
30.57444416
 10
-14.45517042
 20
30.53588772
 10
-14.66178291
 20
30.47831664
 10
-15.12205721
 20
30.30855054
 10
-15.64960789
 20
30.06998585
 10
-16.2498877
 20
29.76746256
 10
-16.92834942
 20
29.40582065
 10
-17.53270551
 20
29.05596038
 10
-18.10147258
 20
28.68087516
 10
-18.63376712
 20
28.28197636
 10
-19.12870565
 20
27.86067532
 10
-19.58540467
 20
27.41838341
 10
-20.00298068
 20
26.95651198
 10
-20.3805502
 20
26.47647239
 10
-20.71722972
 20
25.97967598
 10
-21.01213575
 20
25.46753412
 10
-21.26438479
 20
24.94145816
 10
-21.47309336
 20
24.40285946
 10
-21.63737795
 20
23.85314937
 10
-21.75635507
 20
23.29373925
 10
-21.82914123
 20
22.72604045
 10
-21.85485294
 20
22.15146432
 10
-21.83260669
 20
21.57142223
 10
-21.76774217
 20
20.97958645
 10
-21.67205666
 20
20.44483114
 10
-21.54521376
 20
19.96697023
 10
-21.38687704
 20
19.54581765
 10
-21.1967101
 20
19.18118732
 10
-20.97437652
 20
18.87289317
 10
-20.8510421
 20
18.73981402
 10
-20.71953988
 20
18.62074913
 10
-20.57982778
 20
18.51567526
 10
-20.43186377
 20
18.42456913
 10
-20.27560579
 20
18.34740749
 10
-20.11101179
 20
18.28416708
 10
-19.93803971
 20
18.23482465
 10
-19.7566475
 20
18.19935692
 10
-19.36843451
 20
18.16995258
 10
-18.9460364
 20
18.19576797
 10
-18.48911675
 20
18.27661704
 10
-17.99733915
 20
18.4123137
 10
-17.47036718
 20
18.60267187
 10
-16.90786444
 20
18.8475055
 10
-16.3669803
 20
19.08765355
 10
-15.86439915
 20
19.28288259
 10
-15.39965087
 20
19.43301328
 10
-14.9722653
 20
19.53786628
 10
-14.58177231
 20
19.59726225
 10
-14.22770176
 20
19.61102184
 10
-13.90958351
 20
19.57896572
 10
-13.62694742
 20
19.50091453
 10
-13.37932336
 20
19.37668894
 10
-13.16624118
 20
19.20610961
 10
-12.98723074
 20
18.98899719
 10
-12.8418219
 20
18.72517233
 10
-12.72954453
 20
18.4144557
 10
-12.64992849
 20
18.05666795
 10
-12.60250363
 20
17.65162975
 10
-12.58679982
 20
17.19916174
 10
-12.60547207
 20
16.80848629
 10
-12.66044706
 20
16.43014829
 10
-12.75016214
 20
16.06468383
 10
-12.87305468
 20
15.71262898
 10
-13.02756203
 20
15.37451984
 10
-13.21212154
 20
15.05089249
 10
-13.42517057
 20
14.74228301
 10
-13.66514649
 20
14.4492275
 10
-13.93048663
 20
14.17226204
 10
-14.21962837
 20
13.91192271
 10
-14.53100906
 20
13.66874561
 10
-14.86306606
 20
13.44326681
 10
-15.21423671
 20
13.2360224
 10
-15.58295839
 20
13.04754847
 10
-15.96766844
 20
12.87838111
 10
-16.36680422
 20
12.72905639
 10
-16.77880309
 20
12.60011041
 10
-17.20210241
 20
12.49207926
 10
-17.63513953
 20
12.40549901
 10
-18.0763518
 20
12.34090576
 10
-18.5241766
 20
12.29883558
 10
-18.97705126
 20
12.27982457
 10
-19.43341316
 20
12.28440881
 10
-19.89169963
 20
12.31312439
 10
-20.35034806
 20
12.3665074
 10
-20.80779577
 20
12.44509391
 10
-21.26248015
 20
12.54942002
 10
-21.71283854
 20
12.6800218
 10
-22.15730829
 20
12.83743536
 10
-22.59432677
 20
13.02219676
 10
-23.02233133
 20
13.23484211
 10
-23.43975934
 20
13.47590748
 10
-24.17063833
 20
13.91264503
 10
-24.82351167
 20
14.27193938
 10
-25.32715683
 20
14.51659704
 10
-25.50076178
 20
14.58431412
 10
-25.61035124
 20
14.60942445
 10
-25.64738241
 20
14.59872485
 10
-25.6837264
 20
14.56514343
 10
-25.75354015
 20
14.43398289
 10
-25.81816719
 20
14.22523833
 10
-25.87598221
 20
13.94820522
 10
-25.92535991
 20
13.61217905
 10
-25.96467497
 20
13.2264553
 10
-25.99230211
 20
12.80032946
 10
-26.00661601
 20
12.34309701
 10
-26.041708
 20
11.85093401
 10
-26.1299132
 20
11.36995865
 10
-26.26823084
 20
10.90128529
 10
-26.45366017
 20
10.4460283
 10
-26.6832004
 20
10.00530203
 10
-26.95385079
 20
9.58022084
 10
-27.26261055
 20
9.171899099999999
 10
-27.60647893
 20
8.78145117
 10
-27.98245515
 20
8.409991399999999
 10
-28.38753846
 20
8.05863416
 10
-28.81872807
 20
7.728493809999999
 10
-29.27302324
 20
7.420684709999999
 10
-29.74742318
 20
7.13632122
 10
-30.23892714
 20
6.876517699999999
 10
-30.74453434
 20
6.642388519999999
 10
-31.26124403
 20
6.435048029999999
 10
-31.78605543
 20
6.255610589999999
 10
-32.31596777
 20
6.105190559999999
 10
-32.84798030000001
 20
5.984902309999999
 10
-33.37909224
 20
5.8958602
 10
-33.90630282
 20
5.83917859
 10
-34.42661129
 20
5.815971829999999
 10
-34.93701687
 20
5.827354289999999
 10
-35.4345188
 20
5.874440329999999
 10
-35.91611631
 20
5.95834431
 10
-36.37880863
 20
6.0801806
 10
-36.819595
 20
6.241063539999999
 10
-37.23547466
 20
6.442107509999999
 10
-37.62344682
 20
6.68442686
 10
-37.98051074
 20
6.96913596
 10
-38.30366563
 20
7.297349159999999
 10
-38.58991074
 20
7.670180829999999
 10
-38.90255434
 20
8.184433229999999
 10
-39.02768694
 20
8.43280681
 10
-39.13222959
 20
8.67512415
 10
-39.21633443000001
 20
8.91121942
 10
-39.28015359
 20
9.140926739999999
 10
-39.32383921
 20
9.36408027
 10
-39.34754342
 20
9.58051414
 10
-39.35141837
 20
9.79006251
 10
-39.33561618
 20
9.99255952
 10
-39.300289
 20
10.1878393
 10
-39.24558895
 20
10.37573601
 10
-39.17166818
 20
10.55608378
 10
-39.07867883
 20
10.72871677
 10
-38.96677302
 20
10.89346911
 10
-38.83610289
 20
11.05017495
 10
-38.68682058
 20
11.19866844
 10
-38.51907823
 20
11.33878371
 10
-38.33302798
 20
11.47035491
 10
-38.12882195
 20
11.59321618
 10
-37.90661228
 20
11.70720167
 10
-37.66655112
 20
11.81214553
 10
-37.13348284
 20
11.9942449
 10
-36.53083419
 20
12.13818745
 10
-35.85982226
 20
12.24264632
 10
-35.12166415
 20
12.30629466
 10
-34.31757695
 20
12.32780563
 10
-33.89466379
 20
12.33811501
 10
-33.50809468
 20
12.36843669
 10
-33.15747105
 20
12.417861
 10
-32.84239435
 20
12.48547826
 10
-32.56246602
 20
12.57037879
 10
-32.31728753
 20
12.67165291
 10
-32.1064603
 20
12.78839096
 10
-31.92958579
 20
12.91968324
 10
-31.78626544
 20
13.06462009
 10
-31.67610071
 20
13.22229182
 10
-31.59869303
 20
13.39178877
 10
-31.55364386
 20
13.57220124
 10
-31.54055464
 20
13.76261957
 10
-31.55902681
 20
13.96213407
 10
-31.60866183
 20
14.16983508
 10
-31.68906115
 20
14.3848129
 10
-31.7998262
 20
14.60615788
 10
-31.94055843
 20
14.83296032
 10
-32.1108593
 20
15.06431055
 10
-32.31033025
 20
15.29929889
 10
-32.53857272
 20
15.53701567
 10
-32.79518816
 20
15.77655121
 10
-33.07977802
 20
16.01699583
 10
-33.39194375
 20
16.25743985
 10
-33.73128679
 20
16.49697361
 10
-34.09740859
 20
16.73468741
 10
-34.48991059
 20
16.96967158
 10
-34.90839425
 20
17.20101645
 10
-35.35246101
 20
17.42781234
 10
-35.82171231
 20
17.64914957
 10
-36.3157496
 20
17.86411846
 10
-36.83417433000001
 20
18.07180934
 10
-37.58132448
 20
18.34084178
 10
-38.31293106
 20
18.5676296
 10
-39.03032956
 20
18.75207153
 10
-39.73485551
 20
18.89406636
 10
-40.42784438
 20
18.99351282
 10
-41.11063167
 20
19.05030969
 10
-41.7845529
 20
19.06435572
 10
-42.45094354999999
 20
19.03554966
 10
-43.11113912999999
 20
18.96379029
 10
-43.76647514
 20
18.84897635
 10
-44.41828705999999
 20
18.69100661
 10
-45.06791041
 20
18.48977983
 10
-45.71668068
 20
18.24519476
 10
-46.36593336999999
 20
17.95715016
 10
-47.01700397999999
 20
17.62554479
 10
-47.671228
 20
17.25027742
 10
-48.19063034
 20
16.90855749
 10
-48.70329632
 20
16.51833016
 10
-49.20553167
 20
16.08515418
 10
-49.69364213
 20
15.61458834
 10
-50.16393344
 20
15.11219141
 10
-50.61271134
 20
14.58352216
 10
-51.03628158
 20
14.03413936
 10
-51.43094988
 20
13.4696018
 10
-51.79302198
 20
12.89546824
 10
-52.11880363
 20
12.31729746
 10
-52.40460056999999
 20
11.74064823
 10
-52.64671852
 20
11.17107933
 10
-52.84146324
 20
10.61414952
 10
-52.98514046
 20
10.07541759
 10
-53.07405591
 20
9.56044231
 10
-53.10451535
 20
9.074782439999999
 10
-53.0719307
 20
8.685010469999999
 10
-52.97733638
 20
8.238190259999999
 10
-52.82547179
 20
7.74210851
 10
-52.62107634
 20
7.20455192
 10
-52.36888945
 20
6.63330716
 10
-52.07365054
 20
6.03616094
 10
-51.74009901
 20
5.420899959999999
 10
-51.37297428
 20
4.795310889999999
 10
-50.97701576
 20
4.16718044
 10
-50.55696285999999
 20
3.544295289999999
 10
-50.117555
 20
2.934442139999999
 10
-49.66353159
 20
2.34540768
 10
-49.19963204
 20
1.78497861
 10
-48.73059577
 20
1.260941609999999
 10
-48.26116219
 20
0.7810833800000001
 10
-47.79607071
 20
0.35319061
 10
-47.41490524
 20
0.0381378
 10
-46.99020996
 20
-0.28540018
 10
-46.52381348
 20
-0.61664994
 10
-46.01754445
 20
-0.9548380699999999
 10
-44.89270324
 20
-1.648935859999999
 10
-43.63031536
 20
-2.36150633
 10
-42.24500986999999
 20
-3.086362269999999
 10
-40.75141581999999
 20
-3.81731647
 10
-39.16416223
 20
-4.548181719999999
 10
-37.49787818
 20
-5.272770799999999
 10
-35.76719269
 20
-5.98489652
 10
-33.98673481
 20
-6.678371659999999
 10
-32.1711336
 20
-7.347008999999999
 10
-30.33501809
 20
-7.98462133
 10
-28.49301733
 20
-8.58502146
 10
-26.65976037
 20
-9.14202215
 10
-24.84987625
 20
-9.649436209999999
 10
-23.07799402
 20
-10.10107643
 10
-21.5838398
 20
-10.45406681
 10
-20.20938053
 20
-10.76234278
 10
-18.94812119
 20
-11.02609636
 10
-17.79356674
 20
-11.24551954
 10
-16.73922217
 20
-11.42080434
 10
-15.77859245
 20
-11.55214278
 10
-14.90518255
 20
-11.63972684
 10
-14.11249744
 20
-11.68374856
 10
-13.39404211
 20
-11.68439993
 10
-12.74332153
 20
-11.64187296
 10
-12.15384067
 20
-11.55635967
 10
-11.61910451
 20
-11.42805206
 10
-11.13261803
 20
-11.25714215
 10
-10.68788619
 20
-11.04382193
 10
-10.27841397
 20
-10.78828343
 10
-9.89770636
 20
-10.49071864
  0
LWPOLYLINE
  5
137D
330
74
100
AcDbEntity
  8
ПО_УМОЛЧАНИЮ
100
AcDbPolyline
 90
       84
 70
     1
 43
0.0
 10
1.93398243
 20
11.41569247
 10
2.058498929999999
 20
12.04332923
 10
2.165180939999999
 20
12.66984526
 10
2.25421716
 20
13.29448257
 10
2.32579628
 20
13.91648318
 10
2.380107
 20
14.53508909
 10
2.41733799
 20
15.14954233
 10
2.437677959999999
 20
15.75908489
 10
2.441315599999999
 20
16.3629588
 10
2.428439589999999
 20
16.96040607
 10
2.39923864
 20
17.55066871
 10
2.35390142
 20
18.13298873
 10
2.292616629999999
 20
18.70660815
 10
2.21557297
 20
19.27076897
 10
2.122959129999999
 20
19.82471322
 10
2.014963789999999
 20
20.36768289
 10
1.89177564
 20
20.89892002
 10
1.75358339
 20
21.4176666
 10
1.600575719999999
 20
21.92316465
 10
1.43294133
 20
22.41465618
 10
1.25086889
 20
22.89138321
 10
1.05454712
 20
23.35258774
 10
0.84416469
 20
23.7975118
 10
0.6199103
 20
24.22539739
 10
0.38197264
 20
24.63548653
 10
0.13054041
 20
25.02702122
 10
-0.13419772
 20
25.39924348
 10
-0.41205303
 20
25.75139533
 10
-0.70283685
 20
26.08271877
 10
-1.006360479999999
 20
26.39245582
 10
-1.322435229999999
 20
26.67984849
 10
-1.65087241
 20
26.9441388
 10
-1.99148333
 20
27.18456875
 10
-2.22728612
 20
27.30769276
 10
-2.33848474
 20
27.34128467
 10
-2.44523494
 20
27.35673325
 10
-2.547551789999999
 20
27.35441605
 10
-2.645450369999999
 20
27.33471061
 10
-2.73894576
 20
27.2979945
 10
-2.828053039999999
 20
27.24464526
 10
-2.993163529999999
 20
27.08955759
 10
-3.14090245
 20
26.87246803
 10
-3.27139039
 20
26.59639697
 10
-3.384747969999999
 20
26.26436482
 10
-3.481095779999999
 20
25.87939199
 10
-3.560554419999999
 20
25.44449888
 10
-3.6232445
 20
24.96270591
 10
-3.669286609999999
 20
24.43703348
 10
-3.69880136
 20
23.870502
 10
-3.71190934
 20
23.26613187
 10
-3.70873117
 20
22.6269435
 10
-3.689387439999999
 20
21.9559573
 10
-3.602685699999999
 20
20.53067304
 10
-3.452768939999999
 20
19.01444234
 10
-3.24060197
 20
17.43142846
 10
-2.967149599999999
 20
15.80579465
 10
-2.633376639999999
 20
14.16170418
 10
-2.444171439999999
 20
13.34028871
 10
-2.240247899999999
 20
12.5233203
 10
-2.021726609999999
 20
11.71381934
 10
-1.78872819
 20
10.91480626
 10
-1.54137322
 20
10.12930145
 10
-1.27978232
 20
9.36032533
 10
-1.02281398
 20
8.65852888
 10
-0.78339584
 20
8.060993639999999
 10
-0.5593702000000001
 20
7.569099539999999
 10
-0.34857942
 20
7.18422653
 10
-0.14886582
 20
6.907754539999999
 10
-0.05248869
 20
6.810600159999999
 10
0.04192827
 20
6.74106351
 10
0.13465476
 20
6.69931709
 10
0.2259605
 20
6.685533379999999
 10
0.3161152
 20
6.699884879999999
 10
0.40538856
 20
6.742544089999999
 10
0.4940502900000001
 20
6.813683489999999
 10
0.5823701
 20
6.91347557
 10
0.6706176900000001
 20
7.042092829999999
 10
0.75906279
 20
7.199707769999999
 10
0.9376242900000001
 20
7.602620609999999
 10
1.12021228
 20
8.123594049999999
 10
1.308984429999999
 20
8.76400802
 10
1.50609839
 20
9.52524245
 10
1.71371183
 20
10.40867729
 10
1.93398243
 20
11.41569247
  0
LWPOLYLINE
  5
13E7
330
74
100
AcDbEntity
  8
ПО_УМОЛЧАНИЮ
100
AcDbPolyline
 90
     1013
 70
     1
 43
0.0
 10
-201.5604888886306
 20
-31.04956265053712
 10
-202.49579821
 20
-31.3442377
 10
-204.38767171
 20
-31.99058219
 10
-206.26496613
 20
-32.68111416
 10
-208.12025953
 20
-33.41197804
 10
-209.94612997
 20
-34.17931829
 10
-211.7351555
 20
-34.97927935
 10
-213.47991419
 20
-35.80800566
 10
-215.17298408
 20
-36.66164167
 10
-216.80694323
 20
-37.53633184
 10
-218.3743697
 20
-38.42822059
 10
-219.86784154
 20
-39.33345239
 10
-221.27993681
 20
-40.24817167
 10
-222.60323357
 20
-41.16852288999999
 10
-223.22926315
 20
-41.62960561
 10
-223.83030987
 20
-42.09065048
 10
-224.40544599
 20
-42.55117556
 10
-224.95374376
 20
-43.01069888999999
 10
-225.47427545
 20
-43.46873855
 10
-225.96611331
 20
-43.92481258
 10
-227.18293239
 20
-45.12561593
 10
-228.34564421
 20
-46.35522695
 10
-229.45378241
 20
-47.61161403
 10
-230.50688061
 20
-48.89274559
 10
-231.50447246
 20
-50.19659005
 10
-232.44609158
 20
-51.52111580999999
 10
-233.3312716
 20
-52.86429129
 10
-234.15954616
 20
-54.2240849
 10
-234.93044889
 20
-55.59846504
 10
-235.64351341
 20
-56.98540013
 10
-236.29827337
 20
-58.38285858999999
 10
-236.89426238
 20
-59.78880882
 10
-237.4310141
 20
-61.20121923
 10
-237.90806214
 20
-62.61805824
 10
-238.32494013
 20
-64.03729425
 10
-238.68118172
 20
-65.45689568
 10
-238.97632053
 20
-66.87483094
 10
-239.10083065
 20
-67.58253888999999
 10
-239.20989019
 20
-68.28906845
 10
-239.30344085
 20
-68.99416567
 10
-239.38142433
 20
-69.6975766
 10
-239.44378235
 20
-70.39904731
 10
-239.4904566
 20
-71.09832382
 10
-239.52138878
 20
-71.79515220999999
 10
-239.53652061
 20
-72.48927852
 10
-239.53579378
 20
-73.18044879999999
 10
-239.51915
 20
-73.8684091
 10
-239.48653097
 20
-74.55290548
 10
-239.4378784
 20
-75.23368397999999
 10
-239.37313399
 20
-75.91049066
 10
-239.29223945
 20
-76.58307157
 10
-239.19513648
 20
-77.25117276
 10
-239.08176677
 20
-77.91454028
 10
-238.95207205
 20
-78.57292017999999
 10
-238.805994
 20
-79.22605852
 10
-238.64347434
 20
-79.87370135
 10
-238.46445477
 20
-80.51559471
 10
-238.268877
 20
-81.15148465999999
 10
-238.05668271
 20
-81.78111724999999
 10
-237.82781363
 20
-82.40423853000001
 10
-237.58221146
 20
-83.02059455
 10
-237.31981789
 20
-83.62993137
 10
-237.04057463
 20
-84.23199504000001
 10
-236.74442339
 20
-84.82653159999999
 10
-236.43130588
 20
-85.41328711
 10
-236.10116378
 20
-85.99200762
 10
-235.75393882
 20
-86.56243919000001
 10
-235.17283656
 20
-87.45325722
 10
-234.56357917
 20
-88.32107957999999
 10
-233.92632125
 20
-89.16582504
 10
-233.26121744
 20
-89.98741241000001
 10
-232.56842235
 20
-90.78576048
 10
-231.84809062
 20
-91.56078804000001
 10
-231.10037687
 20
-92.31241389
 10
-230.32543572
 20
-93.04055680000001
 10
-229.5234218
 20
-93.74513559
 10
-228.69448973
 20
-94.42606903999999
 10
-227.83879413
 20
-95.08327593999998
 10
-226.95648964
 20
-95.71667508999999
 10
-226.04773087
 20
-96.32618528000001
 10
-225.11267245
 20
-96.91172530000001
 10
-224.15146901
 20
-97.47321394
 10
-223.16427516
 20
-98.01057
 10
-222.15124554
 20
-98.52371227
 10
-221.11253476
 20
-99.01255953999999
 10
-220.04829746
 20
-99.47703061
 10
-218.95868825
 20
-99.91704427000001
 10
-217.84386176
 20
-100.33251931
 10
-216.70397262
 20
-100.72337452
 10
-215.53917545
 20
-101.08952869
 10
-214.34962488
 20
-101.43090063
 10
-213.13547552
 20
-101.74740912
 10
-211.89688201
 20
-102.03897295
 10
-210.63399896
 20
-102.30551091
 10
-209.34698101
 20
-102.54694181
 10
-208.03598278
 20
-102.76318443
 10
-206.70115888
 20
-102.95415756
 10
-205.34266396
 20
-103.11978
 10
-203.96065262
 20
-103.25997055
 10
-203.96065262
 20
-103.25997055
 10
-202.57965973
 20
-103.36578651
 10
-201.13296248
 20
-103.43769471
 10
-199.62952268
 20
-103.47640535
 10
-198.07830211
 20
-103.48262863
 10
-196.48826255
 20
-103.45707475
 10
-194.8683658
 20
-103.40045391
 10
-193.22757363
 20
-103.31347632
 10
-191.57484785
 20
-103.19685217
 10
-189.91915023
 20
-103.05129166
 10
-188.26944256
 20
-102.87750499
 10
-186.63468664
 20
-102.67620236
 10
-185.02384425
 20
-102.44809398
 10
-183.4458771699999
 20
-102.19389004
 10
-181.9097472
 20
-101.91430075
 10
-180.42441613
 20
-101.6100363
 10
-178.99884573
 20
-101.28180689
 10
-178.22412179
 20
-101.10246893
 10
-177.4232487
 20
-100.93999036
 10
-176.56711599
 20
-100.7927852
 10
-175.62661317
 20
-100.6592675
 10
-174.57262977
 20
-100.53785128
 10
-173.37605532
 20
-100.42695057
 10
-172.00777933
 20
-100.32497941
 10
-170.43869133
 20
-100.23035181
 10
-168.63968085
 20
-100.14148182
 10
-166.5816374
 20
-100.05678345
 10
-161.57200972
 20
-99.89355774999999
 10
-155.17692446
 20
-99.72798693000001
 10
-147.16349782
 20
-99.54738325
 10
-142.34251748
 20
-99.45570256000001
 10
-136.68693229
 20
-99.37021869
 10
-123.08717709
 20
-99.21778848
 10
-106.79469167
 20
-99.08998667
 10
-88.23993550999999
 20
-98.98670733999999
 10
-67.85336807
 20
-98.90784453000001
 10
-46.06544881
 20
-98.85329233
 10
-23.3066372
 20
-98.82294478
 10
-0.0073927
 20
-98.81669594999999
 10
23.40182521
 20
-98.83443990000001
 10
46.49055709
 20
-98.87607070000001
 10
68.82834346
 20
-98.94148241000001
 10
89.98472485
 20
-99.03056909
 10
109.52924181
 20
-99.14322479
 10
127.03143487
 20
-99.27934360000001
 10
142.06084455
 20
-99.43881955000001
 10
148.51373705
 20
-99.52728335999999
 10
154.18701141
 20
-99.62154673
 10
160.62196556
 20
-99.74630073
 10
165.66149056
 20
-99.86749586000001
 10
167.74619302
 20
-99.93314692
 10
169.58790924
 20
-100.00557396
 10
171.22192959
 20
-100.08733218
 10
172.6835444
 20
-100.18097683
 10
174.00804405
 20
-100.28906313
 10
175.23071886
 20
-100.41414631
 10
176.38685921
 20
-100.55878159
 10
177.51175543
 20
-100.72552421
 10
178.64069789
 20
-100.91692938
 10
179.80897692
 20
-101.13555235
 10
182.40470615
 20
-101.66467255
 10
184.80391128
 20
-102.1528474
 10
186.89856444
 20
-102.53732592
 10
187.87108312
 20
-102.69437991
 10
188.81474269
 20
-102.82995085
 10
189.74530279
 20
-102.94551907
 10
190.67852306
 20
-103.04256491
 10
191.6301631199999
 20
-103.12256872
 10
192.6159826
 20
-103.18701084
 10
193.65174114
 20
-103.23737161
 10
194.75319836
 20
-103.27513137
 10
197.21624737
 20
-103.31876923
 10
200.13120669
 20
-103.32976716
 10
202.21106317
 20
-103.31730981
 10
204.1527717
 20
-103.28033993
 10
205.96795327
 20
-103.21667194
 10
207.66822884
 20
-103.12412022
 10
209.26521941
 20
-103.00049917
 10
210.77054593
 20
-102.84362321
 10
212.19582941
 20
-102.65130673
 10
213.5526908
 20
-102.42136412
 10
214.85275108
 20
-102.1516098
 10
216.10763124
 20
-101.83985816
 10
217.32895226
 20
-101.4839236
 10
218.5283351
 20
-101.08162053
 10
219.71740075
 20
-100.63076333
 10
220.90777018
 20
-100.12916642
 10
222.11106436
 20
-99.5746442
 10
223.33890429
 20
-98.96501105
 10
224.14694787
 20
-98.53910328000001
 10
224.94008496
 20
-98.09790751000001
 10
225.71795505
 20
-97.64183791
 10
226.48019764
 20
-97.17130865000001
 10
227.22645222
 20
-96.68673389
 10
227.95635828
 20
-96.18852779
 10
228.66955531
 20
-95.67710452
 10
229.36568282
 20
-95.15287822999999
 10
230.0443803
 20
-94.61626309000001
 10
230.70528724
 20
-94.06767327
 10
231.34804313
 20
-93.50752292000001
 10
231.97228746
 20
-92.93622621999999
 10
232.57765974
 20
-92.35419732
 10
233.16379946
 20
-91.76185037999999
 10
233.7303461
 20
-91.15959958000001
 10
234.27693917
 20
-90.54785907000001
 10
234.80321815
 20
-89.92704301000001
 10
235.30882255
 20
-89.29756557000001
 10
235.79339186
 20
-88.65984091999999
 10
236.25656556
 20
-88.01428321000001
 10
236.69798315
 20
-87.36130661
 10
237.11728414
 20
-86.70132528000001
 10
237.514108
 20
-86.03475339
 10
237.88809424
 20
-85.36200509
 10
238.23888235
 20
-84.68349456
 10
238.56611183
 20
-83.99963595
 10
238.86942216
 20
-83.31084343
 10
239.14845284
 20
-82.61753115999999
 10
239.40284337
 20
-81.92011329999999
 10
239.63223324
 20
-81.21900401999999
 10
239.83626194
 20
-80.51461747999999
 10
240.01456896
 20
-79.80736784
 10
240.17733811
 20
-78.96973111
 10
240.3046439
 20
-78.01831591
 10
240.39752685
 20
-76.97017055999999
 10
240.45702748
 20
-75.84234336
 10
240.48418629
 20
-74.65188259999999
 10
240.48004382
 20
-73.41583660000001
 10
240.44564057
 20
-72.15125365999999
 10
240.38201707
 20
-70.87518206999999
 10
240.29021382
 20
-69.60467013999999
 10
240.17127135
 20
-68.35676617999999
 10
240.02623017
 20
-67.14851849
 10
239.8561308
 20
-65.99697535999999
 10
239.66201375
 20
-64.91918511
 10
239.44491955
 20
-63.93219604
 10
239.2058887
 20
-63.05305644
 10
239.0784722
 20
-62.65925778999999
 10
238.94596173
 20
-62.29881463
 10
238.40631317
 20
-60.97195716
 10
237.84488307
 20
-59.67925705999999
 10
237.2608914
 20
-58.42000531
 10
236.65355819
 20
-57.1934929
 10
236.02210341
 20
-55.99901083
 10
235.36574707
 20
-54.83585008
 10
234.68370917
 20
-53.70330165
 10
233.97520971
 20
-52.60065652
 10
233.23946868
 20
-51.52720568
 10
232.47570608
 20
-50.48224013
 10
231.6831419
 20
-49.46505085
 10
230.86099616
 20
-48.47492883000001
 10
230.00848884
 20
-47.51116506999999
 10
229.12483994
 20
-46.57305055
 10
228.20926947
 20
-45.65987627
 10
227.26099741
 20
-44.77093321
 10
226.27924377
 20
-43.90551236
 10
225.26322854
 20
-43.06290471999999
 10
224.21217173
 20
-42.24240127
 10
223.12529332
 20
-41.44329299999999
 10
222.00181333
 20
-40.66487090999999
 10
220.84095174
 20
-39.90642598
 10
219.64192855
 20
-39.16724921
 10
218.40396377
 20
-38.44663158
 10
217.12627738
 20
-37.74386408
 10
215.8080894
 20
-37.05823771
 10
214.44861981
 20
-36.38904345
 10
213.04708861
 20
-35.7355723
 10
211.60271581
 20
-35.09711524
 10
210.11472139
 20
-34.47296326
 10
208.58232536
 20
-33.86240736
 10
207.00474772
 20
-33.26473852
 10
204.5697375
 20
-32.37482757
 10
202.9118377489883
 20
-31.87111563244457
 10
201.34061129
 20
-31.45895539
 10
200.61814715
 20
-31.26629302
 10
199.97160422
 20
-31.11240059
 10
199.39192206
 20
-30.99788944
 10
198.87004022
 20
-30.92337091
 10
198.39689824
 20
-30.88945632
 10
197.96343567
 20
-30.89675702
 10
197.3918035718991
 20
-31.0778084800288
 10
197.17930697
 20
-31.68827137588186
 10
197.049889137409
 20
-32.44441071922826
 10
196.946005439175
 20
-33.06032490959257
 10
196.624523667833
 20
-33.66692735255022
 10
196.1411491633082
 20
-34.16823290542772
 10
195.3852603843036
 20
-34.60526368221666
 10
194.8426193863793
 20
-34.70955791756795
 10
194.2686711883588
 20
-34.79299284741522
 10
193.6425461862371
 20
-34.84514025161194
 10
192.964244380014
 20
-34.82428094610803
 10
192.683043984977
 20
-34.78762458901689
 10
192.3537964482817
 20
-34.73497519994008
 10
192.0921323183339
 20
-34.6822112024431
 10
191.8687617267585
 20
-34.62298329005147
 10
191.7730317925507
 20
-34.5819798355851
 10
191.6225980808224
 20
-34.51364055379393
 10
191.46760665233
 20
-34.44530069896063
 10
191.2715868318798
 20
-34.31317782007794
 10
191.0938023490266
 20
-34.16738731405393
 10
190.9296932517357
 20
-34.01704055028789
 10
190.7939530913305
 20
-33.89596592310487
 10
190.6497423729669
 20
-33.77750895223731
 10
190.49302524
 20
-33.63614455
 10
190.32667852
 20
-33.48688640000001
 10
189.99245912
 20
-33.12984206999999
 10
189.65271253
 20
-32.69386442
 10
189.3032477
 20
-32.17787826
 10
188.93987358
 20
-31.58080843
 10
188.5583991
 20
-30.90157975
 10
186.74588996
 20
-27.56873366
 10
186.7458899600003
 20
-27.56873366000051
 10
180.23411425
 20
-26.27025239
 10
178.62385187
 20
-25.96764271
 10
176.65603307
 20
-25.62908699
 10
174.36736532
 20
-25.25947908
 10
171.79455608
 20
-24.86371288
 10
165.94334301
 20
-24.01328106
 10
159.39605359
 20
-23.11694254
 10
152.44634756
 20
-22.21384833
 10
145.38788463
 20
-21.34314943
 10
138.51432456
 20
-20.54399684
 10
135.23865175
 20
-20.1834851
 10
132.11932706
 20
-19.85554157
 10
105.48632925
 20
-17.11574219
 10
96.00541372000002
 20
-16.12421888
 10
88.52612058
 20
-15.32462016
 10
82.63187494
 20
-14.67170129
 10
77.90610189999999
 20
-14.12021753
 10
73.93222656999999
 20
-13.62492412
 10
70.29367406
 20
-13.14057632
 10
65.42925416999999
 20
-12.47245676
 10
63.48880831999999
 20
-12.19691812
 10
61.85618918
 20
-11.95150718
 10
60.51638474
 20
-11.72955913
 10
59.45438298
 20
-11.52440918
 10
58.65517189
 20
-11.32939253
 10
58.34942159
 20
-11.23360144
 10
58.10373945
 20
-11.13784438
 10
57.91624898
 20
-11.04128824
 10
57.78507366
 20
-10.94309992
 10
57.708337
 20
-10.84244634
 10
57.68416249
 20
-10.73849437
 10
57.71067364
 20
-10.63041093
 10
57.78599394
 20
-10.51736292
 10
57.90824689
 20
-10.39851723
 10
58.07555599
 20
-10.27304077
 10
58.53783663
 20
-9.99886313
 10
59.15782382999999
 20
-9.688165189999999
 10
60.81086991
 20
-8.930549219999999
 10
61.94692292
 20
-8.389083429999999
 10
63.09835443
 20
-7.790902759999999
 10
64.25668976
 20
-7.14255475
 10
65.41345425
 20
-6.450586939999999
 10
66.56017322
 20
-5.721546889999999
 10
67.68837201
 20
-4.961982139999999
 10
68.78957594
 20
-4.178440219999999
 10
69.85531035
 20
-3.37746869
 10
70.87710054999999
 20
-2.5656151
 10
71.84647187999999
 20
-1.749426989999999
 10
72.75494968
 20
-0.9354518899999998
 10
73.59405925999999
 20
-0.13023737
 10
74.35532596
 20
0.65966904
 10
75.03027509999999
 20
1.42771979
 10
75.61043202
 20
2.167367329999999
 10
75.86231506999999
 20
2.52449379
 10
76.08732204999999
 20
2.87206413
 10
76.53779485
 20
3.652393099999999
 10
76.93783234999999
 20
4.449179879999999
 10
77.28787297
 20
5.261054159999999
 10
77.58835512
 20
6.086645619999999
 10
77.83971722
 20
6.924583939999999
 10
78.04239769999999
 20
7.77349882
 10
78.19683496999999
 20
8.632019939999999
 10
78.30346744
 20
9.498776969999999
 10
78.36273355
 20
10.37239962
 10
78.37507171
 20
11.25151756
 10
78.34092034
 20
12.13476047
 10
78.26071785
 20
13.02075805
 10
78.13490267999999
 20
13.90813998
 10
77.96391323
 20
14.79553594
 10
77.74818792000001
 20
15.68157562
 10
77.48816517999999
 20
16.56488871
 10
77.18428342
 20
17.44410488
 10
76.83698106999999
 20
18.31785383
 10
76.44669654000001
 20
19.18476524
 10
76.01386825
 20
20.04346879
 10
75.53893462000001
 20
20.89259418
 10
75.02233407
 20
21.73077108
 10
74.46450502000001
 20
22.55662918
 10
73.86588589
 20
23.36879816
 10
73.22691509000001
 20
24.16590772
 10
72.54803106
 20
24.94658753
 10
71.82967219
 20
25.70946729
 10
71.07227693
 20
26.45317667
 10
70.27628368000001
 20
27.17634537
 10
69.44213086000001
 20
27.87760306
 10
68.57025689
 20
28.55557943
 10
67.66110020000001
 20
29.20890417
 10
66.74953250999999
 20
29.82047395
 10
65.85739138
 20
30.38157487
 10
64.97954063999999
 20
30.89376984
 10
64.11084416
 20
31.35862181
 10
63.24616576
 20
31.7776937
 10
62.38036929999999
 20
32.15254843
 10
61.50831862
 20
32.48474894000001
 10
60.62487758
 20
32.77585815
 10
59.72491
 20
33.027439
 10
58.80327975
 20
33.24105441
 10
57.85485065999999
 20
33.4182673
 10
56.87448658
 20
33.56064062
 10
55.85705135
 20
33.66973728
 10
54.79740883
 20
33.74712021
 10
53.69042285999999
 20
33.79435235
 10
52.53095728
 20
33.81299662
 10
51.32155038
 20
33.80300829
 10
50.18322312
 20
33.7611646
 10
49.10926787
 20
33.68499691
 10
48.09297702
 20
33.57203661
 10
47.12764295
 20
33.41981508
 10
46.20655804
 20
33.2258637
 10
45.32301466999999
 20
32.98771386
 10
44.47030522
 20
32.70289693
 10
43.64172209
 20
32.3689443
 10
42.83055764
 20
31.98338735
 10
42.03010427
 20
31.54375746
 10
41.23365435
 20
31.04758601
 10
40.43450026
 20
30.49240438
 10
39.6259344
 20
29.87574396
 10
38.80124913
 20
29.19513613
 10
37.95373685
 20
28.44811226
 10
34.79681145
 20
25.58485012
 10
35.0560007
 20
30.11315792
 10
35.11666129
 20
31.4449375
 10
35.12544816
 20
32.5676406
 10
35.10718663
 20
33.06648153
 10
35.07211389
 20
33.53212501
 10
35.01894902
 20
33.97092825
 10
34.94641107
 20
34.38924847
 10
34.85321913
 20
34.79344291
 10
34.73809228
 20
35.18986878
 10
34.59974957
 20
35.5848833
 10
34.43691009
 20
35.98484369
 10
34.2482929
 20
36.39610718
 10
34.03261709000001
 20
36.82503098
 10
33.51496585
 20
37.76128842
 10
33.19965313
 20
38.28709575
 10
32.86523519
 20
38.80516407
 10
32.51230483
 20
39.3150999
 10
32.14145487
 20
39.81650976
 10
31.75327811
 20
40.30900017999999
 10
31.34836735
 20
40.79217766
 10
30.9273154
 20
41.26564874
 10
30.49071506
 20
41.72901991999999
 10
30.03915913
 20
42.18189773
 10
29.57324042
 20
42.62388869
 10
29.09355174
 20
43.05459931
 10
28.60068589
 20
43.47363612
 10
28.09523567
 20
43.88060563999999
 10
27.57779389
 20
44.27511436999999
 10
27.04895335
 20
44.65676884999999
 10
26.50930686
 20
45.0251756
 10
25.95944723
 20
45.37994111999999
 10
25.39996725
 20
45.72067194
 10
24.83145973
 20
46.04697457999999
 10
24.25451747
 20
46.35845556
 10
23.66973329
 20
46.6547214
 10
23.07769998
 20
46.93537862
 10
22.47901035
 20
47.20003372999999
 10
21.8742572
 20
47.44829325
 10
21.26403335
 20
47.67976371
 10
20.64893158
 20
47.89405162
 10
20.02954472
 20
48.09076351
 10
19.40646555
 20
48.26950588999999
 10
18.78028689
 20
48.42988527
 10
18.15160155
 20
48.57150819000001
 10
17.52100231
 20
48.69398116
 10
16.889082
 20
48.79691068999999
 10
16.3347416
 20
48.88721179
 10
15.80270111
 20
48.99056942
 10
15.30566969
 20
49.10335463
 10
14.8563565
 20
49.22193846999999
 10
14.46747069
 20
49.34269201
 10
14.15172141
 20
49.4619863
 10
13.92181782
 20
49.57619240999999
 10
13.79046907
 20
49.68168138
 10
13.76671743
 20
49.7542406
 10
13.77245853
 20
49.87030293
 10
13.80643401
 20
50.02732649
 10
13.8673855
 20
50.2227694
 10
14.06518302
 20
50.71874578
 10
14.35578416
 20
51.33789705
 10
14.72912197
 20
52.0598882
 10
15.17512951
 20
52.86438422999999
 10
15.68373982
 20
53.73105010999999
 10
16.24488598
 20
54.63955084
 10
17.19940782
 20
56.19948989
 10
18.08739966
 20
57.75767909
 10
18.9089175
 20
59.31299941
 10
19.6640173
 20
60.86433184
 10
20.35275508
 20
62.41055735999999
 10
20.97518681
 20
63.95055693999999
 10
21.53136849
 20
65.48321157
 10
21.78463305
 20
66.24643482999999
 10
22.0213561
 20
67.00740222
 10
22.24154463
 20
67.76597386
 10
22.44520563
 20
68.52200987
 10
22.63234612
 20
69.27537038
 10
22.80297308
 20
70.02591551
 10
22.95709352
 20
70.77350537
 10
23.09471443
 20
71.51800009999999
 10
23.21584282
 20
72.25925981999999
 10
23.32048567
 20
72.99714464
 10
23.40865
 20
73.7315147
 10
23.4803428
 20
74.46223010999999
 10
23.53557106
 20
75.18915099
 10
23.57434179
 20
75.91213747000001
 10
23.59666198
 20
76.63104966999999
 10
23.60253864
 20
77.34574771
 10
23.59197876
 20
78.05609171
 10
23.56498934
 20
78.76194180999999
 10
23.52157738
 20
79.46315810999999
 10
23.46174988
 20
80.15960075
 10
23.38551384
 20
80.85112984
 10
23.29287625
 20
81.53760549999999
 10
23.18384411
 20
82.21888787000001
 10
23.05842443
 20
82.89483706
 10
22.9166242
 20
83.56531319
 10
22.75845041
 20
84.23017638999999
 10
22.58391008
 20
84.88928677
 10
22.3930102
 20
85.54250446999999
 10
22.18575776
 20
86.18968961
 10
21.96215976
 20
86.83070229
 10
21.72222321
 20
87.46540266
 10
21.4659551
 20
88.09365083000001
 10
21.19336243
 20
88.71530692
 10
20.9044522
 20
89.33023106
 10
20.59923141
 20
89.93828337
 10
20.27770706
 20
90.53932397
 10
19.93988614
 20
91.13321298
 10
19.58577565
 20
91.71981053000001
 10
19.2153826
 20
92.29897673000001
 10
18.82871398
 20
92.87057172
 10
18.42577678
 20
93.43445561000001
 10
18.00657802
 20
93.99048851999999
 10
17.57112468
 20
94.53853057999999
 10
17.11942377
 20
95.07844191
 10
16.65148229
 20
95.61008263999999
 10
16.16730723
 20
96.13331288000001
 10
15.66690558
 20
96.64799276
 10
15.15028436
 20
97.15398239
 10
14.61745056
 20
97.65114191000002
 10
14.06841118
 20
98.13933144000001
 10
13.45436631
 20
98.65983417
 10
12.83100053
 20
99.16328025
 10
12.19820533
 20
99.64970632000001
 10
11.5558722
 20
100.11914903
 10
10.90389261
 20
100.57164501
 10
10.24215807
 20
101.00723091
 10
9.57056004
 20
101.42594337
 10
8.88899003
 20
101.82781903
 10
8.19733951
 20
102.21289453
 10
7.495499979999999
 20
102.58120651
 10
6.78336292
 20
102.93279161
 10
6.060819809999999
 20
103.26768648
 10
5.327762139999999
 20
103.58592775
 10
4.584081399999999
 20
103.88755206
 10
3.82966908
 20
104.17259607
 10
3.06441666
 20
104.4410964
 10
2.288215629999999
 20
104.6930897
 10
1.500957469999999
 20
104.92861261
 10
0.7025336700000001
 20
105.14770178
 10
-0.10716428
 20
105.35039383
 10
-0.9282448999999999
 20
105.53672543
 10
-1.760816689999999
 20
105.70673319
 10
-2.604988189999999
 20
105.86045377
 10
-3.460867879999999
 20
105.99792381
 10
-4.3285643
 20
106.11917995
 10
-5.208185949999999
 20
106.22425883
 10
-6.09984135
 20
106.31319709
 10
-7.003639019999999
 20
106.38603137
 10
-7.919687449999999
 20
106.44279832
 10
-8.848095179999999
 20
106.48353457
 10
-9.7889707
 20
106.50827676
 10
-10.74242255
 20
106.51706154
 10
-11.93851765
 20
106.50417191
 10
-13.11755476
 20
106.46358002
 10
-14.27912036
 20
106.39548217
 10
-15.42280094
 20
106.30007465
 10
-16.548183
 20
106.17755374
 10
-17.65485304
 20
106.02811575
 10
-18.74239754
 20
105.85195696
 10
-19.810403
 20
105.64927365
 10
-20.85845591
 20
105.42026214
 10
-21.88614277
 20
105.16511869
 10
-22.89305006
 20
104.88403961
 10
-23.87876429
 20
104.57722118
 10
-24.84287194
 20
104.24485971
 10
-25.78495951
 20
103.88715146
 10
-26.7046135
 20
103.50429275
 10
-27.60142038
 20
103.09647986
 10
-28.47496667
 20
102.66390907
 10
-29.32483885
 20
102.20677669
 10
-30.15062341
 20
101.725279
 10
-30.95190685
 20
101.2196123
 10
-31.72827566
 20
100.68997286
 10
-32.47931634
 20
100.136557
 10
-33.20461537
 20
99.55956098999999
 10
-33.90375925
 20
98.95918112
 10
-34.57633448
 20
98.33561369999999
 10
-35.22192755
 20
97.689055
 10
-35.84012495
 20
97.01970131999999
 10
-36.43051317
 20
96.32774896
 10
-36.9926787
 20
95.61339418999999
 10
-37.52620805
 20
94.87683332000001
 10
-38.0306877
 20
94.11826263
 10
-38.50570415
 20
93.33787841999999
 10
-39.04966175
 20
92.35869769
 10
-39.27838152000001
 20
91.90337175000001
 10
-39.48041844
 20
91.46074687
 10
-39.65738989
 20
91.02321663999999
 10
-39.81091327
 20
90.58317465
 10
-39.94260594
 20
90.13301447999999
 10
-40.05408530999999
 20
89.66512973
 10
-40.14696874
 20
89.17191395999999
 10
-40.22287363
 20
88.64576078
 10
-40.28341736
 20
88.07906377
 10
-40.3302173
 20
87.4642165
 10
-40.38905539
 20
86.05964559
 10
-40.41232696
 20
84.37119672999999
 10
-40.40302129999999
 20
82.89663995999999
 10
-40.35692866
 20
81.57840595000001
 10
-40.27154466
 20
80.39967135000001
 10
-40.1443649
 20
79.34361283
 10
-40.06431899999999
 20
78.85632981
 10
-39.97288502
 20
78.39340706999999
 10
-39.86974991
 20
77.95274166999999
 10
-39.75460062
 20
77.53223070999999
 10
-39.62712411
 20
77.12977127000001
 10
-39.48700733
 20
76.74326043
 10
-39.33393723
 20
76.37059528
 10
-39.16760077
 20
76.00967289999999
 10
-38.82013509
 20
75.34895801000001
 10
-38.43723752
 20
74.71932673000001
 10
-38.02139866
 20
74.12127601999999
 10
-37.57510908
 20
73.55530287
 10
-37.10085937
 20
73.02190423
 10
-36.60114011
 20
72.52157708
 10
-36.07844187
 20
72.05481838
 10
-35.53525525
 20
71.6221251
 10
-34.97407081
 20
71.22399423
 10
-34.39737916
 20
70.86092271
 10
-33.80767085
 20
70.53340752
 10
-33.20743649
 20
70.24194564
 10
-32.59916665
 20
69.98703402
 10
-31.9853519
 20
69.76916965
 10
-31.36848284
 20
69.58884947999999
 10
-30.75105005
 20
69.44657048999999
 10
-30.1355441
 20
69.34282965
 10
-29.52445558
 20
69.27812391999999
 10
-28.92027507
 20
69.25295027999999
 10
-28.32549315
 20
69.26780569
 10
-27.7426004
 20
69.32318712
 10
-27.17408741
 20
69.41959155000001
 10
-26.62244476
 20
69.55751592999999
 10
-26.09016302
 20
69.73745725
 10
-25.57973279
 20
69.95991247
 10
-25.09364464
 20
70.22537855999999
 10
-24.63438915
 20
70.53435247999999
 10
-24.20445691
 20
70.88733121
 10
-23.80633849
 20
71.28481171999999
 10
-23.44252449
 20
71.72729097
 10
-23.11550547
 20
72.21526594
 10
-22.82777203
 20
72.74923359
 10
-22.4958711
 20
73.45902617
 10
-22.37276196
 20
73.75624371
 10
-22.28172323
 20
74.02386411000001
 10
-22.22538705
 20
74.26852889
 10
-22.20638555
 20
74.49687957
 10
-22.22735089
 20
74.71555766999999
 10
-22.2909152
 20
74.93120469
 10
-22.39971063
 20
75.15046218000001
 10
-22.55636932
 20
75.37997163
 10
-22.76352341
 20
75.62637457
 10
-23.02380503
 20
75.89631253
 10
-23.71427949
 20
76.53335954
 10
-24.64884982
 20
77.34424481000001
 10
-25.26318654
 20
77.8999284
 10
-25.83200421
 20
78.46928139
 10
-26.35545636
 20
79.05101177999999
 10
-26.83369652
 20
79.64382761
 10
-27.26687821
 20
80.24643688999999
 10
-27.65515495
 20
80.85754764
 10
-27.99868027
 20
81.47586787999999
 10
-28.2976077
 20
82.10010563
 10
-28.55209075
 20
82.72896891
 10
-28.76228296
 20
83.36116572999999
 10
-28.92833785
 20
83.99540412
 10
-29.05040895
 20
84.63039208999999
 10
-29.12864978
 20
85.26483767
 10
-29.16321386
 20
85.89744888
 10
-29.15425472
 20
86.52693372999999
 10
-29.10192589
 20
87.15200024000001
 10
-29.00638089
 20
87.77135642999999
 10
-28.86777325
 20
88.38371032000001
 10
-28.68625648
 20
88.98776993
 10
-28.46198413
 20
89.58224328
 10
-28.1951097
 20
90.16583839
 10
-27.88578673
 20
90.73726327999999
 10
-27.53416874
 20
91.29522595999999
 10
-27.14040926
 20
91.83843446
 10
-26.70466182
 20
92.3655968
 10
-26.22707992
 20
92.87542098999999
 10
-25.70781711
 20
93.36661505
 10
-25.14702691
 20
93.83788701
 10
-24.54486284
 20
94.28794487000001
 10
-23.90147843
 20
94.71549666999999
 10
-23.2170272
 20
95.11925041999999
 10
-22.49166268
 20
95.49791414000001
 10
-21.81450135
 20
95.80367991000001
 10
-21.04822997
 20
96.10304557
 10
-20.20522376
 20
96.39364030999999
 10
-19.29785794
 20
96.67309332000002
 10
-18.33850775
 20
96.93903378999999
 10
-17.33954838
 20
97.18909089
 10
-16.31335508
 20
97.42089382999999
 10
-15.27230306
 20
97.63207176999999
 10
-14.22876754
 20
97.82025391000001
 10
-13.19512375
 20
97.98306944
 10
-12.1837469
 20
98.11814754
 10
-11.20701222
 20
98.22311738999999
 10
-10.27729493
 20
98.29560818
 10
-9.40697025
 20
98.33324910000001
 10
-8.60841341
 20
98.33366934
 10
-7.893999609999999
 20
98.29449807000001
 10
-7.067798579999999
 20
98.20555210000001
 10
-6.25667954
 20
98.08803425
 10
-5.461014399999999
 20
97.94227840000001
 10
-4.681175099999999
 20
97.76861842
 10
-3.917533549999999
 20
97.56738816
 10
-3.170461679999999
 20
97.3389215
 10
-2.44033142
 20
97.0835523
 10
-1.727514669999999
 20
96.80161442000001
 10
-1.032383379999999
 20
96.49344173999999
 10
-0.35530946
 20
96.15936812000001
 10
0.30333517
 20
95.79972742
 10
0.94317858
 20
95.41485352
 10
1.563848839999999
 20
95.00508027
 10
2.16497405
 20
94.57074154999999
 10
2.746182269999999
 20
94.11217122
 10
3.307101569999999
 20
93.62970314
 10
3.847360039999999
 20
93.12367118999999
 10
4.36658576
 20
92.59440922999999
 10
4.86440679
 20
92.04225112000001
 10
5.34045123
 20
91.46753074000001
 10
5.79434713
 20
90.87058193999999
 10
6.22572259
 20
90.2517386
 10
6.63420567
 20
89.61133457
 10
7.019424459999999
 20
88.94970374000001
 10
7.38100702
 20
88.26717995
 10
7.71858145
 20
87.56409709000001
 10
8.031775809999999
 20
86.84078900999999
 10
8.320218179999999
 20
86.09758958
 10
8.58353664
 20
85.33483266999999
 10
8.821359259999999
 20
84.55285215000001
 10
9.03331413
 20
83.75198187
 10
9.21902932
 20
82.93255571000001
 10
9.357049359999999
 20
82.19643342999999
 10
9.46709856
 20
81.44898211999999
 10
9.549248359999999
 20
80.69042226
 10
9.60357025
 20
79.92097431000001
 10
9.63013568
 20
79.14085875000001
 10
9.62901611
 20
78.35029604
 10
9.600282999999999
 20
77.54950666
 10
9.544007829999999
 20
76.73871107
 10
9.46026205
 20
75.91812973999999
 10
9.349117129999999
 20
75.08798314999999
 10
9.21064454
 20
74.24849175
 10
9.04491572
 20
73.39987601999999
 10
8.852002159999999
 20
72.54235643
 10
8.6319753
 20
71.67615345
 10
8.384906629999999
 20
70.80148755
 10
8.110867589999999
 20
69.91857919
 10
7.809929649999999
 20
69.02764883999999
 10
7.48216428
 20
68.12891698999999
 10
7.12764294
 20
67.22260408
 10
6.746437089999999
 20
66.3089306
 10
6.338618199999999
 20
65.38811701
 10
5.90425772
 20
64.46038378
 10
5.443427129999999
 20
63.52595138
 10
4.95619789
 20
62.58504028
 10
4.442641459999999
 20
61.63787094999999
 10
3.9028293
 20
60.68466385
 10
3.336832879999999
 20
59.72563947
 10
2.74472366
 20
58.76101825
 10
2.126573099999999
 20
57.79102069
 10
1.482452669999999
 20
56.81586724
 10
0.8124338299999999
 20
55.83577836999999
 10
0.11658804
 20
54.85097456
 10
-1.186225029999999
 20
53.00841211
 10
-2.40512607
 20
51.22292405999999
 10
-3.56334007
 20
49.45670119999999
 10
-4.68409203
 20
47.67193430999999
 10
-5.790606939999999
 20
45.83081417999999
 10
-6.90610979
 20
43.89553161
 10
-8.053825579999999
 20
41.82827737
 10
-9.256979299999999
 20
39.59124225
 10
-9.649392
 20
38.8934901
 10
-9.83986786
 20
38.597205
 10
-10.03377253
 20
38.33155523
 10
-10.23654287
 20
38.09322179
 10
-10.45361573
 20
37.87888568
 10
-10.69042798
 20
37.6852279
 10
-10.95241646
 20
37.50892945
 10
-11.24501803
 20
37.34667133
 10
-11.57366955
 20
37.19513455
 10
-11.94380787
 20
37.05100011
 10
-12.36086985
 20
36.91094902
 10
-13.35751221
 20
36.62982085
 10
-14.60709148
 20
36.32519808
 10
-15.53856259
 20
36.08537458
 10
-16.45753902
 20
35.80538492
 10
-17.36091183
 20
35.487237
 10
-18.24557213
 20
35.13293871
 10
-19.10841099
 20
34.74449796
 10
-19.94631951
 20
34.32392263
 10
-20.75618877
 20
33.87322064
 10
-21.53490986
 20
33.39439987
 10
-22.27937387
 20
32.88946822
 10
-22.98647188
 20
32.3604336
 10
-23.65309498
 20
31.8093039
 10
-24.27613427
 20
31.23808701
 10
-24.85248082
 20
30.64879085
 10
-25.37902572
 20
30.04342329
 10
-25.85266006
 20
29.42399225
 10
-26.27027493
 20
28.79250563
 10
-26.56102753
 20
28.26974821
 10
-26.82201852
 20
27.70677881
 10
-27.05275578
 20
27.10960423
 10
-27.25274714
 20
26.48423129
 10
-27.42150045
 20
25.83666679
 10
-27.55852357
 20
25.17291754
 10
-27.66332434
 20
24.49899035
 10
-27.7354106
 20
23.82089203
 10
-27.77429022
 20
23.14462939
 10
-27.77947102
 20
22.47620923
 10
-27.75046088
 20
21.82163837
 10
-27.68676762
 20
21.18692361
 10
-27.58789911
 20
20.57807176
 10
-27.45336319
 20
20.00108964
 10
-27.2826677
 20
19.46198404
 10
-27.0753205
 20
18.96676179
 10
-26.90545853
 20
18.5912143
 10
-26.78416408
 20
18.27604721
 10
-26.71038374
 20
18.02084162
 10
-26.68306409
 20
17.8251786
 10
-26.7011517
 20
17.68863923
 10
-26.72689405
 20
17.64241001
 10
-26.76359317
 20
17.61080461
 10
-26.81111741
 20
17.59377067
 10
-26.86933507
 20
17.59125581
 10
-27.01732397
 20
17.62957391
 10
-27.20650647
 20
17.72534001
 10
-27.43582913
 20
17.87813517
 10
-27.70423855
 20
18.08754048
 10
-28.01068129
 20
18.35313703
 10
-28.73345308
 20
19.05122816
 10
-29.59571715
 20
19.96905722
 10
-30.1771276
 20
20.57399513
 10
-30.78886311
 20
21.13885146
 10
-31.42928562
 20
21.66365163
 10
-32.09675709
 20
22.14842108
 10
-32.78963944
 20
22.59318526
 10
-33.50629464
 20
22.99796958
 10
-34.24508462
 20
23.36279949
 10
-35.00437132
 20
23.68770043
 10
-35.78251669
 20
23.97269783
 10
-36.57788267
 20
24.21781712
 10
-37.38883122
 20
24.42308374
 10
-38.21372426
 20
24.58852313
 10
-39.05092375
 20
24.71416072
 10
-39.89879163
 20
24.80002195
 10
-40.75568984
 20
24.84613225
 10
-41.61998032
 20
24.85251705
 10
-42.49002502999999
 20
24.8192018
 10
-43.36418591
 20
24.74621193
 10
-44.24082488999999
 20
24.63357287
 10
-45.11830393
 20
24.48131006
 10
-45.99498495999999
 20
24.28944894
 10
-46.86922993
 20
24.05801493
 10
-47.73940078999999
 20
23.78703348
 10
-48.60385948
 20
23.47653003
 10
-49.46096794
 20
23.12653
 10
-50.30908811999999
 20
22.73705883
 10
-51.14658196
 20
22.30814196
 10
-51.9718114
 20
21.83980482
 10
-52.7831384
 20
21.33207285
 10
-53.57892488
 20
20.78497148
 10
-54.3575328
 20
20.19852615
 10
-55.11732411
 20
19.5727623
 10
-55.59582788
 20
19.14338417
 10
-56.05678926
 20
18.6946956
 10
-56.49986409
 20
18.22791049
 10
-56.9247082
 20
17.74424275
 10
-57.33097743
 20
17.24490628
 10
-57.71832762999999
 20
16.73111496
 10
-58.08641462
 20
16.2040827
 10
-58.43489425
 20
15.66502341
 10
-58.76342235
 20
15.11515097
 10
-59.07165476
 20
14.55567929
 10
-59.35924733
 20
13.98782228
 10
-59.62585587
 20
13.41279381
 10
-59.87113625
 20
12.83180781
 10
-60.09474428
 20
12.24607816
 10
-60.29633581
 20
11.65681876
 10
-60.47556668
 20
11.06524352
 10
-60.63209273
 20
10.47256633
 10
-60.76556979
 20
9.88000109
 10
-60.8756537
 20
9.288761709999999
 10
-60.96200029
 20
8.700062069999999
 10
-61.02426540999999
 20
8.11511609
 10
-61.0621049
 20
7.53513765
 10
-61.07517458
 20
6.96134066
 10
-61.06313031
 20
6.394939019999999
 10
-61.02562791
 20
5.83714663
 10
-60.96232323
 20
5.289177379999999
 10
-60.87287209
 20
4.75224518
 10
-60.75693035
 20
4.227563919999999
 10
-60.61415382999999
 20
3.716347509999999
 10
-60.44419838
 20
3.219809839999999
 10
-60.24671983000001
 20
2.73916481
 10
-60.02137402
 20
2.27562632
 10
-59.71592032
 20
1.76405538
 10
-59.31857582
 20
1.209262969999999
 10
-58.83731696
 20
0.6179512100000001
 10
-58.28012016999999
 20
-0.0031778
 10
-57.65496187
 20
-0.6474219300000001
 10
-56.96981848
 20
-1.308079079999999
 10
-56.23266643
 20
-1.97844712
 10
-55.45148215
 20
-2.65182396
 10
-54.63424206
 20
-3.321507469999999
 10
-53.78892258
 20
-3.980795539999999
 10
-52.92350016
 20
-4.622986049999999
 10
-52.0459512
 20
-5.241376909999999
 10
-51.16425213
 20
-5.829265979999999
 10
-50.28637939
 20
-6.37995116
 10
-49.42030939
 20
-6.886730339999999
 10
-48.57401857
 20
-7.342901399999999
 10
-45.02416194
 20
-9.167908159999999
 10
-53.58640511
 20
-10.4307876
 10
-55.81214963
 20
-10.74522901
 10
-58.54304396999999
 20
-11.10787268
 10
-65.28427436
 20
-11.9512418
 10
-73.33808079
 20
-12.90784483
 10
-82.23244776999999
 20
-13.92463168
 10
-91.49535978999999
 20
-14.94855224
 10
-100.65480137
 20
-15.92655641
 10
-109.23875699
 20
-16.80559409
 10
-116.77521117
 20
-17.53261518
 10
-120.99268378
 20
-17.93124462
 10
-125.22230116
 20
-18.34866102
 10
-129.4487272
 20
-18.78294395
 10
-133.65662576
 20
-19.23217298
 10
-137.8306607
 20
-19.69442765
 10
-141.95549589
 20
-20.16778753
 10
-146.01579521
 20
-20.65033218
 10
-149.99622251
 20
-21.14014116
 10
-153.88144167
 20
-21.63529403
 10
-157.65611656
 20
-22.13387034
 10
-161.30491103
 20
-22.63394966
 10
-164.81248897
 20
-23.13361154
 10
-168.16351423
 20
-23.63093556
 10
-171.34265069
 20
-24.12400125
 10
-174.33456221
 20
-24.6108882
 10
-177.12391267
 20
-25.08967594
 10
-178.4675294836176
 20
-25.32710272121851
 10
-184.29311253
 20
-26.35652526
 10
-186.10562167
 20
-29.68937135
 10
-186.48709615
 20
-30.36860003
 10
-186.85047027
 20
-30.96566986
 10
-187.1999351
 20
-31.48165602
 10
-187.53968169
 20
-31.91763367
 10
-187.87390109
 20
-32.274678
 10
-188.04024781
 20
-32.42393615000001
 10
-188.1969649429669
 20
-32.56530055223732
 10
-188.3411756613304
 20
-32.68375752310487
 10
-188.4769158217357
 20
-32.8048321502879
 10
-188.6410249190265
 20
-32.95517891405393
 10
-188.8188094018797
 20
-33.10096942007795
 10
-189.01482922233
 20
-33.23309229896063
 10
-189.1698206508224
 20
-33.30143215379394
 10
-189.3202543625507
 20
-33.36977143558511
 10
-189.4159842967585
 20
-33.41077489005147
 10
-189.6393548883338
 20
-33.47000280244311
 10
-189.9010190182816
 20
-33.52276679994009
 10
-190.230266554977
 20
-33.57541618901689
 10
-190.511466950014
 20
-33.61207254610804
 10
-191.1897687562371
 20
-33.63293185161194
 10
-191.8158937583588
 20
-33.58078444741523
 10
-192.3898419563793
 20
-33.49734951756796
 10
-192.9324829543036
 20
-33.39305528221667
 10
-193.6883717333082
 20
-32.95602450542772
 10
-194.171746237833
 20
-32.45471895255022
 10
-194.493228009175
 20
-31.84811650959257
 10
-194.5971117074089
 20
-31.23220231922826
 10
-194.72652954
 20
-30.47606297588186
 10
-194.9390261418991
 20
-29.8656000800288
 10
-195.51065824
 20
-29.68454862
 10
-195.94412081
 20
-29.67724792
 10
-196.41726279
 20
-29.71116251
 10
-196.93914463
 20
-29.78568104
 10
-197.51882679
 20
-29.90019219
 10
-198.16536972
 20
-30.05408462
 10
-198.88783386
 20
-30.24674699
 10
-200.59676759
 20
-30.74593623
  0
ENDSEC
  0
SECTION
  2
OBJECTS
  0
DICTIONARY
  5
C
330
0
100
AcDbDictionary
281
     1
  3
ACAD_COLOR
350
6A
  3
ACAD_GROUP
350
D
  3
ACAD_LAYOUT
350
69
  3
ACAD_MATERIAL
350
10
  3
ACAD_MLEADERSTYLE
350
6D
  3
ACAD_MLINESTYLE
350
66
  3
ACAD_PLOTSETTINGS
350
68
  3
ACAD_PLOTSTYLENAME
350
E
  3
ACAD_SCALELIST
350
3A
  3
ACAD_TABLESTYLE
350
6B
  3
ACAD_VISUALSTYLE
350
29
  3
ACDB_RECOMPOSE_DATA
350
1403
  3
AcDbVariableDictionary
350
13EE
  3
DWGPROPS
350
1404
  0
DICTIONARY
  5
13EA
330
5C
100
AcDbDictionary
280
     1
281
     1
  3
ADSK_XREC_LAYER_RECONCILED
360
13EB
  0
DICTIONARY
  5
13EC
330
78
100
AcDbDictionary
280
     1
281
     1
  3
ADSK_XREC_LAYER_RECONCILED
360
13ED
  0
DICTIONARY
  5
13D8
330
74
100
AcDbDictionary
280
     1
281
     1
  3
ACAD_SORTENTS
360
13D9
  0
DICTIONARY
  5
6A
102
{ACAD_REACTORS
330
C
102
}
330
C
100
AcDbDictionary
281
     1
  0
DICTIONARY
  5
D
102
{ACAD_REACTORS
330
C
102
}
330
C
100
AcDbDictionary
281
     1
  0
DICTIONARY
  5
69
102
{ACAD_REACTORS
330
C
102
}
330
C
100
AcDbDictionary
281
     1
  3
Layout1
350
73
  3
Model
350
77
  0
DICTIONARY
  5
10
102
{ACAD_REACTORS
330
C
102
}
330
C
100
AcDbDictionary
281
     1
  3
ByBlock
350
19
  3
ByLayer
350
11
  3
Global
350
21
  0
DICTIONARY
  5
6D
102
{ACAD_REACTORS
330
C
102
}
330
C
100
AcDbDictionary
281
     1
  3
Standard
350
6E
  0
DICTIONARY
  5
66
102
{ACAD_REACTORS
330
C
102
}
330
C
100
AcDbDictionary
281
     1
  3
Standard
350
67
  0
DICTIONARY
  5
68
102
{ACAD_REACTORS
330
C
102
}
330
C
100
AcDbDictionary
281
     1
  0
ACDBDICTIONARYWDFLT
  5
E
102
{ACAD_REACTORS
330
C
102
}
330
C
100
AcDbDictionary
281
     1
  3
Normal
350
F
100
AcDbDictionaryWithDefault
340
F
  0
DICTIONARY
  5
3A
102
{ACAD_REACTORS
330
C
102
}
330
C
100
AcDbDictionary
281
     1
  3
A0
350
3B
  3
A1
350
3C
  3
A2
350
3D
  3
A3
350
3E
  3
A4
350
3F
  3
A5
350
40
  3
A6
350
41
  3
A7
350
42
  3
A8
350
43
  3
A9
350
44
  3
B0
350
45
  3
B1
350
46
  3
B2
350
47
  3
B3
350
48
  3
B4
350
49
  3
B5
350
4A
  3
B6
350
4B
  3
B7
350
4C
  3
B8
350
4D
  3
B9
350
4E
  3
C0
350
4F
  3
C1
350
50
  3
C2
350
51
  3
C3
350
52
  3
C4
350
53
  3
C5
350
54
  3
C6
350
55
  3
C7
350
56
  3
C8
350
57
  3
C9
350
58
  3
D0
350
59
  3
D1
350
5A
  3
D2
350
5B
  0
DICTIONARY
  5
6B
102
{ACAD_REACTORS
330
C
102
}
330
C
100
AcDbDictionary
281
     1
  3
Standard
350
6C
  0
DICTIONARY
  5
29
102
{ACAD_REACTORS
330
C
102
}
330
C
100
AcDbDictionary
281
     1
  3
2dWireframe
350
2F
  3
3D Hidden
350
31
  3
3dWireframe
350
30
  3
Basic
350
2E
  3
Brighten
350
35
  3
ColorChange
350
39
  3
Conceptual
350
32
  3
Dim
350
34
  3
Facepattern
350
38
  3
Flat
350
2A
  3
FlatWithEdges
350
2B
  3
Gouraud
350
2C
  3
GouraudWithEdges
350
2D
  3
Linepattern
350
37
  3
Realistic
350
33
  3
Thicken
350
36
  0
XRECORD
  5
1403
102
{ACAD_REACTORS
330
C
102
}
330
C
100
AcDbXrecord
280
     1
 90
        1
330
6C
  0
DICTIONARY
  5
13EE
102
{ACAD_REACTORS
330
C
102
}
330
C
100
AcDbDictionary
281
     1
  3
CANNOSCALE
350
13F1
  3
CMLEADERSTYLE
350
13F0
  3
CTABLESTYLE
350
13EF
  3
DIMASSOC
350
13F4
  3
INDEXCTL
350
13F3
  3
SORTENTS
350
13F2
  0
XRECORD
  5
1404
102
{ACAD_REACTORS
330
C
102
}
330
C
100
AcDbXrecord
280
     1
  1
DWGPROPS COOKIE
  2

  3

  4

  6

  7

  8
Admin
  9

300
=
301
=
302
=
303
=
304
=
305
=
306
=
307
=
308
=
309
=
 40
0.0046959953703704
 41
2456997.581779329
 42
2456997.586474062
  1

 90
        0
  0
XRECORD
  5
13EB
102
{ACAD_REACTORS
330
13EA
102
}
330
13EA
100
AcDbXrecord
280
     1
290
     1
  0
XRECORD
  5
13ED
102
{ACAD_REACTORS
330
13EC
102
}
330
13EC
100
AcDbXrecord
280
     1
290
     1
  0
SORTENTSTABLE
  5
13D9
102
{ACAD_REACTORS
330
13D8
102
}
330
13D8
100
AcDbSortentsTable
330
74
331
FAF
  5
122D
331
703
  5
FAF
331
555
  5
703
331
63D
  5
740
331
137D
  5
13D7
331
F4E
  5
10B1
331
1014
  5
137D
331
122D
  5
13D6
331
50B
  5
69F
331
740
  5
1014
331
13E7
  5
13E9
331
6D8
  5
F4E
331
7A3
  5
1055
331
4DB
  5
63D
331
46C
  5
535
331
1055
  5
13D4
331
48C
  5
555
331
10B1
  5
13D5
331
69F
  5
7A3
331
535
  5
6D8
  0
LAYOUT
  5
73
102
{ACAD_XDICTIONARY
360
1409
102
}
102
{ACAD_REACTORS
330
69
102
}
330
69
100
AcDbPlotSettings
  1

  2
C:\Documents and Settings\Admin\Application Data\Autodesk\AutoCAD 2008\R17.1\enu\plotters\DWG To PDF.pc3
  4

  6

 40
0.0
 41
0.0
 42
0.0
 43
0.0
 44
0.0
 45
0.0
 46
0.0
 47
0.0
 48
0.0
 49
0.0
140
0.0
141
0.0
142
1.0
143
1.0
 70
   688
 72
     0
 73
     0
 74
     5
  7

 75
    16
147
1.0
148
0.0
149
0.0
100
AcDbLayout
  1
Layout1
 70
     1
 71
     1
 10
0.0
 20
0.0
 11
12.0
 21
9.0
 12
0.0
 22
0.0
 32
0.0
 14
1.000000000000000E+20
 24
1.000000000000000E+20
 34
1.000000000000000E+20
 15
-1.000000000000000E+20
 25
-1.000000000000000E+20
 35
-1.000000000000000E+20
146
0.0
 13
0.0
 23
0.0
 33
0.0
 16
1.0
 26
0.0
 36
0.0
 17
0.0
 27
1.0
 37
0.0
 76
     0
330
70
  0
LAYOUT
  5
77
102
{ACAD_XDICTIONARY
360
140B
102
}
102
{ACAD_REACTORS
330
69
102
}
330
69
100
AcDbPlotSettings
  1

  2
C:\Documents and Settings\Admin\Application Data\Autodesk\AutoCAD 2008\R17.1\enu\plotters\DWG To PDF.pc3
  4

  6

 40
0.0
 41
0.0
 42
0.0
 43
0.0
 44
0.0
 45
0.0
 46
0.0
 47
0.0
 48
0.0
 49
0.0
140
0.0
141
0.0
142
1.0
143
1.0
 70
  1712
 72
     0
 73
     0
 74
     0
  7

 75
     0
147
1.0
148
0.0
149
0.0
100
AcDbLayout
  1
Model
 70
     1
 71
     0
 10
0.0
 20
0.0
 11
12.0
 21
9.0
 12
0.0
 22
0.0
 32
0.0
 14
0.0
 24
0.0
 34
0.0
 15
0.0
 25
0.0
 35
0.0
146
0.0
 13
0.0
 23
0.0
 33
0.0
 16
1.0
 26
0.0
 36
0.0
 17
0.0
 27
1.0
 37
0.0
 76
     0
330
74
331
7A
  0
MATERIAL
  5
19
102
{ACAD_XDICTIONARY
360
1A
102
}
102
{ACAD_REACTORS
330
10
102
}
330
10
100
AcDbMaterial
  1
ByBlock
 72
     0
 43
0.0208333333333333
 43
0.0
 43
0.0
 43
0.0
 43
0.0
 43
0.0208333333333333
 43
0.0
 43
0.0
 43
0.0
 43
0.0
 43
1.0
 43
0.0
 43
0.0
 43
0.0
 43
0.0
 43
1.0
 77
     0
 47
0.0208333333333333
 47
0.0
 47
0.0
 47
0.0
 47
0.0
 47
0.0208333333333333
 47
0.0
 47
0.0
 47
0.0
 47
0.0
 47
1.0
 47
0.0
 47
0.0
 47
0.0
 47
0.0
 47
1.0
171
     0
 49
0.0208333333333333
 49
0.0
 49
0.0
 49
0.0
 49
0.0
 49
0.0208333333333333
 49
0.0
 49
0.0
 49
0.0
 49
0.0
 49
1.0
 49
0.0
 49
0.0
 49
0.0
 49
0.0
 49
1.0
175
     0
142
0.0208333333333333
142
0.0
142
0.0
142
0.0
142
0.0
142
0.0208333333333333
142
0.0
142
0.0
142
0.0
142
0.0
142
1.0
142
0.0
142
0.0
142
0.0
142
0.0
142
1.0
179
     0
144
0.0208333333333333
144
0.0
144
0.0
144
0.0
144
0.0
144
0.0208333333333333
144
0.0
144
0.0
144
0.0
144
0.0
144
1.0
144
0.0
144
0.0
144
0.0
144
0.0
144
1.0
147
0.0208333333333333
147
0.0
147
0.0
147
0.0
147
0.0
147
0.0208333333333333
147
0.0
147
0.0
147
0.0
147
0.0
147
1.0
147
0.0
147
0.0
147
0.0
147
0.0
147
1.0
  0
MATERIAL
  5
11
102
{ACAD_XDICTIONARY
360
12
102
}
102
{ACAD_REACTORS
330
10
102
}
330
10
100
AcDbMaterial
  1
ByLayer
 72
     0
 43
0.0208333333333333
 43
0.0
 43
0.0
 43
0.0
 43
0.0
 43
0.0208333333333333
 43
0.0
 43
0.0
 43
0.0
 43
0.0
 43
1.0
 43
0.0
 43
0.0
 43
0.0
 43
0.0
 43
1.0
 77
     0
 47
0.0208333333333333
 47
0.0
 47
0.0
 47
0.0
 47
0.0
 47
0.0208333333333333
 47
0.0
 47
0.0
 47
0.0
 47
0.0
 47
1.0
 47
0.0
 47
0.0
 47
0.0
 47
0.0
 47
1.0
171
     0
 49
0.0208333333333333
 49
0.0
 49
0.0
 49
0.0
 49
0.0
 49
0.0208333333333333
 49
0.0
 49
0.0
 49
0.0
 49
0.0
 49
1.0
 49
0.0
 49
0.0
 49
0.0
 49
0.0
 49
1.0
175
     0
142
0.0208333333333333
142
0.0
142
0.0
142
0.0
142
0.0
142
0.0208333333333333
142
0.0
142
0.0
142
0.0
142
0.0
142
1.0
142
0.0
142
0.0
142
0.0
142
0.0
142
1.0
179
     0
144
0.0208333333333333
144
0.0
144
0.0
144
0.0
144
0.0
144
0.0208333333333333
144
0.0
144
0.0
144
0.0
144
0.0
144
1.0
144
0.0
144
0.0
144
0.0
144
0.0
144
1.0
147
0.0208333333333333
147
0.0
147
0.0
147
0.0
147
0.0
147
0.0208333333333333
147
0.0
147
0.0
147
0.0
147
0.0
147
1.0
147
0.0
147
0.0
147
0.0
147
0.0
147
1.0
  0
MATERIAL
  5
21
102
{ACAD_XDICTIONARY
360
22
102
}
102
{ACAD_REACTORS
330
10
102
}
330
10
100
AcDbMaterial
  1
Global
 72
     0
 43
0.0208333333333333
 43
0.0
 43
0.0
 43
0.0
 43
0.0
 43
0.0208333333333333
 43
0.0
 43
0.0
 43
0.0
 43
0.0
 43
1.0
 43
0.0
 43
0.0
 43
0.0
 43
0.0
 43
1.0
 77
     0
 47
0.0208333333333333
 47
0.0
 47
0.0
 47
0.0
 47
0.0
 47
0.0208333333333333
 47
0.0
 47
0.0
 47
0.0
 47
0.0
 47
1.0
 47
0.0
 47
0.0
 47
0.0
 47
0.0
 47
1.0
171
     0
 49
0.0208333333333333
 49
0.0
 49
0.0
 49
0.0
 49
0.0
 49
0.0208333333333333
 49
0.0
 49
0.0
 49
0.0
 49
0.0
 49
1.0
 49
0.0
 49
0.0
 49
0.0
 49
0.0
 49
1.0
175
     0
142
0.0208333333333333
142
0.0
142
0.0
142
0.0
142
0.0
142
0.0208333333333333
142
0.0
142
0.0
142
0.0
142
0.0
142
1.0
142
0.0
142
0.0
142
0.0
142
0.0
142
1.0
179
     0
144
0.0208333333333333
144
0.0
144
0.0
144
0.0
144
0.0
144
0.0208333333333333
144
0.0
144
0.0
144
0.0
144
0.0
144
1.0
144
0.0
144
0.0
144
0.0
144
0.0
144
1.0
147
0.0208333333333333
147
0.0
147
0.0
147
0.0
147
0.0
147
0.0208333333333333
147
0.0
147
0.0
147
0.0
147
0.0
147
1.0
147
0.0
147
0.0
147
0.0
147
0.0
147
1.0
  0
MLEADERSTYLE
  5
6E
102
{ACAD_REACTORS
330
6D
102
}
330
6D
100
AcDbMLeaderStyle
170
     2
171
     1
172
     0
 90
        2
 40
0.0
 41
0.0
173
     1
 91
-1056964608
340
62
 92
       -2
290
     1
 42
0.09
291
     1
 43
0.36
  3
Standard
 44
0.18
300

342
5D
174
     1
178
     6
175
     1
176
     0
 93
-1056964608
 45
0.18
292
     0
297
     0
 46
0.18
 94
-1056964608
 47
1.0
 49
1.0
140
1.0
293
     1
141
0.0
294
     1
177
     0
142
1.0
295
     0
296
     0
143
0.125
1001
ACAD_MLEADERVER
1070
     2
  0
MLINESTYLE
  5
67
102
{ACAD_REACTORS
330
66
102
}
330
66
100
AcDbMlineStyle
  2
STANDARD
 70
     0
  3

 62
   256
 51
90.0
 52
90.0
 71
     2
 49
0.5
 62
   256
  6
BYLAYER
 49
-0.5
 62
   256
  6
BYLAYER
  0
ACDBPLACEHOLDER
  5
F
102
{ACAD_REACTORS
330
E
102
}
330
E
  0
SCALE
  5
3B
102
{ACAD_REACTORS
330
3A
102
}
330
3A
100
AcDbScale
 70
     0
300
1:1
140
1.0
141
1.0
290
     1
  0
SCALE
  5
3C
102
{ACAD_REACTORS
330
3A
102
}
330
3A
100
AcDbScale
 70
     0
300
1:2
140
1.0
141
2.0
290
     0
  0
SCALE
  5
3D
102
{ACAD_REACTORS
330
3A
102
}
330
3A
100
AcDbScale
 70
     0
300
1:4
140
1.0
141
4.0
290
     0
  0
SCALE
  5
3E
102
{ACAD_REACTORS
330
3A
102
}
330
3A
100
AcDbScale
 70
     0
300
1:5
140
1.0
141
5.0
290
     0
  0
SCALE
  5
3F
102
{ACAD_REACTORS
330
3A
102
}
330
3A
100
AcDbScale
 70
     0
300
1:8
140
1.0
141
8.0
290
     0
  0
SCALE
  5
40
102
{ACAD_REACTORS
330
3A
102
}
330
3A
100
AcDbScale
 70
     0
300
1:10
140
1.0
141
10.0
290
     0
  0
SCALE
  5
41
102
{ACAD_REACTORS
330
3A
102
}
330
3A
100
AcDbScale
 70
     0
300
1:16
140
1.0
141
16.0
290
     0
  0
SCALE
  5
42
102
{ACAD_REACTORS
330
3A
102
}
330
3A
100
AcDbScale
 70
     0
300
1:20
140
1.0
141
20.0
290
     0
  0
SCALE
  5
43
102
{ACAD_REACTORS
330
3A
102
}
330
3A
100
AcDbScale
 70
     0
300
1:30
140
1.0
141
30.0
290
     0
  0
SCALE
  5
44
102
{ACAD_REACTORS
330
3A
102
}
330
3A
100
AcDbScale
 70
     0
300
1:40
140
1.0
141
40.0
290
     0
  0
SCALE
  5
45
102
{ACAD_REACTORS
330
3A
102
}
330
3A
100
AcDbScale
 70
     0
300
1:50
140
1.0
141
50.0
290
     0
  0
SCALE
  5
46
102
{ACAD_REACTORS
330
3A
102
}
330
3A
100
AcDbScale
 70
     0
300
1:100
140
1.0
141
100.0
290
     0
  0
SCALE
  5
47
102
{ACAD_REACTORS
330
3A
102
}
330
3A
100
AcDbScale
 70
     0
300
2:1
140
2.0
141
1.0
290
     0
  0
SCALE
  5
48
102
{ACAD_REACTORS
330
3A
102
}
330
3A
100
AcDbScale
 70
     0
300
4:1
140
4.0
141
1.0
290
     0
  0
SCALE
  5
49
102
{ACAD_REACTORS
330
3A
102
}
330
3A
100
AcDbScale
 70
     0
300
8:1
140
8.0
141
1.0
290
     0
  0
SCALE
  5
4A
102
{ACAD_REACTORS
330
3A
102
}
330
3A
100
AcDbScale
 70
     0
300
10:1
140
10.0
141
1.0
290
     0
  0
SCALE
  5
4B
102
{ACAD_REACTORS
330
3A
102
}
330
3A
100
AcDbScale
 70
     0
300
100:1
140
100.0
141
1.0
290
     0
  0
SCALE
  5
4C
102
{ACAD_REACTORS
330
3A
102
}
330
3A
100
AcDbScale
 70
     0
300
1/128" = 1'-0"
140
0.0078125
141
12.0
290
     0
  0
SCALE
  5
4D
102
{ACAD_REACTORS
330
3A
102
}
330
3A
100
AcDbScale
 70
     0
300
1/64" = 1'-0"
140
0.015625
141
12.0
290
     0
  0
SCALE
  5
4E
102
{ACAD_REACTORS
330
3A
102
}
330
3A
100
AcDbScale
 70
     0
300
1/32" = 1'-0"
140
0.03125
141
12.0
290
     0
  0
SCALE
  5
4F
102
{ACAD_REACTORS
330
3A
102
}
330
3A
100
AcDbScale
 70
     0
300
1/16" = 1'-0"
140
0.0625
141
12.0
290
     0
  0
SCALE
  5
50
102
{ACAD_REACTORS
330
3A
102
}
330
3A
100
AcDbScale
 70
     0
300
3/32" = 1'-0"
140
0.09375
141
12.0
290
     0
  0
SCALE
  5
51
102
{ACAD_REACTORS
330
3A
102
}
330
3A
100
AcDbScale
 70
     0
300
1/8" = 1'-0"
140
0.125
141
12.0
290
     0
  0
SCALE
  5
52
102
{ACAD_REACTORS
330
3A
102
}
330
3A
100
AcDbScale
 70
     0
300
3/16" = 1'-0"
140
0.1875
141
12.0
290
     0
  0
SCALE
  5
53
102
{ACAD_REACTORS
330
3A
102
}
330
3A
100
AcDbScale
 70
     0
300
1/4" = 1'-0"
140
0.25
141
12.0
290
     0
  0
SCALE
  5
54
102
{ACAD_REACTORS
330
3A
102
}
330
3A
100
AcDbScale
 70
     0
300
3/8" = 1'-0"
140
0.375
141
12.0
290
     0
  0
SCALE
  5
55
102
{ACAD_REACTORS
330
3A
102
}
330
3A
100
AcDbScale
 70
     0
300
1/2" = 1'-0"
140
0.5
141
12.0
290
     0
  0
SCALE
  5
56
102
{ACAD_REACTORS
330
3A
102
}
330
3A
100
AcDbScale
 70
     0
300
3/4" = 1'-0"
140
0.75
141
12.0
290
     0
  0
SCALE
  5
57
102
{ACAD_REACTORS
330
3A
102
}
330
3A
100
AcDbScale
 70
     0
300
1" = 1'-0"
140
1.0
141
12.0
290
     0
  0
SCALE
  5
58
102
{ACAD_REACTORS
330
3A
102
}
330
3A
100
AcDbScale
 70
     0
300
1-1/2" = 1'-0"
140
1.5
141
12.0
290
     0
  0
SCALE
  5
59
102
{ACAD_REACTORS
330
3A
102
}
330
3A
100
AcDbScale
 70
     0
300
3" = 1'-0"
140
3.0
141
12.0
290
     0
  0
SCALE
  5
5A
102
{ACAD_REACTORS
330
3A
102
}
330
3A
100
AcDbScale
 70
     0
300
6" = 1'-0"
140
6.0
141
12.0
290
     0
  0
SCALE
  5
5B
102
{ACAD_REACTORS
330
3A
102
}
330
3A
100
AcDbScale
 70
     0
300
1'-0" = 1'-0"
140
12.0
141
12.0
290
     0
  0
TABLESTYLE
  5
6C
102
{ACAD_XDICTIONARY
360
1401
102
}
102
{ACAD_REACTORS
330
6B
102
}
330
6B
100
AcDbTableStyle
  3
Standard
 70
     0
 71
     0
 40
0.06
 41
0.06
280
     0
281
     0
  7
Standard
140
0.18
170
     2
 62
     0
 63
     7
283
     0
274
    -2
284
     1
 64
     0
275
    -2
285
     1
 65
     0
276
    -2
286
     1
 66
     0
277
    -2
287
     1
 67
     0
278
    -2
288
     1
 68
     0
279
    -2
289
     1
 69
     0
  7
Standard
140
0.25
170
     5
 62
     0
 63
     7
283
     0
274
    -2
284
     1
 64
     0
275
    -2
285
     1
 65
     0
276
    -2
286
     1
 66
     0
277
    -2
287
     1
 67
     0
278
    -2
288
     1
 68
     0
279
    -2
289
     1
 69
     0
  7
Standard
140
0.18
170
     5
 62
     0
 63
     7
283
     0
274
    -2
284
     1
 64
     0
275
    -2
285
     1
 65
     0
276
    -2
286
     1
 66
     0
277
    -2
287
     1
 67
     0
278
    -2
288
     1
 68
     0
279
    -2
289
     1
 69
     0
  0
VISUALSTYLE
  5
2F
102
{ACAD_REACTORS
330
29
102
}
330
29
100
AcDbVisualStyle
  2
2dWireframe
 70
     4
 71
     0
 72
     2
 73
     0
 90
        0
 40
-0.6
 41
-30.0
 62
     5
 63
     7
 74
     1
 91
        4
 64
     7
 65
   257
 75
     1
175
     1
 42
1.0
 92
        0
 66
   257
 43
1.0
 76
     1
 77
     6
 78
     2
 67
     7
 79
     5
170
     0
171
     0
290
     0
174
     0
 93
        1
 44
0.0
173
     0
291
     0
 45
0.0
1001
ACAD
1000
AcDbSavedByObjectVersion
1070
     0
  0
VISUALSTYLE
  5
31
102
{ACAD_REACTORS
330
29
102
}
330
29
100
AcDbVisualStyle
  2
3D Hidden
 70
     6
 71
     1
 72
     2
 73
     2
 90
        0
 40
-0.6
 41
-30.0
 62
     5
 63
     7
 74
     2
 91
        2
 64
     7
 65
   257
 75
     2
175
     1
 42
40.0
 92
        0
 66
   257
 43
1.0
 76
     1
 77
     6
 78
     2
 67
     7
 79
     3
170
     0
171
     0
290
     0
174
     0
 93
        1
 44
0.0
173
     0
291
     0
 45
0.0
1001
ACAD
1000
AcDbSavedByObjectVersion
1070
     0
  0
VISUALSTYLE
  5
30
102
{ACAD_REACTORS
330
29
102
}
330
29
100
AcDbVisualStyle
  2
3dWireframe
 70
     5
 71
     0
 72
     2
 73
     0
 90
        0
 40
-0.6
 41
-30.0
 62
     5
 63
     7
 74
     1
 91
        4
 64
     7
 65
   257
 75
     1
175
     1
 42
1.0
 92
        0
 66
   257
 43
1.0
 76
     1
 77
     6
 78
     2
 67
     7
 79
     5
170
     0
171
     0
290
     0
174
     0
 93
        1
 44
0.0
173
     0
291
     0
 45
0.0
1001
ACAD
1000
AcDbSavedByObjectVersion
1070
     0
  0
VISUALSTYLE
  5
2E
102
{ACAD_REACTORS
330
29
102
}
330
29
100
AcDbVisualStyle
  2
Basic
 70
     7
 71
     1
 72
     0
 73
     1
 90
        0
 40
-0.6
 41
-30.0
 62
     5
 63
     7
 74
     0
 91
        4
 64
     7
 65
   257
 75
     1
175
     1
 42
1.0
 92
        8
 66
     7
 43
1.0
 76
     1
 77
     6
 78
     2
 67
     7
 79
     5
170
     0
171
     0
290
     0
174
     0
 93
        1
 44
0.0
173
     0
291
     1
 45
0.0
1001
ACAD
1000
AcDbSavedByObjectVersion
1070
     0
  0
VISUALSTYLE
  5
35
102
{ACAD_REACTORS
330
29
102
}
330
29
100
AcDbVisualStyle
  2
Brighten
 70
    12
 71
     2
 72
     2
 73
     0
 90
        0
 40
-0.6
 41
-30.0
 62
     5
 63
     7
 74
     1
 91
        4
 64
     7
 65
   257
 75
     1
175
     1
 42
1.0
 92
        8
 66
     7
 43
1.0
 76
     1
 77
     6
 78
     2
 67
     7
 79
     5
170
     0
171
     0
290
     0
174
     0
 93
        1
 44
50.0
173
     0
291
     1
 45
0.0
1001
ACAD
1000
AcDbSavedByObjectVersion
1070
     0
  0
VISUALSTYLE
  5
39
102
{ACAD_REACTORS
330
29
102
}
330
29
100
AcDbVisualStyle
  2
ColorChange
 70
    16
 71
     2
 72
     2
 73
     3
 90
        0
 40
-0.6
 41
-30.0
 62
     5
 63
     8
 74
     1
 91
        4
 64
     7
 65
   257
 75
     1
175
     1
 42
1.0
 92
        8
 66
     8
 43
1.0
 76
     1
 77
     6
 78
     2
 67
     7
 79
     5
170
     0
171
     0
290
     0
174
     0
 93
        1
 44
0.0
173
     0
291
     1
 45
0.0
1001
ACAD
1000
AcDbSavedByObjectVersion
1070
     0
  0
VISUALSTYLE
  5
32
102
{ACAD_REACTORS
330
29
102
}
330
29
100
AcDbVisualStyle
  2
Conceptual
 70
     9
 71
     3
 72
     2
 73
     0
 90
        0
 40
-0.6
 41
-30.0
 62
     5
 63
     7
 74
     2
 91
        2
 64
     7
 65
   257
 75
     1
175
     1
 42
40.0
 92
        8
 66
     7
 43
1.0
 76
     1
 77
     6
 78
     2
 67
     7
 79
     3
170
     0
171
     0
290
     0
174
     0
 93
        1
 44
0.0
173
     0
291
     0
 45
0.0
1001
ACAD
1000
AcDbSavedByObjectVersion
1070
     0
  0
VISUALSTYLE
  5
34
102
{ACAD_REACTORS
330
29
102
}
330
29
100
AcDbVisualStyle
  2
Dim
 70
    11
 71
     2
 72
     2
 73
     0
 90
        0
 40
-0.6
 41
-30.0
 62
     5
 63
     7
 74
     1
 91
        4
 64
     7
 65
   257
 75
     1
175
     1
 42
1.0
 92
        8
 66
     7
 43
1.0
 76
     1
 77
     6
 78
     2
 67
     7
 79
     5
170
     0
171
     0
290
     0
174
     0
 93
        1
 44
-50.0
173
     0
291
     1
 45
0.0
1001
ACAD
1000
AcDbSavedByObjectVersion
1070
     0
  0
VISUALSTYLE
  5
38
102
{ACAD_REACTORS
330
29
102
}
330
29
100
AcDbVisualStyle
  2
Facepattern
 70
    15
 71
     2
 72
     2
 73
     0
 90
        0
 40
-0.6
 41
-30.0
 62
     5
 63
     7
 74
     1
 91
        4
 64
     7
 65
   257
 75
     1
175
     1
 42
1.0
 92
        8
 66
     7
 43
1.0
 76
     1
 77
     6
 78
     2
 67
     7
 79
     5
170
     0
171
     0
290
     0
174
     0
 93
        1
 44
0.0
173
     0
291
     1
 45
0.0
1001
ACAD
1000
AcDbSavedByObjectVersion
1070
     0
  0
VISUALSTYLE
  5
2A
102
{ACAD_REACTORS
330
29
102
}
330
29
100
AcDbVisualStyle
  2
Flat
 70
     0
 71
     2
 72
     1
 73
     1
 90
        2
 40
-0.6
 41
30.0
 62
     5
 63
     7
 74
     0
 91
        4
 64
     7
 65
   257
 75
     1
175
     1
 42
1.0
 92
        8
 66
     7
 43
1.0
 76
     1
 77
     6
 78
     2
 67
     7
 79
     5
170
     0
171
     0
290
     0
174
     0
 93
       13
 44
0.0
173
     0
291
     1
 45
0.0
1001
ACAD
1000
AcDbSavedByObjectVersion
1070
     0
  0
VISUALSTYLE
  5
2B
102
{ACAD_REACTORS
330
29
102
}
330
29
100
AcDbVisualStyle
  2
FlatWithEdges
 70
     1
 71
     2
 72
     1
 73
     1
 90
        2
 40
-0.6
 41
30.0
 62
     5
 63
     7
 74
     1
 91
        4
 64
     7
 65
   257
 75
     1
175
     1
 42
1.0
 92
        0
 66
   257
 43
1.0
 76
     1
 77
     6
 78
     2
 67
     7
 79
     5
170
     0
171
     0
290
     0
174
     0
 93
       13
 44
0.0
173
     0
291
     1
 45
0.0
1001
ACAD
1000
AcDbSavedByObjectVersion
1070
     0
  0
VISUALSTYLE
  5
2C
102
{ACAD_REACTORS
330
29
102
}
330
29
100
AcDbVisualStyle
  2
Gouraud
 70
     2
 71
     2
 72
     2
 73
     1
 90
        2
 40
-0.6
 41
30.0
 62
     5
 63
     7
 74
     0
 91
        4
 64
     7
 65
   257
 75
     1
175
     1
 42
1.0
 92
        0
 66
     7
 43
1.0
 76
     1
 77
     6
 78
     2
 67
     7
 79
     5
170
     0
171
     0
290
     0
174
     0
 93
       13
 44
0.0
173
     0
291
     1
 45
0.0
1001
ACAD
1000
AcDbSavedByObjectVersion
1070
     0
  0
VISUALSTYLE
  5
2D
102
{ACAD_REACTORS
330
29
102
}
330
29
100
AcDbVisualStyle
  2
GouraudWithEdges
 70
     3
 71
     2
 72
     2
 73
     1
 90
        2
 40
-0.6
 41
30.0
 62
     5
 63
     7
 74
     1
 91
        4
 64
     7
 65
   257
 75
     1
175
     1
 42
1.0
 92
        0
 66
   257
 43
1.0
 76
     1
 77
     6
 78
     2
 67
     7
 79
     5
170
     0
171
     0
290
     0
174
     0
 93
       13
 44
0.0
173
     0
291
     1
 45
0.0
1001
ACAD
1000
AcDbSavedByObjectVersion
1070
     0
  0
VISUALSTYLE
  5
37
102
{ACAD_REACTORS
330
29
102
}
330
29
100
AcDbVisualStyle
  2
Linepattern
 70
    14
 71
     2
 72
     2
 73
     0
 90
        0
 40
-0.6
 41
-30.0
 62
     5
 63
     7
 74
     1
 91
        4
 64
     7
 65
   257
 75
     7
175
     7
 42
1.0
 92
        8
 66
     7
 43
1.0
 76
     1
 77
     6
 78
     2
 67
     7
 79
     5
170
     0
171
     0
290
     0
174
     0
 93
        1
 44
0.0
173
     0
291
     1
 45
0.0
1001
ACAD
1000
AcDbSavedByObjectVersion
1070
     0
  0
VISUALSTYLE
  5
33
102
{ACAD_REACTORS
330
29
102
}
330
29
100
AcDbVisualStyle
  2
Realistic
 70
     8
 71
     2
 72
     2
 73
     0
 90
        0
 40
-0.6
 41
-30.0
 62
     5
 63
     7
 74
     1
 91
        0
 64
     7
 65
   257
 75
     1
175
     1
 42
1.0
 92
        8
 66
     8
 43
1.0
 76
     1
 77
     6
 78
     2
 67
     7
 79
     5
170
     0
171
     0
290
     0
174
     0
 93
       13
 44
0.0
173
     0
291
     0
 45
0.0
1001
ACAD
1000
AcDbSavedByObjectVersion
1070
     0
  0
VISUALSTYLE
  5
36
102
{ACAD_REACTORS
330
29
102
}
330
29
100
AcDbVisualStyle
  2
Thicken
 70
    13
 71
     2
 72
     2
 73
     0
 90
        0
 40
-0.6
 41
-30.0
 62
     5
 63
     7
 74
     1
 91
        4
 64
     7
 65
   257
 75
     1
175
     1
 42
1.0
 92
       12
 66
     7
 43
1.0
 76
     1
 77
     6
 78
     2
 67
     7
 79
     5
170
     0
171
     0
290
     0
174
     0
 93
        1
 44
0.0
173
     0
291
     1
 45
0.0
1001
ACAD
1000
AcDbSavedByObjectVersion
1070
     0
  0
DICTIONARYVAR
  5
13F1
102
{ACAD_REACTORS
330
13EE
102
}
330
13EE
100
DictionaryVariables
280
     0
  1
1:1
  0
DICTIONARYVAR
  5
13F0
102
{ACAD_REACTORS
330
13EE
102
}
330
13EE
100
DictionaryVariables
280
     0
  1
STANDARD
  0
DICTIONARYVAR
  5
13EF
102
{ACAD_REACTORS
330
13EE
102
}
330
13EE
100
DictionaryVariables
280
     0
  1
STANDARD
  0
DICTIONARYVAR
  5
13F4
102
{ACAD_REACTORS
330
13EE
102
}
330
13EE
100
DictionaryVariables
280
     0
  1
1
  0
DICTIONARYVAR
  5
13F3
102
{ACAD_REACTORS
330
13EE
102
}
330
13EE
100
DictionaryVariables
280
     0
  1
0
  0
DICTIONARYVAR
  5
13F2
102
{ACAD_REACTORS
330
13EE
102
}
330
13EE
100
DictionaryVariables
280
     0
  1
127
  0
DICTIONARY
  5
1409
330
73
100
AcDbDictionary
280
     1
281
     1
  3
ACAD_XREC_ROUNDTRIP
360
140A
  0
DICTIONARY
  5
140B
330
77
100
AcDbDictionary
280
     1
281
     1
  3
ACAD_XREC_ROUNDTRIP
360
140C
  0
DICTIONARY
  5
1A
330
19
100
AcDbDictionary
280
     1
281
     1
  3
ACAD_XREC_ROUNDTRIP
360
1406
  3
BUMPTILE
360
1C
  3
DIFFUSETILE
360
1B
  3
OPACITYTILE
360
1F
  3
REFLECTIONTILE
360
1E
  3
REFRACTIONTILE
360
20
  3
SPECULARTILE
360
1D
  0
DICTIONARY
  5
12
330
11
100
AcDbDictionary
280
     1
281
     1
  3
ACAD_XREC_ROUNDTRIP
360
1405
  3
BUMPTILE
360
14
  3
DIFFUSETILE
360
13
  3
OPACITYTILE
360
17
  3
REFLECTIONTILE
360
16
  3
REFRACTIONTILE
360
18
  3
SPECULARTILE
360
15
  0
DICTIONARY
  5
22
330
21
100
AcDbDictionary
280
     1
281
     1
  3
ACAD_XREC_ROUNDTRIP
360
1407
  3
BUMPTILE
360
24
  3
DIFFUSETILE
360
23
  3
OPACITYTILE
360
27
  3
REFLECTIONTILE
360
26
  3
REFRACTIONTILE
360
28
  3
SPECULARTILE
360
25
  0
DICTIONARY
  5
1401
330
6C
100
AcDbDictionary
280
     1
281
     1
  3
ACAD_ROUNDTRIP_2008_TABLESTYLE_CELLSTYLEMAP
360
1402
  3
ACAD_XREC_ROUNDTRIP
360
1408
  0
XRECORD
  5
140A
102
{ACAD_REACTORS
330
1409
102
}
330
1409
100
AcDbXrecord
280
     1
102
SHADEPLOT
 70
     0
102
SHADEPLOTRESLEVEL
 70
     2
102
SHADEPLOTCUSTOMDPI
 70
   300
  0
XRECORD
  5
140C
102
{ACAD_REACTORS
330
140B
102
}
330
140B
100
AcDbXrecord
280
     1
102
SHADEPLOT
 70
     0
102
SHADEPLOTRESLEVEL
 70
     2
102
SHADEPLOTCUSTOMDPI
 70
   300
  0
XRECORD
  5
1406
102
{ACAD_REACTORS
330
1A
102
}
330
1A
100
AcDbXrecord
280
     1
102
MATERIAL
148
0.0
149
0.0
149
0.0
 93
        0
 94
      127
282
     0
 72
     0
 77
     0
171
     0
175
     0
179
     0
273
     0
  0
XRECORD
  5
1C
102
{ACAD_REACTORS
330
1A
102
}
330
1A
100
AcDbXrecord
280
     1
270
     1
271
     1
  0
XRECORD
  5
1B
102
{ACAD_REACTORS
330
1A
102
}
330
1A
100
AcDbXrecord
280
     1
270
     1
271
     1
  0
XRECORD
  5
1F
102
{ACAD_REACTORS
330
1A
102
}
330
1A
100
AcDbXrecord
280
     1
270
     1
271
     1
  0
XRECORD
  5
1E
102
{ACAD_REACTORS
330
1A
102
}
330
1A
100
AcDbXrecord
280
     1
270
     1
271
     1
  0
XRECORD
  5
20
102
{ACAD_REACTORS
330
1A
102
}
330
1A
100
AcDbXrecord
280
     1
270
     1
271
     1
  0
XRECORD
  5
1D
102
{ACAD_REACTORS
330
1A
102
}
330
1A
100
AcDbXrecord
280
     1
270
     1
271
     1
  0
XRECORD
  5
1405
102
{ACAD_REACTORS
330
12
102
}
330
12
100
AcDbXrecord
280
     1
102
MATERIAL
148
0.0
149
0.0
149
0.0
 93
        0
 94
      127
282
     0
 72
     0
 77
     0
171
     0
175
     0
179
     0
273
     0
  0
XRECORD
  5
14
102
{ACAD_REACTORS
330
12
102
}
330
12
100
AcDbXrecord
280
     1
270
     1
271
     1
  0
XRECORD
  5
13
102
{ACAD_REACTORS
330
12
102
}
330
12
100
AcDbXrecord
280
     1
270
     1
271
     1
  0
XRECORD
  5
17
102
{ACAD_REACTORS
330
12
102
}
330
12
100
AcDbXrecord
280
     1
270
     1
271
     1
  0
XRECORD
  5
16
102
{ACAD_REACTORS
330
12
102
}
330
12
100
AcDbXrecord
280
     1
270
     1
271
     1
  0
XRECORD
  5
18
102
{ACAD_REACTORS
330
12
102
}
330
12
100
AcDbXrecord
280
     1
270
     1
271
     1
  0
XRECORD
  5
15
102
{ACAD_REACTORS
330
12
102
}
330
12
100
AcDbXrecord
280
     1
270
     1
271
     1
  0
XRECORD
  5
1407
102
{ACAD_REACTORS
330
22
102
}
330
22
100
AcDbXrecord
280
     1
102
MATERIAL
148
0.0
149
0.0
149
0.0
 93
        0
 94
      127
282
     0
 72
     0
 77
     0
171
     0
175
     0
179
     0
273
     0
  0
XRECORD
  5
24
102
{ACAD_REACTORS
330
22
102
}
330
22
100
AcDbXrecord
280
     1
270
     1
271
     1
  0
XRECORD
  5
23
102
{ACAD_REACTORS
330
22
102
}
330
22
100
AcDbXrecord
280
     1
270
     1
271
     1
  0
XRECORD
  5
27
102
{ACAD_REACTORS
330
22
102
}
330
22
100
AcDbXrecord
280
     1
270
     1
271
     1
  0
XRECORD
  5
26
102
{ACAD_REACTORS
330
22
102
}
330
22
100
AcDbXrecord
280
     1
270
     1
271
     1
  0
XRECORD
  5
28
102
{ACAD_REACTORS
330
22
102
}
330
22
100
AcDbXrecord
280
     1
270
     1
271
     1
  0
XRECORD
  5
25
102
{ACAD_REACTORS
330
22
102
}
330
22
100
AcDbXrecord
280
     1
270
     1
271
     1
  0
CELLSTYLEMAP
  5
1402
102
{ACAD_REACTORS
330
1401
102
}
330
1401
100
AcDbCellStyleMap
 90
        3
300
CELLSTYLE
  1
TABLEFORMAT_BEGIN
 90
        5
170
     1
 91
        0
 92
    32768
 62
   257
 93
        1
300
CONTENTFORMAT
  1
CONTENTFORMAT_BEGIN
 90
        0
 91
        0
 92
      512
 93
        0
300

 40
0.0
140
1.0
 94
        5
 62
     0
340
5D
144
0.25
309
CONTENTFORMAT_END
171
     0
 94
        0
309
TABLEFORMAT_END
  1
CELLSTYLE_BEGIN
 90
        1
 91
        1
300
_TITLE
309
CELLSTYLE_END
300
CELLSTYLE
  1
TABLEFORMAT_BEGIN
 90
        5
170
     1
 91
        0
 92
        0
 62
   257
 93
        1
300
CONTENTFORMAT
  1
CONTENTFORMAT_BEGIN
 90
        0
 91
        0
 92
      512
 93
        0
300

 40
0.0
140
1.0
 94
        5
 62
     0
340
5D
144
0.18
309
CONTENTFORMAT_END
171
     0
 94
        0
309
TABLEFORMAT_END
  1
CELLSTYLE_BEGIN
 90
        2
 91
        1
300
_HEADER
309
CELLSTYLE_END
300
CELLSTYLE
  1
TABLEFORMAT_BEGIN
 90
        5
170
     1
 91
        0
 92
        0
 62
   257
 93
        1
300
CONTENTFORMAT
  1
CONTENTFORMAT_BEGIN
 90
        0
 91
        0
 92
      512
 93
        0
300

 40
0.0
140
1.0
 94
        2
 62
     0
340
5D
144
0.18
309
CONTENTFORMAT_END
171
     0
 94
        0
309
TABLEFORMAT_END
  1
CELLSTYLE_BEGIN
 90
        3
 91
        2
300
_DATA
309
CELLSTYLE_END
  0
XRECORD
  5
1408
102
{ACAD_REACTORS
330
1401
102
}
330
1401
100
AcDbXrecord
280
     1
102
ACAD_ROUNDTRIP_PRE2007_TABLESTYLE
 90
      512
 91
        0
  1

 92
      512
 93
        0
  2

 94
      512
 95
        0
  3

  0
ENDSEC
  0
EOF
