  0
SECTION
  2
HEADER
  9
$ACADVER
  1
AC1009
  9
$EXTMIN
 10
9.98964655
 20
45.00015491
 30
0.0
  9
$EXTMAX
 10
490.01035345
 20
254.99984509
 30
0.0
  0
ENDSEC
  0
SECTION
  2
TABLES
  0
TABLE
  2
LAYER
 70
1
 0
LAYER
 2
По_умолчанию
 70
0
 62
18
 6
CONTINUOUS
 0
ENDTAB
 0
ENDSEC
  0
SECTION
  2
ENTITIES
  0
POLYLINE
  8
По_умолчанию
 62
256
 66
   1
 39
0.000000
 70
    1
  0
VERTEX
  8
0
 10
266.00662854
 20
61.51225682
  0
VERTEX
  8
0
 10
266.46095577
 20
61.24219338
  0
VERTEX
  8
0
 10
242.77203708
 20
61.23465714
  0
VERTEX
  8
0
 10
243.79409459
 20
62.62152194
  0
VERTEX
  8
0
 10
244.83802060
 20
64.08898068
  0
VERTEX
  8
0
 10
245.90379825
 20
65.63700989
  0
VERTEX
  8
0
 10
246.99141068
 20
67.26558614
  0
VERTEX
  8
0
 10
248.10084103
 20
68.97468597
  0
VERTEX
  8
0
 10
249.23207244
 20
70.76428595
  0
VERTEX
  8
0
 10
250.38508803
 20
72.63436263
  0
VERTEX
  8
0
 10
251.55987096
 20
74.58489255
  0
VERTEX
  8
0
 10
253.11785462
 20
77.09886096
  0
VERTEX
  8
0
 10
254.53420341
 20
79.36143253
  0
VERTEX
  8
0
 10
254.54305559
 20
79.41642559
  0
VERTEX
  8
0
 10
254.56961212
 20
79.45570634
  0
VERTEX
  8
0
 10
254.61387302
 20
79.47927480
  0
VERTEX
  8
0
 10
254.67583828
 20
79.48713095
  0
VERTEX
  8
0
 10
255.52564755
 20
80.74411515
  0
VERTEX
  8
0
 10
256.37545682
 20
82.25249620
  0
VERTEX
  8
0
 10
256.77380492
 20
82.49996496
  0
VERTEX
  8
0
 10
257.18985737
 20
82.73957758
  0
VERTEX
  8
0
 10
257.62361419
 20
82.97133404
  0
VERTEX
  8
0
 10
258.07507536
 20
83.19523435
  0
VERTEX
  8
0
 10
259.03111079
 20
83.61946652
  0
VERTEX
  8
0
 10
260.05796366
 20
84.01227408
  0
VERTEX
  8
0
 10
261.12022524
 20
84.37365704
  0
VERTEX
  8
0
 10
262.18248683
 20
84.70361540
  0
VERTEX
  8
0
 10
263.24474842
 20
85.00214914
  0
VERTEX
  8
0
 10
264.30701000
 20
85.26925829
  0
VERTEX
  8
0
 10
265.68795006
 20
85.48923052
  0
VERTEX
  8
0
 10
266.99807269
 20
85.64635355
  0
VERTEX
  8
0
 10
267.69739490
 20
85.75633967
  0
VERTEX
  8
0
 10
268.37901275
 20
85.83490118
  0
VERTEX
  8
0
 10
269.04292624
 20
85.88203809
  0
VERTEX
  8
0
 10
269.68913537
 20
85.89775039
  0
VERTEX
  8
0
 10
270.82221440
 20
85.89775039
  0
VERTEX
  8
0
 10
271.10548416
 20
85.88989424
  0
VERTEX
  8
0
 10
271.38875391
 20
85.86632578
  0
VERTEX
  8
0
 10
271.67202367
 20
85.82704503
  0
VERTEX
  8
0
 10
271.95529343
 20
85.77205197
  0
VERTEX
  8
0
 10
270.51017506
 20
83.40931447
  0
VERTEX
  8
0
 10
269.21996984
 20
81.22334038
  0
VERTEX
  8
0
 10
268.08467777
 20
79.21412969
  0
VERTEX
  8
0
 10
267.10429885
 20
77.38168240
  0
VERTEX
  8
0
 10
266.27883307
 20
75.72599852
  0
VERTEX
  8
0
 10
265.92419262
 20
74.96444286
  0
VERTEX
  8
0
 10
265.60828045
 20
74.24707804
  0
VERTEX
  8
0
 10
265.33109656
 20
73.57390408
  0
VERTEX
  8
0
 10
265.09264097
 20
72.94492097
  0
VERTEX
  8
0
 10
264.89291366
 20
72.36012871
  0
VERTEX
  8
0
 10
264.73191464
 20
71.81952730
  0
VERTEX
  8
0
 10
264.46634924
 20
70.84929262
  0
VERTEX
  8
0
 10
264.23619256
 20
69.94976330
  0
VERTEX
  8
0
 10
264.04144461
 20
69.12093934
  0
VERTEX
  8
0
 10
263.88210537
 20
68.36282074
  0
VERTEX
  8
0
 10
263.75817485
 20
67.67540750
  0
VERTEX
  8
0
 10
263.66965305
 20
67.05869963
  0
VERTEX
  8
0
 10
263.61653997
 20
66.51269711
  0
VERTEX
  8
0
 10
263.59883561
 20
66.03739996
  0
VERTEX
  8
0
 10
263.59883561
 20
65.15751102
  0
VERTEX
  8
0
 10
263.88210537
 20
64.15192365
  0
VERTEX
  8
0
 10
264.03923156
 20
63.80821703
  0
VERTEX
  8
0
 10
264.22734038
 20
63.46843849
  0
VERTEX
  8
0
 10
264.44643184
 20
63.13258802
  0
VERTEX
  8
0
 10
264.69650592
 20
62.80066563
  0
VERTEX
  8
0
 10
264.97756263
 20
62.47267132
  0
VERTEX
  8
0
 10
265.28960197
 20
62.14860508
  0
VERTEX
  8
0
 10
265.63262394
 20
61.82846691
  0
VERTEX
  8
0
 10
266.00662854
 20
61.51225682
  0
SEQEND
  0
POLYLINE
  8
По_умолчанию
 62
256
 66
   1
 39
0.000000
 70
    1
  0
VERTEX
  8
0
 10
144.08455097
 20
61.35181803
  0
VERTEX
  8
0
 10
144.18264717
 20
61.20329252
  0
VERTEX
  8
0
 10
126.99649214
 20
61.19782503
  0
VERTEX
  8
0
 10
127.27983489
 20
61.49460150
  0
VERTEX
  8
0
 10
128.17921112
 20
62.40423565
  0
VERTEX
  8
0
 10
129.09848220
 20
63.29384862
  0
VERTEX
  8
0
 10
129.77996963
 20
63.93057043
  0
VERTEX
  8
0
 10
130.47104344
 20
64.55673443
  0
VERTEX
  8
0
 10
131.87383977
 20
65.78600312
  0
VERTEX
  8
0
 10
132.94716659
 20
66.64625168
  0
VERTEX
  8
0
 10
134.11344129
 20
67.53006870
  0
VERTEX
  8
0
 10
135.37266387
 20
68.43745418
  0
VERTEX
  8
0
 10
136.72483435
 20
69.36840810
  0
VERTEX
  8
0
 10
138.16995272
 20
70.32293048
  0
VERTEX
  8
0
 10
139.70801898
 20
71.30102132
  0
VERTEX
  8
0
 10
141.33903312
 20
72.30268060
  0
VERTEX
  8
0
 10
143.06299515
 20
73.32790835
  0
VERTEX
  8
0
 10
142.86824720
 20
72.69941624
  0
VERTEX
  8
0
 10
142.70890796
 20
72.07092414
  0
VERTEX
  8
0
 10
142.58497744
 20
71.44243204
  0
VERTEX
  8
0
 10
142.49645564
 20
70.81393994
  0
VERTEX
  8
0
 10
142.21318588
 20
68.42566995
  0
VERTEX
  8
0
 10
142.22527228
 20
67.82468992
  0
VERTEX
  8
0
 10
142.25434026
 20
67.22446515
  0
VERTEX
  8
0
 10
142.30477240
 20
66.62579503
  0
VERTEX
  8
0
 10
142.38095128
 20
66.02947899
  0
VERTEX
  8
0
 10
142.52929425
 20
65.20274415
  0
VERTEX
  8
0
 10
142.72807082
 20
64.38706063
  0
VERTEX
  8
0
 10
142.86368909
 20
63.93978752
  0
VERTEX
  8
0
 10
143.01716372
 20
63.49782334
  0
VERTEX
  8
0
 10
143.18707549
 20
63.06332558
  0
VERTEX
  8
0
 10
143.37200517
 20
62.63845170
  0
VERTEX
  8
0
 10
143.70255057
 20
61.98339062
  0
VERTEX
  8
0
 10
144.08455097
 20
61.35181803
  0
SEQEND
  0
POLYLINE
  8
По_умолчанию
 62
256
 66
   1
 39
0.000000
 70
    1
  0
VERTEX
  8
0
 10
276.37178691
 20
135.93221965
  0
VERTEX
  8
0
 10
278.93325053
 20
136.58387199
  0
VERTEX
  8
0
 10
281.40617129
 20
137.25637645
  0
VERTEX
  8
0
 10
283.79346456
 20
137.95097458
  0
VERTEX
  8
0
 10
286.09804571
 20
138.66890798
  0
VERTEX
  8
0
 10
288.32283011
 20
139.41141819
  0
VERTEX
  8
0
 10
290.47073313
 20
140.17974678
  0
VERTEX
  8
0
 10
292.54467012
 20
140.97513534
  0
VERTEX
  8
0
 10
294.54755646
 20
141.79882544
  0
VERTEX
  8
0
 10
296.48230751
 20
142.65205861
  0
VERTEX
  8
0
 10
298.35183864
 20
143.53607646
  0
VERTEX
  8
0
 10
300.15906522
 20
144.45212053
  0
VERTEX
  8
0
 10
301.90690260
 20
145.40143240
  0
VERTEX
  8
0
 10
303.59826617
 20
146.38525364
  0
VERTEX
  8
0
 10
305.23607129
 20
147.40482582
  0
VERTEX
  8
0
 10
306.82323332
 20
148.46139051
  0
VERTEX
  8
0
 10
308.36266762
 20
149.55618927
  0
VERTEX
  8
0
 10
309.32229592
 20
150.27117443
  0
VERTEX
  8
0
 10
310.20218160
 20
150.94860500
  0
VERTEX
  8
0
 10
311.00654937
 20
151.59354430
  0
VERTEX
  8
0
 10
311.73962392
 20
152.21105559
  0
VERTEX
  8
0
 10
312.40562996
 20
152.80620213
  0
VERTEX
  8
0
 10
313.00879217
 20
153.38404721
  0
VERTEX
  8
0
 10
313.55333527
 20
153.94965410
  0
VERTEX
  8
0
 10
314.04348394
 20
154.50808607
  0
VERTEX
  8
0
 10
314.48346289
 20
155.06440641
  0
VERTEX
  8
0
 10
314.87749681
 20
155.62367839
  0
VERTEX
  8
0
 10
315.22981041
 20
156.19096529
  0
VERTEX
  8
0
 10
315.54462837
 20
156.77133037
  0
VERTEX
  8
0
 10
315.82617541
 20
157.36983692
  0
VERTEX
  8
0
 10
316.07867621
 20
157.99154821
  0
VERTEX
  8
0
 10
316.30635549
 20
158.64152751
  0
VERTEX
  8
0
 10
316.51343792
 20
159.32483811
  0
VERTEX
  8
0
 10
316.63387024
 20
159.81310482
  0
VERTEX
  8
0
 10
316.72234080
 20
160.30975205
  0
VERTEX
  8
0
 10
316.77950291
 20
160.81370275
  0
VERTEX
  8
0
 10
316.80600994
 20
161.32387987
  0
VERTEX
  8
0
 10
316.80251521
 20
161.83920634
  0
VERTEX
  8
0
 10
316.76967206
 20
162.35860510
  0
VERTEX
  8
0
 10
316.70813383
 20
162.88099908
  0
VERTEX
  8
0
 10
316.61855386
 20
163.40531124
  0
VERTEX
  8
0
 10
316.50158549
 20
163.93046450
  0
VERTEX
  8
0
 10
316.35788205
 20
164.45538182
  0
VERTEX
  8
0
 10
316.18809689
 20
164.97898613
  0
VERTEX
  8
0
 10
315.99288333
 20
165.50020036
  0
VERTEX
  8
0
 10
315.77289473
 20
166.01794748
  0
VERTEX
  8
0
 10
315.52878441
 20
166.53115038
  0
VERTEX
  8
0
 10
315.26120572
 20
167.03873206
  0
VERTEX
  8
0
 10
314.97081199
 20
167.53961540
  0
VERTEX
  8
0
 10
314.65825656
 20
168.03272339
  0
VERTEX
  8
0
 10
314.32419277
 20
168.51697895
  0
VERTEX
  8
0
 10
313.96927397
 20
168.99130500
  0
VERTEX
  8
0
 10
313.59415347
 20
169.45462451
  0
VERTEX
  8
0
 10
313.19948464
 20
169.90586041
  0
VERTEX
  8
0
 10
312.78592079
 20
170.34393564
  0
VERTEX
  8
0
 10
312.35411528
 20
170.76777314
  0
VERTEX
  8
0
 10
311.90472143
 20
171.17629585
  0
VERTEX
  8
0
 10
311.43839259
 20
171.56842670
  0
VERTEX
  8
0
 10
310.95578210
 20
171.94308864
  0
VERTEX
  8
0
 10
310.45754329
 20
172.29920461
  0
VERTEX
  8
0
 10
309.94432950
 20
172.63569755
  0
VERTEX
  8
0
 10
309.41679407
 20
172.95149040
  0
VERTEX
  8
0
 10
308.87559034
 20
173.24550611
  0
VERTEX
  8
0
 10
308.32137164
 20
173.51666758
  0
VERTEX
  8
0
 10
307.75479132
 20
173.76389781
  0
VERTEX
  8
0
 10
307.13516279
 20
173.99204685
  0
VERTEX
  8
0
 10
306.48581475
 20
174.18192105
  0
VERTEX
  8
0
 10
305.81011770
 20
174.33465956
  0
VERTEX
  8
0
 10
305.11144218
 20
174.45140154
  0
VERTEX
  8
0
 10
304.39315870
 20
174.53328618
  0
VERTEX
  8
0
 10
303.65863777
 20
174.58145260
  0
VERTEX
  8
0
 10
302.91124992
 20
174.59703998
  0
VERTEX
  8
0
 10
302.15436566
 20
174.58118747
  0
VERTEX
  8
0
 10
301.39135550
 20
174.53503424
  0
VERTEX
  8
0
 10
300.62558997
 20
174.45971946
  0
VERTEX
  8
0
 10
299.86043958
 20
174.35638226
  0
VERTEX
  8
0
 10
299.09927486
 20
174.22616184
  0
VERTEX
  8
0
 10
298.34546631
 20
174.07019732
  0
VERTEX
  8
0
 10
297.60238445
 20
173.88962787
  0
VERTEX
  8
0
 10
296.87339981
 20
173.68559267
  0
VERTEX
  8
0
 10
296.16188290
 20
173.45923088
  0
VERTEX
  8
0
 10
295.47120423
 20
173.21168163
  0
VERTEX
  8
0
 10
294.80473433
 20
172.94408411
  0
VERTEX
  8
0
 10
294.16584371
 20
172.65757746
  0
VERTEX
  8
0
 10
293.55790289
 20
172.35330086
  0
VERTEX
  8
0
 10
292.98428239
 20
172.03239346
  0
VERTEX
  8
0
 10
292.44835272
 20
171.69599442
  0
VERTEX
  8
0
 10
291.95348440
 20
171.34524289
  0
VERTEX
  8
0
 10
291.50304795
 20
170.98127804
  0
VERTEX
  8
0
 10
291.10041389
 20
170.60523904
  0
VERTEX
  8
0
 10
290.74895273
 20
170.21826504
  0
VERTEX
  8
0
 10
290.45203499
 20
169.82149520
  0
VERTEX
  8
0
 10
290.21303119
 20
169.41606869
  0
VERTEX
  8
0
 10
290.11630031
 20
169.21046515
  0
VERTEX
  8
0
 10
290.03531185
 20
169.00312464
  0
VERTEX
  8
0
 10
289.97048714
 20
168.79418954
  0
VERTEX
  8
0
 10
289.92224748
 20
168.58380224
  0
VERTEX
  8
0
 10
289.89101420
 20
168.37210514
  0
VERTEX
  8
0
 10
289.87720860
 20
168.15924064
  0
VERTEX
  8
0
 10
289.88125201
 20
167.94535114
  0
VERTEX
  8
0
 10
289.90356573
 20
167.73057901
  0
VERTEX
  8
0
 10
289.94323011
 20
167.49661423
  0
VERTEX
  8
0
 10
289.99255288
 20
167.28720271
  0
VERTEX
  8
0
 10
290.05575903
 20
167.10046696
  0
VERTEX
  8
0
 10
290.13707353
 20
166.93452952
  0
VERTEX
  8
0
 10
290.24072135
 20
166.78751292
  0
VERTEX
  8
0
 10
290.37092748
 20
166.65753970
  0
VERTEX
  8
0
 10
290.53191688
 20
166.54273236
  0
VERTEX
  8
0
 10
290.72791454
 20
166.44121346
  0
VERTEX
  8
0
 10
290.96314542
 20
166.35110552
  0
VERTEX
  8
0
 10
291.24183451
 20
166.27053105
  0
VERTEX
  8
0
 10
291.56820678
 20
166.19761262
  0
VERTEX
  8
0
 10
291.94648721
 20
166.13047273
  0
VERTEX
  8
0
 10
292.87567244
 20
166.00601871
  0
VERTEX
  8
0
 10
294.06319000
 20
165.88214923
  0
VERTEX
  8
0
 10
294.77220713
 20
165.80321025
  0
VERTEX
  8
0
 10
295.43473779
 20
165.70816972
  0
VERTEX
  8
0
 10
296.05088456
 20
165.59697081
  0
VERTEX
  8
0
 10
296.62075002
 20
165.46955668
  0
VERTEX
  8
0
 10
297.14443675
 20
165.32587049
  0
VERTEX
  8
0
 10
297.62204734
 20
165.16585537
  0
VERTEX
  8
0
 10
298.05368435
 20
164.98945451
  0
VERTEX
  8
0
 10
298.43945038
 20
164.79661103
  0
VERTEX
  8
0
 10
298.77944799
 20
164.58726810
  0
VERTEX
  8
0
 10
299.07377978
 20
164.36136888
  0
VERTEX
  8
0
 10
299.32254831
 20
164.11885652
  0
VERTEX
  8
0
 10
299.52585618
 20
163.85967417
  0
VERTEX
  8
0
 10
299.68380595
 20
163.58376500
  0
VERTEX
  8
0
 10
299.79650022
 20
163.29107214
  0
VERTEX
  8
0
 10
299.86404155
 20
162.98153877
  0
VERTEX
  8
0
 10
299.88653253
 20
162.65510803
  0
VERTEX
  8
0
 10
299.85991905
 20
162.38191480
  0
VERTEX
  8
0
 10
299.78287029
 20
162.08420422
  0
VERTEX
  8
0
 10
299.65957376
 20
161.76670361
  0
VERTEX
  8
0
 10
299.49421698
 20
161.43414038
  0
VERTEX
  8
0
 10
299.29098746
 20
161.09124183
  0
VERTEX
  8
0
 10
299.05407271
 20
160.74273535
  0
VERTEX
  8
0
 10
298.78766025
 20
160.39334825
  0
VERTEX
  8
0
 10
298.49593759
 20
160.04780793
  0
VERTEX
  8
0
 10
298.18309225
 20
159.71084171
  0
VERTEX
  8
0
 10
297.85331174
 20
159.38717696
  0
VERTEX
  8
0
 10
297.51078357
 20
159.08154100
  0
VERTEX
  8
0
 10
297.15969525
 20
158.79866122
  0
VERTEX
  8
0
 10
296.80423431
 20
158.54326496
  0
VERTEX
  8
0
 10
296.44858826
 20
158.32007956
  0
VERTEX
  8
0
 10
296.09694460
 20
158.13383238
  0
VERTEX
  8
0
 10
295.75349086
 20
157.98925079
  0
VERTEX
  8
0
 10
295.30825309
 20
157.83502828
  0
VERTEX
  8
0
 10
294.88644555
 20
157.70427928
  0
VERTEX
  8
0
 10
294.48283730
 20
157.59742746
  0
VERTEX
  8
0
 10
294.09219742
 20
157.51489648
  0
VERTEX
  8
0
 10
293.70929496
 20
157.45711001
  0
VERTEX
  8
0
 10
293.32889900
 20
157.42449173
  0
VERTEX
  8
0
 10
292.94577860
 20
157.41746532
  0
VERTEX
  8
0
 10
292.55470283
 20
157.43645445
  0
VERTEX
  8
0
 10
292.15044075
 20
157.48188281
  0
VERTEX
  8
0
 10
291.72776143
 20
157.55417403
  0
VERTEX
  8
0
 10
291.28143393
 20
157.65375183
  0
VERTEX
  8
0
 10
290.80622733
 20
157.78103984
  0
VERTEX
  8
0
 10
290.29691069
 20
157.93646178
  0
VERTEX
  8
0
 10
289.74825307
 20
158.12044127
  0
VERTEX
  8
0
 10
288.51199117
 20
158.57576772
  0
VERTEX
  8
0
 10
287.73212722
 20
158.89873326
  0
VERTEX
  8
0
 10
286.99617506
 20
159.25121934
  0
VERTEX
  8
0
 10
286.30501806
 20
159.63215861
  0
VERTEX
  8
0
 10
285.65953958
 20
160.04048367
  0
VERTEX
  8
0
 10
285.06062298
 20
160.47512720
  0
VERTEX
  8
0
 10
284.50915163
 20
160.93502179
  0
VERTEX
  8
0
 10
284.00600889
 20
161.41910009
  0
VERTEX
  8
0
 10
283.55207813
 20
161.92629474
  0
VERTEX
  8
0
 10
283.14824270
 20
162.45553835
  0
VERTEX
  8
0
 10
282.79538598
 20
163.00576358
  0
VERTEX
  8
0
 10
282.49439131
 20
163.57590304
  0
VERTEX
  8
0
 10
282.24614208
 20
164.16488938
  0
VERTEX
  8
0
 10
282.05152163
 20
164.77165524
  0
VERTEX
  8
0
 10
281.91141334
 20
165.39513323
  0
VERTEX
  8
0
 10
281.82670057
 20
166.03425598
  0
VERTEX
  8
0
 10
281.79826667
 20
166.68795614
  0
VERTEX
  8
0
 10
281.79826667
 20
169.42855444
  0
VERTEX
  8
0
 10
278.79558668
 20
167.70280096
  0
VERTEX
  8
0
 10
278.15980848
 20
167.35047603
  0
VERTEX
  8
0
 10
277.55091955
 20
167.04149541
  0
VERTEX
  8
0
 10
276.96385582
 20
166.77554132
  0
VERTEX
  8
0
 10
276.39355324
 20
166.55229593
  0
VERTEX
  8
0
 10
275.83494775
 20
166.37144148
  0
VERTEX
  8
0
 10
275.28297528
 20
166.23266017
  0
VERTEX
  8
0
 10
274.73257178
 20
166.13563417
  0
VERTEX
  8
0
 10
274.17867319
 20
166.08004572
  0
VERTEX
  8
0
 10
273.61621544
 20
166.06557702
  0
VERTEX
  8
0
 10
273.04013449
 20
166.09191027
  0
VERTEX
  8
0
 10
272.44536625
 20
166.15872766
  0
VERTEX
  8
0
 10
271.82684669
 20
166.26571142
  0
VERTEX
  8
0
 10
271.17951173
 20
166.41254372
  0
VERTEX
  8
0
 10
270.49829732
 20
166.59890679
  0
VERTEX
  8
0
 10
269.77813939
 20
166.82448282
  0
VERTEX
  8
0
 10
269.01397389
 20
167.08895402
  0
VERTEX
  8
0
 10
268.37798355
 20
167.32911397
  0
VERTEX
  8
0
 10
267.79874231
 20
167.57222207
  0
VERTEX
  8
0
 10
267.27408144
 20
167.82098207
  0
VERTEX
  8
0
 10
266.80183221
 20
168.07809774
  0
VERTEX
  8
0
 10
266.37982589
 20
168.34627281
  0
VERTEX
  8
0
 10
266.00589374
 20
168.62821106
  0
VERTEX
  8
0
 10
265.67786705
 20
168.92661626
  0
VERTEX
  8
0
 10
265.39357707
 20
169.24419213
  0
VERTEX
  8
0
 10
265.15085508
 20
169.58364247
  0
VERTEX
  8
0
 10
264.94753235
 20
169.94767100
  0
VERTEX
  8
0
 10
264.78144014
 20
170.33898150
  0
VERTEX
  8
0
 10
264.65040973
 20
170.76027772
  0
VERTEX
  8
0
 10
264.55227239
 20
171.21426343
  0
VERTEX
  8
0
 10
264.48485938
 20
171.70364237
  0
VERTEX
  8
0
 10
264.44600197
 20
172.23111832
  0
VERTEX
  8
0
 10
264.43353145
 20
172.79939500
  0
VERTEX
  8
0
 10
264.45234428
 20
173.39251195
  0
VERTEX
  8
0
 10
264.51006639
 20
173.91961018
  0
VERTEX
  8
0
 10
264.60862323
 20
174.38129696
  0
VERTEX
  8
0
 10
264.67381636
 20
174.58780086
  0
VERTEX
  8
0
 10
264.74994021
 20
174.77817963
  0
VERTEX
  8
0
 10
264.83723545
 20
174.95250920
  0
VERTEX
  8
0
 10
264.93594277
 20
175.11086548
  0
VERTEX
  8
0
 10
265.04630284
 20
175.25332437
  0
VERTEX
  8
0
 10
265.16855634
 20
175.37996179
  0
VERTEX
  8
0
 10
265.30294395
 20
175.49085366
  0
VERTEX
  8
0
 10
265.44970636
 20
175.58607588
  0
VERTEX
  8
0
 10
265.60908423
 20
175.66570437
  0
VERTEX
  8
0
 10
265.78131825
 20
175.72981504
  0
VERTEX
  8
0
 10
265.96664909
 20
175.77848381
  0
VERTEX
  8
0
 10
266.16531744
 20
175.81178658
  0
VERTEX
  8
0
 10
266.37756398
 20
175.82979928
  0
VERTEX
  8
0
 10
266.60362938
 20
175.83259780
  0
VERTEX
  8
0
 10
267.09817949
 20
175.79285597
  0
VERTEX
  8
0
 10
267.65089320
 20
175.69316842
  0
VERTEX
  8
0
 10
268.26369594
 20
175.53414245
  0
VERTEX
  8
0
 10
268.93851315
 20
175.31638535
  0
VERTEX
  8
0
 10
269.67727026
 20
175.04050442
  0
VERTEX
  8
0
 10
270.48189270
 20
174.70710697
  0
VERTEX
  8
0
 10
274.00224100
 20
173.18693718
  0
VERTEX
  8
0
 10
275.44240481
 20
174.59802475
  0
VERTEX
  8
0
 10
275.72673673
 20
174.90608326
  0
VERTEX
  8
0
 10
275.97619792
 20
175.23751777
  0
VERTEX
  8
0
 10
276.19136871
 20
175.59080958
  0
VERTEX
  8
0
 10
276.37282943
 20
175.96443998
  0
VERTEX
  8
0
 10
276.52116040
 20
176.35689023
  0
VERTEX
  8
0
 10
276.63694193
 20
176.76664163
  0
VERTEX
  8
0
 10
276.72075435
 20
177.19217546
  0
VERTEX
  8
0
 10
276.77317799
 20
177.63197302
  0
VERTEX
  8
0
 10
276.79479316
 20
178.08451560
  0
VERTEX
  8
0
 10
276.78618019
 20
178.54828444
  0
VERTEX
  8
0
 10
276.74791940
 20
179.02176088
  0
VERTEX
  8
0
 10
276.68059111
 20
179.50342617
  0
VERTEX
  8
0
 10
276.58477565
 20
179.99176162
  0
VERTEX
  8
0
 10
276.46105334
 20
180.48524850
  0
VERTEX
  8
0
 10
276.31000449
 20
180.98236810
  0
VERTEX
  8
0
 10
276.13220944
 20
181.48160171
  0
VERTEX
  8
0
 10
275.92824850
 20
181.98143060
  0
VERTEX
  8
0
 10
275.69870200
 20
182.48033608
  0
VERTEX
  8
0
 10
275.44415026
 20
182.97679940
  0
VERTEX
  8
0
 10
275.16517360
 20
183.46930188
  0
VERTEX
  8
0
 10
274.86235234
 20
183.95632480
  0
VERTEX
  8
0
 10
274.53626681
 20
184.43634943
  0
VERTEX
  8
0
 10
274.18749733
 20
184.90785706
  0
VERTEX
  8
0
 10
273.81662422
 20
185.36932899
  0
VERTEX
  8
0
 10
273.42422781
 20
185.81924649
  0
VERTEX
  8
0
 10
273.01088841
 20
186.25609086
  0
VERTEX
  8
0
 10
272.57718635
 20
186.67834336
  0
VERTEX
  8
0
 10
272.12370195
 20
187.08448530
  0
VERTEX
  8
0
 10
271.65101553
 20
187.47299796
  0
VERTEX
  8
0
 10
271.15970742
 20
187.84236262
  0
VERTEX
  8
0
 10
270.65035794
 20
188.19106057
  0
VERTEX
  8
0
 10
270.12354741
 20
188.51757309
  0
VERTEX
  8
0
 10
269.58429268
 20
188.80347574
  0
VERTEX
  8
0
 10
268.99325050
 20
189.05912221
  0
VERTEX
  8
0
 10
268.35584952
 20
189.28416734
  0
VERTEX
  8
0
 10
267.67751841
 20
189.47826599
  0
VERTEX
  8
0
 10
266.96368584
 20
189.64107298
  0
VERTEX
  8
0
 10
266.21978046
 20
189.77224316
  0
VERTEX
  8
0
 10
265.45123094
 20
189.87143138
  0
VERTEX
  8
0
 10
264.66346594
 20
189.93829246
  0
VERTEX
  8
0
 10
263.86191412
 20
189.97248128
  0
VERTEX
  8
0
 10
263.05200416
 20
189.97365263
  0
VERTEX
  8
0
 10
262.23916470
 20
189.94146139
  0
VERTEX
  8
0
 10
261.42882441
 20
189.87556239
  0
VERTEX
  8
0
 10
260.62641196
 20
189.77561047
  0
VERTEX
  8
0
 10
259.83735601
 20
189.64126048
  0
VERTEX
  8
0
 10
259.06708521
 20
189.47216727
  0
VERTEX
  8
0
 10
258.32102824
 20
189.26798564
  0
VERTEX
  8
0
 10
257.75186930
 20
189.06994860
  0
VERTEX
  8
0
 10
257.13382390
 20
188.80917826
  0
VERTEX
  8
0
 10
256.47870421
 20
188.49411315
  0
VERTEX
  8
0
 10
255.79832238
 20
188.13319182
  0
VERTEX
  8
0
 10
255.10449057
 20
187.73485286
  0
VERTEX
  8
0
 10
254.40902094
 20
187.30753482
  0
VERTEX
  8
0
 10
253.72372564
 20
186.85967622
  0
VERTEX
  8
0
 10
253.06041683
 20
186.39971565
  0
VERTEX
  8
0
 10
252.43090666
 20
185.93609168
  0
VERTEX
  8
0
 10
251.84700730
 20
185.47724281
  0
VERTEX
  8
0
 10
251.32053090
 20
185.03160765
  0
VERTEX
  8
0
 10
250.86328961
 20
184.60762474
  0
VERTEX
  8
0
 10
250.48709560
 20
184.21373262
  0
VERTEX
  8
0
 10
250.20376102
 20
183.85836986
  0
VERTEX
  8
0
 10
250.10060731
 20
183.69777404
  0
VERTEX
  8
0
 10
250.02509802
 20
183.54997501
  0
VERTEX
  8
0
 10
249.97870966
 20
183.41602761
  0
VERTEX
  8
0
 10
249.96291876
 20
183.29698665
  0
VERTEX
  8
0
 10
250.00177886
 20
183.17370069
  0
VERTEX
  8
0
 10
250.11315303
 20
183.00377673
  0
VERTEX
  8
0
 10
250.28923205
 20
182.79486012
  0
VERTEX
  8
0
 10
250.52220673
 20
182.55459622
  0
VERTEX
  8
0
 10
250.80426785
 20
182.29063037
  0
VERTEX
  8
0
 10
251.12760621
 20
182.01060796
  0
VERTEX
  8
0
 10
251.48441260
 20
181.72217434
  0
VERTEX
  8
0
 10
251.86687781
 20
181.43297487
  0
VERTEX
  8
0
 10
252.29169183
 20
181.08311696
  0
VERTEX
  8
0
 10
252.76987110
 20
180.62083451
  0
VERTEX
  8
0
 10
253.28509613
 20
180.06596259
  0
VERTEX
  8
0
 10
253.82104744
 20
179.43833632
  0
VERTEX
  8
0
 10
254.36140552
 20
178.75779080
  0
VERTEX
  8
0
 10
254.88985089
 20
178.04416111
  0
VERTEX
  8
0
 10
255.39006405
 20
177.31728235
  0
VERTEX
  8
0
 10
255.84572551
 20
176.59698961
  0
VERTEX
  8
0
 10
256.46184127
 20
175.53773282
  0
VERTEX
  8
0
 10
256.71872507
 20
175.05782651
  0
VERTEX
  8
0
 10
256.94413693
 20
174.59970476
  0
VERTEX
  8
0
 10
257.14005996
 20
174.15484491
  0
VERTEX
  8
0
 10
257.30847725
 20
173.71472434
  0
VERTEX
  8
0
 10
257.45137190
 20
173.27082043
  0
VERTEX
  8
0
 10
257.57072700
 20
172.81461054
  0
VERTEX
  8
0
 10
257.66852566
 20
172.33757205
  0
VERTEX
  8
0
 10
257.74675097
 20
171.83118231
  0
VERTEX
  8
0
 10
257.80738603
 20
171.28691867
  0
VERTEX
  8
0
 10
257.85241392
 20
170.69625854
  0
VERTEX
  8
0
 10
257.90358063
 20
169.34165823
  0
VERTEX
  8
0
 10
257.91611587
 20
167.69920027
  0
VERTEX
  8
0
 10
257.89946485
 20
166.68785212
  0
VERTEX
  8
0
 10
257.85128504
 20
165.66299915
  0
VERTEX
  8
0
 10
257.77175103
 20
164.62540884
  0
VERTEX
  8
0
 10
257.66103743
 20
163.57584867
  0
VERTEX
  8
0
 10
257.51931882
 20
162.51508608
  0
VERTEX
  8
0
 10
257.34676980
 20
161.44388857
  0
VERTEX
  8
0
 10
257.14356497
 20
160.36302361
  0
VERTEX
  8
0
 10
256.90987891
 20
159.27325865
  0
VERTEX
  8
0
 10
256.64588623
 20
158.17536118
  0
VERTEX
  8
0
 10
256.35176151
 20
157.07009868
  0
VERTEX
  8
0
 10
256.02767936
 20
155.95823858
  0
VERTEX
  8
0
 10
255.67381436
 20
154.84054840
  0
VERTEX
  8
0
 10
255.29034112
 20
153.71779559
  0
VERTEX
  8
0
 10
254.87743422
 20
152.59074762
  0
VERTEX
  8
0
 10
254.43526826
 20
151.46017195
  0
VERTEX
  8
0
 10
253.96401784
 20
150.32683609
  0
VERTEX
  8
0
 10
252.79339069
 20
147.59277047
  0
VERTEX
  8
0
 10
255.76056338
 20
143.06777397
  0
VERTEX
  8
0
 10
256.41299764
 20
142.11033394
  0
VERTEX
  8
0
 10
257.13067343
 20
141.12344067
  0
VERTEX
  8
0
 10
257.89008836
 20
140.13539283
  0
VERTEX
  8
0
 10
258.66774007
 20
139.17448909
  0
VERTEX
  8
0
 10
259.44012617
 20
138.26902813
  0
VERTEX
  8
0
 10
260.18374429
 20
137.44730862
  0
VERTEX
  8
0
 10
260.87509204
 20
136.73762922
  0
VERTEX
  8
0
 10
261.49066705
 20
136.16828860
  0
VERTEX
  8
0
 10
262.37697823
 20
135.41865289
  0
VERTEX
  8
0
 10
263.10284486
 20
134.85161703
  0
VERTEX
  8
0
 10
263.42419328
 20
134.63024941
  0
VERTEX
  8
0
 10
263.72772874
 20
134.44694217
  0
VERTEX
  8
0
 10
264.02088397
 20
134.29916546
  0
VERTEX
  8
0
 10
264.31109168
 20
134.18438943
  0
VERTEX
  8
0
 10
264.60578460
 20
134.10008421
  0
VERTEX
  8
0
 10
264.91239546
 20
134.04371994
  0
VERTEX
  8
0
 10
265.23835699
 20
134.01276677
  0
VERTEX
  8
0
 10
265.59110190
 20
134.00469483
  0
VERTEX
  8
0
 10
265.97806293
 20
134.01697428
  0
VERTEX
  8
0
 10
266.40667279
 20
134.04707523
  0
VERTEX
  8
0
 10
267.41856994
 20
134.15062226
  0
VERTEX
  8
0
 10
268.17248502
 20
134.25138026
  0
VERTEX
  8
0
 10
269.10419790
 20
134.40159341
  0
VERTEX
  8
0
 10
270.17698640
 20
134.59395435
  0
VERTEX
  8
0
 10
271.35412833
 20
134.82115579
  0
VERTEX
  8
0
 10
273.87458382
 20
135.35085076
  0
VERTEX
  8
0
 10
275.14445300
 20
135.63872964
  0
VERTEX
  8
0
 10
276.37178691
 20
135.93221965
  0
SEQEND
  0
POLYLINE
  8
По_умолчанию
 62
256
 66
   1
 39
0.000000
 70
    1
  0
VERTEX
  8
0
 10
239.62846080
 20
137.99206490
  0
VERTEX
  8
0
 10
239.97705284
 20
138.31463902
  0
VERTEX
  8
0
 10
240.39586713
 20
138.73758287
  0
VERTEX
  8
0
 10
240.86904372
 20
139.24291522
  0
VERTEX
  8
0
 10
241.38072268
 20
139.81265483
  0
VERTEX
  8
0
 10
242.45614801
 20
141.07343090
  0
VERTEX
  8
0
 10
242.98817450
 20
141.72850489
  0
VERTEX
  8
0
 10
243.49526363
 20
142.37606121
  0
VERTEX
  8
0
 10
244.37178277
 20
143.50959838
  0
VERTEX
  8
0
 10
244.71323644
 20
143.97994765
  0
VERTEX
  8
0
 10
244.98689782
 20
144.41417942
  0
VERTEX
  8
0
 10
245.09754351
 20
144.62435171
  0
VERTEX
  8
0
 10
245.19032566
 20
144.83341520
  0
VERTEX
  8
0
 10
245.26493911
 20
145.04401007
  0
VERTEX
  8
0
 10
245.32107870
 20
145.25877653
  0
VERTEX
  8
0
 10
245.35843928
 20
145.48035475
  0
VERTEX
  8
0
 10
245.37671568
 20
145.71138490
  0
VERTEX
  8
0
 10
245.37560275
 20
145.95450721
  0
VERTEX
  8
0
 10
245.35479533
 20
146.21236186
  0
VERTEX
  8
0
 10
245.31398826
 20
146.48758903
  0
VERTEX
  8
0
 10
245.25287639
 20
146.78282892
  0
VERTEX
  8
0
 10
245.06851761
 20
147.44390762
  0
VERTEX
  8
0
 10
244.79927773
 20
148.21671943
  0
VERTEX
  8
0
 10
244.44271547
 20
149.12238593
  0
VERTEX
  8
0
 10
243.99638959
 20
150.18202861
  0
VERTEX
  8
0
 10
243.45785882
 20
151.41676900
  0
VERTEX
  8
0
 10
242.09441757
 20
154.49602901
  0
VERTEX
  8
0
 10
241.57349570
 20
155.70629674
  0
VERTEX
  8
0
 10
241.08079325
 20
156.91596253
  0
VERTEX
  8
0
 10
240.61627260
 20
158.12517312
  0
VERTEX
  8
0
 10
240.17989611
 20
159.33407522
  0
VERTEX
  8
0
 10
239.77162613
 20
160.54281557
  0
VERTEX
  8
0
 10
239.39142504
 20
161.75154090
  0
VERTEX
  8
0
 10
239.03925520
 20
162.96039794
  0
VERTEX
  8
0
 10
238.71507898
 20
164.16953338
  0
VERTEX
  8
0
 10
238.41885873
 20
165.37909400
  0
VERTEX
  8
0
 10
238.15055682
 20
166.58922649
  0
VERTEX
  8
0
 10
237.91013562
 20
167.80007760
  0
VERTEX
  8
0
 10
237.69755749
 20
169.01179403
  0
VERTEX
  8
0
 10
237.51278480
 20
170.22452254
  0
VERTEX
  8
0
 10
237.35577990
 20
171.43840985
  0
VERTEX
  8
0
 10
237.22650517
 20
172.65360265
  0
VERTEX
  8
0
 10
237.12492297
 20
173.87024772
  0
VERTEX
  8
0
 10
236.96653363
 20
175.81004135
  0
VERTEX
  8
0
 10
236.87912132
 20
176.59446049
  0
VERTEX
  8
0
 10
236.77896022
 20
177.26168117
  0
VERTEX
  8
0
 10
236.66059759
 20
177.81654335
  0
VERTEX
  8
0
 10
236.51858066
 20
178.26388704
  0
VERTEX
  8
0
 10
236.43699784
 20
178.44875195
  0
VERTEX
  8
0
 10
236.34745667
 20
178.60855223
  0
VERTEX
  8
0
 10
236.24927554
 20
178.74389289
  0
VERTEX
  8
0
 10
236.14177286
 20
178.85537891
  0
VERTEX
  8
0
 10
236.02426704
 20
178.94361530
  0
VERTEX
  8
0
 10
235.89607647
 20
179.00920705
  0
VERTEX
  8
0
 10
235.75651958
 20
179.05275917
  0
VERTEX
  8
0
 10
235.60491475
 20
179.07487666
  0
VERTEX
  8
0
 10
235.44058040
 20
179.07616450
  0
VERTEX
  8
0
 10
235.26283493
 20
179.05722771
  0
VERTEX
  8
0
 10
235.07099674
 20
179.01867126
  0
VERTEX
  8
0
 10
234.86438425
 20
178.96110018
  0
VERTEX
  8
0
 10
234.40410995
 20
178.79133408
  0
VERTEX
  8
0
 10
233.87655927
 20
178.55276939
  0
VERTEX
  8
0
 10
233.27627946
 20
178.25024610
  0
VERTEX
  8
0
 10
232.59781774
 20
177.88860420
  0
VERTEX
  8
0
 10
231.99346165
 20
177.53874392
  0
VERTEX
  8
0
 10
231.42469458
 20
177.16365870
  0
VERTEX
  8
0
 10
230.89240004
 20
176.76475991
  0
VERTEX
  8
0
 10
230.39746151
 20
176.34345887
  0
VERTEX
  8
0
 10
229.94076249
 20
175.90116695
  0
VERTEX
  8
0
 10
229.52318648
 20
175.43929552
  0
VERTEX
  8
0
 10
229.14561696
 20
174.95925593
  0
VERTEX
  8
0
 10
228.80893744
 20
174.46245952
  0
VERTEX
  8
0
 10
228.51403141
 20
173.95031767
  0
VERTEX
  8
0
 10
228.26178237
 20
173.42424170
  0
VERTEX
  8
0
 10
228.05307380
 20
172.88564300
  0
VERTEX
  8
0
 10
227.88878921
 20
172.33593292
  0
VERTEX
  8
0
 10
227.76981209
 20
171.77652280
  0
VERTEX
  8
0
 10
227.69702593
 20
171.20882399
  0
VERTEX
  8
0
 10
227.67131422
 20
170.63424786
  0
VERTEX
  8
0
 10
227.69356047
 20
170.05420577
  0
VERTEX
  8
0
 10
227.75842499
 20
169.46236999
  0
VERTEX
  8
0
 10
227.85411050
 20
168.92761468
  0
VERTEX
  8
0
 10
227.98095340
 20
168.44975377
  0
VERTEX
  8
0
 10
228.13929012
 20
168.02860119
  0
VERTEX
  8
0
 10
228.32945706
 20
167.66397086
  0
VERTEX
  8
0
 10
228.55179064
 20
167.35567671
  0
VERTEX
  8
0
 10
228.67512506
 20
167.22259757
  0
VERTEX
  8
0
 10
228.80662728
 20
167.10353268
  0
VERTEX
  8
0
 10
228.94633938
 20
166.99845880
  0
VERTEX
  8
0
 10
229.09430339
 20
166.90735268
  0
VERTEX
  8
0
 10
229.25056137
 20
166.83019103
  0
VERTEX
  8
0
 10
229.41515537
 20
166.76695062
  0
VERTEX
  8
0
 10
229.58812745
 20
166.71760820
  0
VERTEX
  8
0
 10
229.76951966
 20
166.68214046
  0
VERTEX
  8
0
 10
230.15773265
 20
166.65273612
  0
VERTEX
  8
0
 10
230.58013076
 20
166.67855151
  0
VERTEX
  8
0
 10
231.03705041
 20
166.75940058
  0
VERTEX
  8
0
 10
231.52882801
 20
166.89509724
  0
VERTEX
  8
0
 10
232.05579998
 20
167.08545541
  0
VERTEX
  8
0
 10
232.61830272
 20
167.33028905
  0
VERTEX
  8
0
 10
233.15918686
 20
167.57043709
  0
VERTEX
  8
0
 10
233.66176801
 20
167.76566614
  0
VERTEX
  8
0
 10
234.12651629
 20
167.91579683
  0
VERTEX
  8
0
 10
234.55390186
 20
168.02064982
  0
VERTEX
  8
0
 10
234.94439485
 20
168.08004579
  0
VERTEX
  8
0
 10
235.29846540
 20
168.09380539
  0
VERTEX
  8
0
 10
235.61658365
 20
168.06174927
  0
VERTEX
  8
0
 10
235.89921974
 20
167.98369807
  0
VERTEX
  8
0
 10
236.14684380
 20
167.85947249
  0
VERTEX
  8
0
 10
236.35992598
 20
167.68889315
  0
VERTEX
  8
0
 10
236.53893642
 20
167.47178073
  0
VERTEX
  8
0
 10
236.68434526
 20
167.20795587
  0
VERTEX
  8
0
 10
236.79662263
 20
166.89723924
  0
VERTEX
  8
0
 10
236.87623867
 20
166.53945149
  0
VERTEX
  8
0
 10
236.92366353
 20
166.13441330
  0
VERTEX
  8
0
 10
236.93936734
 20
165.68194528
  0
VERTEX
  8
0
 10
236.92069509
 20
165.29126983
  0
VERTEX
  8
0
 10
236.86572010
 20
164.91293183
  0
VERTEX
  8
0
 10
236.77600502
 20
164.54746738
  0
VERTEX
  8
0
 10
236.65311248
 20
164.19541252
  0
VERTEX
  8
0
 10
236.49860513
 20
163.85730338
  0
VERTEX
  8
0
 10
236.31404562
 20
163.53367603
  0
VERTEX
  8
0
 10
236.10099659
 20
163.22506655
  0
VERTEX
  8
0
 10
235.86102067
 20
162.93201105
  0
VERTEX
  8
0
 10
235.59568053
 20
162.65504558
  0
VERTEX
  8
0
 10
235.30653879
 20
162.39470625
  0
VERTEX
  8
0
 10
234.99515810
 20
162.15152915
  0
VERTEX
  8
0
 10
234.66310110
 20
161.92605036
  0
VERTEX
  8
0
 10
234.31193045
 20
161.71880594
  0
VERTEX
  8
0
 10
233.94320877
 20
161.53033202
  0
VERTEX
  8
0
 10
233.55849872
 20
161.36116465
  0
VERTEX
  8
0
 10
233.15936294
 20
161.21183994
  0
VERTEX
  8
0
 10
232.74736407
 20
161.08289395
  0
VERTEX
  8
0
 10
232.32406475
 20
160.97486280
  0
VERTEX
  8
0
 10
231.89102763
 20
160.88828255
  0
VERTEX
  8
0
 10
231.44981536
 20
160.82368930
  0
VERTEX
  8
0
 10
231.00199056
 20
160.78161912
  0
VERTEX
  8
0
 10
230.54911590
 20
160.76260811
  0
VERTEX
  8
0
 10
230.09275400
 20
160.76719235
  0
VERTEX
  8
0
 10
229.63446753
 20
160.79590794
  0
VERTEX
  8
0
 10
229.17581910
 20
160.84929094
  0
VERTEX
  8
0
 10
228.71837139
 20
160.92787745
  0
VERTEX
  8
0
 10
228.26368701
 20
161.03220356
  0
VERTEX
  8
0
 10
227.81332862
 20
161.16280534
  0
VERTEX
  8
0
 10
227.36885887
 20
161.32021890
  0
VERTEX
  8
0
 10
226.93184039
 20
161.50498031
  0
VERTEX
  8
0
 10
226.50383583
 20
161.71762565
  0
VERTEX
  8
0
 10
226.08640782
 20
161.95869102
  0
VERTEX
  8
0
 10
225.35552883
 20
162.39542857
  0
VERTEX
  8
0
 10
224.70265549
 20
162.75472292
  0
VERTEX
  8
0
 10
224.19901033
 20
162.99938058
  0
VERTEX
  8
0
 10
224.02540538
 20
163.06709766
  0
VERTEX
  8
0
 10
223.91581592
 20
163.09220800
  0
VERTEX
  8
0
 10
223.87878475
 20
163.08150839
  0
VERTEX
  8
0
 10
223.84244076
 20
163.04792698
  0
VERTEX
  8
0
 10
223.77262701
 20
162.91676644
  0
VERTEX
  8
0
 10
223.70799997
 20
162.70802187
  0
VERTEX
  8
0
 10
223.65018495
 20
162.43098877
  0
VERTEX
  8
0
 10
223.60080725
 20
162.09496260
  0
VERTEX
  8
0
 10
223.56149219
 20
161.70923884
  0
VERTEX
  8
0
 10
223.53386505
 20
161.28311300
  0
VERTEX
  8
0
 10
223.51955115
 20
160.82588056
  0
VERTEX
  8
0
 10
223.48445916
 20
160.33371755
  0
VERTEX
  8
0
 10
223.39625396
 20
159.85274219
  0
VERTEX
  8
0
 10
223.25793632
 20
159.38406883
  0
VERTEX
  8
0
 10
223.07250699
 20
158.92881184
  0
VERTEX
  8
0
 10
222.84296676
 20
158.48808557
  0
VERTEX
  8
0
 10
222.57231637
 20
158.06300439
  0
VERTEX
  8
0
 10
222.26355661
 20
157.65468264
  0
VERTEX
  8
0
 10
221.91968823
 20
157.26423471
  0
VERTEX
  8
0
 10
221.54371201
 20
156.89277494
  0
VERTEX
  8
0
 10
221.13862870
 20
156.54141770
  0
VERTEX
  8
0
 10
220.70743909
 20
156.21127735
  0
VERTEX
  8
0
 10
220.25314392
 20
155.90346825
  0
VERTEX
  8
0
 10
219.77874398
 20
155.61910477
  0
VERTEX
  8
0
 10
219.28724002
 20
155.35930124
  0
VERTEX
  8
0
 10
218.78163282
 20
155.12517206
  0
VERTEX
  8
0
 10
218.26492313
 20
154.91783157
  0
VERTEX
  8
0
 10
217.74011173
 20
154.73839413
  0
VERTEX
  8
0
 10
217.21019939
 20
154.58797411
  0
VERTEX
  8
0
 10
216.67818686
 20
154.46768585
  0
VERTEX
  8
0
 10
216.14707492
 20
154.37864374
  0
VERTEX
  8
0
 10
215.61986434
 20
154.32196213
  0
VERTEX
  8
0
 10
215.09955587
 20
154.29875537
  0
VERTEX
  8
0
 10
214.58915029
 20
154.31013783
  0
VERTEX
  8
0
 10
214.09164836
 20
154.35722387
  0
VERTEX
  8
0
 10
213.61005085
 20
154.44112785
  0
VERTEX
  8
0
 10
213.14735853
 20
154.56296415
  0
VERTEX
  8
0
 10
212.70657216
 20
154.72384708
  0
VERTEX
  8
0
 10
212.29069250
 20
154.92489105
  0
VERTEX
  8
0
 10
211.90272034
 20
155.16721040
  0
VERTEX
  8
0
 10
211.54565642
 20
155.45191950
  0
VERTEX
  8
0
 10
211.22250153
 20
155.78013271
  0
VERTEX
  8
0
 10
210.93625642
 20
156.15296437
  0
VERTEX
  8
0
 10
210.62361282
 20
156.66721677
  0
VERTEX
  8
0
 10
210.49848022
 20
156.91559035
  0
VERTEX
  8
0
 10
210.39393757
 20
157.15790769
  0
VERTEX
  8
0
 10
210.30983273
 20
157.39400297
  0
VERTEX
  8
0
 10
210.24601357
 20
157.62371028
  0
VERTEX
  8
0
 10
210.20232795
 20
157.84686381
  0
VERTEX
  8
0
 10
210.17862374
 20
158.06329768
  0
VERTEX
  8
0
 10
210.17474879
 20
158.27284606
  0
VERTEX
  8
0
 10
210.19055098
 20
158.47534307
  0
VERTEX
  8
0
 10
210.22587816
 20
158.67062285
  0
VERTEX
  8
0
 10
210.28057821
 20
158.85851955
  0
VERTEX
  8
0
 10
210.35449898
 20
159.03886732
  0
VERTEX
  8
0
 10
210.44748833
 20
159.21150031
  0
VERTEX
  8
0
 10
210.55939414
 20
159.37625266
  0
VERTEX
  8
0
 10
210.69006427
 20
159.53295850
  0
VERTEX
  8
0
 10
210.83934658
 20
159.68145199
  0
VERTEX
  8
0
 10
211.00708893
 20
159.82156725
  0
VERTEX
  8
0
 10
211.19313918
 20
159.95313845
  0
VERTEX
  8
0
 10
211.39734521
 20
160.07599973
  0
VERTEX
  8
0
 10
211.61955488
 20
160.18998521
  0
VERTEX
  8
0
 10
211.85961604
 20
160.29492908
  0
VERTEX
  8
0
 10
212.39268432
 20
160.47702845
  0
VERTEX
  8
0
 10
212.99533297
 20
160.62097099
  0
VERTEX
  8
0
 10
213.66634490
 20
160.72542987
  0
VERTEX
  8
0
 10
214.40450301
 20
160.78907820
  0
VERTEX
  8
0
 10
215.20859021
 20
160.81058917
  0
VERTEX
  8
0
 10
215.63150337
 20
160.82089855
  0
VERTEX
  8
0
 10
216.01807248
 20
160.85122024
  0
VERTEX
  8
0
 10
216.36869611
 20
160.90064454
  0
VERTEX
  8
0
 10
216.68377281
 20
160.96826181
  0
VERTEX
  8
0
 10
216.96370114
 20
161.05316234
  0
VERTEX
  8
0
 10
217.20887963
 20
161.15443646
  0
VERTEX
  8
0
 10
217.41970686
 20
161.27117450
  0
VERTEX
  8
0
 10
217.59658137
 20
161.40246679
  0
VERTEX
  8
0
 10
217.73990172
 20
161.54740363
  0
VERTEX
  8
0
 10
217.85006645
 20
161.70507537
  0
VERTEX
  8
0
 10
217.92747413
 20
161.87457231
  0
VERTEX
  8
0
 10
217.97252330
 20
162.05498478
  0
VERTEX
  8
0
 10
217.98561252
 20
162.24540311
  0
VERTEX
  8
0
 10
217.96714035
 20
162.44491761
  0
VERTEX
  8
0
 10
217.91750533
 20
162.65261863
  0
VERTEX
  8
0
 10
217.83710601
 20
162.86759645
  0
VERTEX
  8
0
 10
217.72634096
 20
163.08894143
  0
VERTEX
  8
0
 10
217.58560873
 20
163.31574387
  0
VERTEX
  8
0
 10
217.41530786
 20
163.54709409
  0
VERTEX
  8
0
 10
217.21583691
 20
163.78208243
  0
VERTEX
  8
0
 10
216.98759444
 20
164.01979921
  0
VERTEX
  8
0
 10
216.73097900
 20
164.25933476
  0
VERTEX
  8
0
 10
216.44638914
 20
164.49977938
  0
VERTEX
  8
0
 10
216.13422341
 20
164.74022339
  0
VERTEX
  8
0
 10
215.79488037
 20
164.97975715
  0
VERTEX
  8
0
 10
215.42875857
 20
165.21747095
  0
VERTEX
  8
0
 10
215.03625657
 20
165.45245513
  0
VERTEX
  8
0
 10
214.61777291
 20
165.68379999
  0
VERTEX
  8
0
 10
214.17370615
 20
165.91059588
  0
VERTEX
  8
0
 10
213.70445485
 20
166.13193311
  0
VERTEX
  8
0
 10
213.21041756
 20
166.34690201
  0
VERTEX
  8
0
 10
212.69199283
 20
166.55459288
  0
VERTEX
  8
0
 10
211.94484268
 20
166.82362532
  0
VERTEX
  8
0
 10
211.21323610
 20
167.05041314
  0
VERTEX
  8
0
 10
210.49583760
 20
167.23485507
  0
VERTEX
  8
0
 10
209.79131165
 20
167.37684991
  0
VERTEX
  8
0
 10
209.09832278
 20
167.47629637
  0
VERTEX
  8
0
 10
208.41553549
 20
167.53309324
  0
VERTEX
  8
0
 10
207.74161426
 20
167.54713927
  0
VERTEX
  8
0
 10
207.07522361
 20
167.51833320
  0
VERTEX
  8
0
 10
206.41502803
 20
167.44657383
  0
VERTEX
  8
0
 10
205.75969202
 20
167.33175990
  0
VERTEX
  8
0
 10
205.10788010
 20
167.17379015
  0
VERTEX
  8
0
 10
204.45825675
 20
166.97256337
  0
VERTEX
  8
0
 10
203.80948648
 20
166.72797830
  0
VERTEX
  8
0
 10
203.16023379
 20
166.43993370
  0
VERTEX
  8
0
 10
202.50916318
 20
166.10832833
  0
VERTEX
  8
0
 10
201.85493916
 20
165.73306096
  0
VERTEX
  8
0
 10
201.33553682
 20
165.39134103
  0
VERTEX
  8
0
 10
200.82287084
 20
165.00111370
  0
VERTEX
  8
0
 10
200.32063549
 20
164.56793772
  0
VERTEX
  8
0
 10
199.83252503
 20
164.09737189
  0
VERTEX
  8
0
 10
199.36223372
 20
163.59497496
  0
VERTEX
  8
0
 10
198.91345582
 20
163.06630570
  0
VERTEX
  8
0
 10
198.48988558
 20
162.51692291
  0
VERTEX
  8
0
 10
198.09521728
 20
161.95238534
  0
VERTEX
  8
0
 10
197.73314518
 20
161.37825178
  0
VERTEX
  8
0
 10
197.40736353
 20
160.80008100
  0
VERTEX
  8
0
 10
197.12156659
 20
160.22343177
  0
VERTEX
  8
0
 10
196.87944864
 20
159.65386287
  0
VERTEX
  8
0
 10
196.68470392
 20
159.09693307
  0
VERTEX
  8
0
 10
196.54102670
 20
158.55820113
  0
VERTEX
  8
0
 10
196.45211125
 20
158.04322586
  0
VERTEX
  8
0
 10
196.42165181
 20
157.55756599
  0
VERTEX
  8
0
 10
196.45423646
 20
157.16779402
  0
VERTEX
  8
0
 10
196.54883078
 20
156.72097381
  0
VERTEX
  8
0
 10
196.70069537
 20
156.22489206
  0
VERTEX
  8
0
 10
196.90509082
 20
155.68733546
  0
VERTEX
  8
0
 10
197.15727771
 20
155.11609070
  0
VERTEX
  8
0
 10
197.45251662
 20
154.51894448
  0
VERTEX
  8
0
 10
197.78606815
 20
153.90368350
  0
VERTEX
  8
0
 10
198.15319288
 20
153.27809443
  0
VERTEX
  8
0
 10
198.54915140
 20
152.64996399
  0
VERTEX
  8
0
 10
198.96920430
 20
152.02707884
  0
VERTEX
  8
0
 10
199.40861216
 20
151.41722568
  0
VERTEX
  8
0
 10
199.86263557
 20
150.82819122
  0
VERTEX
  8
0
 10
200.32653512
 20
150.26776215
  0
VERTEX
  8
0
 10
200.79557139
 20
149.74372515
  0
VERTEX
  8
0
 10
201.26500497
 20
149.26386693
  0
VERTEX
  8
0
 10
201.73009645
 20
148.83597416
  0
VERTEX
  8
0
 10
202.11126192
 20
148.52092134
  0
VERTEX
  8
0
 10
202.53595720
 20
148.19738336
  0
VERTEX
  8
0
 10
203.00235368
 20
147.86613360
  0
VERTEX
  8
0
 10
203.50862271
 20
147.52794548
  0
VERTEX
  8
0
 10
204.63346392
 20
146.83384768
  0
VERTEX
  8
0
 10
205.89585180
 20
146.12127721
  0
VERTEX
  8
0
 10
207.28115729
 20
145.39642127
  0
VERTEX
  8
0
 10
208.77475134
 20
144.66546707
  0
VERTEX
  8
0
 10
210.36200493
 20
143.93460182
  0
VERTEX
  8
0
 10
212.02828898
 20
143.21001275
  0
VERTEX
  8
0
 10
213.75897447
 20
142.49788702
  0
VERTEX
  8
0
 10
215.53943235
 20
141.80441188
  0
VERTEX
  8
0
 10
217.35503356
 20
141.13577455
  0
VERTEX
  8
0
 10
219.19114907
 20
140.49816221
  0
VERTEX
  8
0
 10
221.03314983
 20
139.89776208
  0
VERTEX
  8
0
 10
222.86640679
 20
139.34076139
  0
VERTEX
  8
0
 10
224.67629091
 20
138.83334733
  0
VERTEX
  8
0
 10
226.44817314
 20
138.38170711
  0
VERTEX
  8
0
 10
227.94232736
 20
138.02871673
  0
VERTEX
  8
0
 10
229.31678663
 20
137.72044076
  0
VERTEX
  8
0
 10
230.57804597
 20
137.45668718
  0
VERTEX
  8
0
 10
231.73260042
 20
137.23726400
  0
VERTEX
  8
0
 10
232.78694499
 20
137.06197921
  0
VERTEX
  8
0
 10
233.74757471
 20
136.93064076
  0
VERTEX
  8
0
 10
234.62098461
 20
136.84305670
  0
VERTEX
  8
0
 10
235.41366972
 20
136.79903498
  0
VERTEX
  8
0
 10
236.13212505
 20
136.79838361
  0
VERTEX
  8
0
 10
236.78284563
 20
136.84091058
  0
VERTEX
  8
0
 10
237.37232649
 20
136.92642387
  0
VERTEX
  8
0
 10
237.90706265
 20
137.05473148
  0
VERTEX
  8
0
 10
238.39354913
 20
137.22564140
  0
VERTEX
  8
0
 10
238.83828097
 20
137.43896161
  0
VERTEX
  8
0
 10
239.24775319
 20
137.69450011
  0
VERTEX
  8
0
 10
239.62846080
 20
137.99206490
  0
SEQEND
  0
POLYLINE
  8
По_умолчанию
 62
256
 66
   1
 39
0.000000
 70
    1
  0
VERTEX
  8
0
 10
251.46014959
 20
159.89847602
  0
VERTEX
  8
0
 10
251.58466609
 20
160.52611278
  0
VERTEX
  8
0
 10
251.69134810
 20
161.15262880
  0
VERTEX
  8
0
 10
251.78038432
 20
161.77726611
  0
VERTEX
  8
0
 10
251.85196344
 20
162.39926672
  0
VERTEX
  8
0
 10
251.90627416
 20
163.01787264
  0
VERTEX
  8
0
 10
251.94350515
 20
163.63232587
  0
VERTEX
  8
0
 10
251.96384512
 20
164.24186843
  0
VERTEX
  8
0
 10
251.96748276
 20
164.84574234
  0
VERTEX
  8
0
 10
251.95460675
 20
165.44318961
  0
VERTEX
  8
0
 10
251.92540580
 20
166.03345225
  0
VERTEX
  8
0
 10
251.88006858
 20
166.61577227
  0
VERTEX
  8
0
 10
251.81878379
 20
167.18939169
  0
VERTEX
  8
0
 10
251.74174013
 20
167.75355252
  0
VERTEX
  8
0
 10
251.64912629
 20
168.30749677
  0
VERTEX
  8
0
 10
251.54113095
 20
168.85046643
  0
VERTEX
  8
0
 10
251.41794280
 20
169.38170356
  0
VERTEX
  8
0
 10
251.27975055
 20
169.90045014
  0
VERTEX
  8
0
 10
251.12674288
 20
170.40594819
  0
VERTEX
  8
0
 10
250.95910849
 20
170.89743973
  0
VERTEX
  8
0
 10
250.77703605
 20
171.37416675
  0
VERTEX
  8
0
 10
250.58071428
 20
171.83537128
  0
VERTEX
  8
0
 10
250.37033185
 20
172.28029534
  0
VERTEX
  8
0
 10
250.14607746
 20
172.70818094
  0
VERTEX
  8
0
 10
249.90813980
 20
173.11827008
  0
VERTEX
  8
0
 10
249.65670757
 20
173.50980476
  0
VERTEX
  8
0
 10
249.39196944
 20
173.88202702
  0
VERTEX
  8
0
 10
249.11411413
 20
174.23417888
  0
VERTEX
  8
0
 10
248.82333031
 20
174.56550232
  0
VERTEX
  8
0
 10
248.51980668
 20
174.87523937
  0
VERTEX
  8
0
 10
248.20373193
 20
175.16263204
  0
VERTEX
  8
0
 10
247.87529475
 20
175.42692234
  0
VERTEX
  8
0
 10
247.53468383
 20
175.66735230
  0
VERTEX
  8
0
 10
247.29888104
 20
175.79047631
  0
VERTEX
  8
0
 10
247.18768242
 20
175.82406821
  0
VERTEX
  8
0
 10
247.08093222
 20
175.83951679
  0
VERTEX
  8
0
 10
246.97861537
 20
175.83719959
  0
VERTEX
  8
0
 10
246.88071679
 20
175.81749415
  0
VERTEX
  8
0
 10
246.78722140
 20
175.78077804
  0
VERTEX
  8
0
 10
246.69811412
 20
175.72742880
  0
VERTEX
  8
0
 10
246.53300363
 20
175.57234113
  0
VERTEX
  8
0
 10
246.38526471
 20
175.35525157
  0
VERTEX
  8
0
 10
246.25477677
 20
175.07918051
  0
VERTEX
  8
0
 10
246.14141919
 20
174.74714836
  0
VERTEX
  8
0
 10
246.04507138
 20
174.36217553
  0
VERTEX
  8
0
 10
245.96561274
 20
173.92728242
  0
VERTEX
  8
0
 10
245.90292266
 20
173.44548946
  0
VERTEX
  8
0
 10
245.85688055
 20
172.91981702
  0
VERTEX
  8
0
 10
245.82736580
 20
172.35328554
  0
VERTEX
  8
0
 10
245.81425782
 20
171.74891542
  0
VERTEX
  8
0
 10
245.81743599
 20
171.10972705
  0
VERTEX
  8
0
 10
245.83677972
 20
170.43874084
  0
VERTEX
  8
0
 10
245.92348146
 20
169.01345659
  0
VERTEX
  8
0
 10
246.07339822
 20
167.49722588
  0
VERTEX
  8
0
 10
246.28556519
 20
165.91421201
  0
VERTEX
  8
0
 10
246.55901756
 20
164.28857819
  0
VERTEX
  8
0
 10
246.89279052
 20
162.64448772
  0
VERTEX
  8
0
 10
247.08199572
 20
161.82307226
  0
VERTEX
  8
0
 10
247.28591926
 20
161.00610384
  0
VERTEX
  8
0
 10
247.50444055
 20
160.19660289
  0
VERTEX
  8
0
 10
247.73743897
 20
159.39758981
  0
VERTEX
  8
0
 10
247.98479394
 20
158.61208499
  0
VERTEX
  8
0
 10
248.24638484
 20
157.84310887
  0
VERTEX
  8
0
 10
248.50335318
 20
157.14131243
  0
VERTEX
  8
0
 10
248.74277132
 20
156.54377718
  0
VERTEX
  8
0
 10
248.96679696
 20
156.05188308
  0
VERTEX
  8
0
 10
249.17758774
 20
155.66701007
  0
VERTEX
  8
0
 10
249.37730134
 20
155.39053809
  0
VERTEX
  8
0
 10
249.47367847
 20
155.29338371
  0
VERTEX
  8
0
 10
249.56809543
 20
155.22384705
  0
VERTEX
  8
0
 10
249.66082192
 20
155.18210063
  0
VERTEX
  8
0
 10
249.75212766
 20
155.16831693
  0
VERTEX
  8
0
 10
249.84228236
 20
155.18266842
  0
VERTEX
  8
0
 10
249.93155572
 20
155.22532763
  0
VERTEX
  8
0
 10
250.02021745
 20
155.29646703
  0
VERTEX
  8
0
 10
250.10853726
 20
155.39625911
  0
VERTEX
  8
0
 10
250.19678485
 20
155.52487637
  0
VERTEX
  8
0
 10
250.28522995
 20
155.68249131
  0
VERTEX
  8
0
 10
250.46379145
 20
156.08540415
  0
VERTEX
  8
0
 10
250.64637944
 20
156.60637760
  0
VERTEX
  8
0
 10
250.83515159
 20
157.24679157
  0
VERTEX
  8
0
 10
251.03226555
 20
158.00802600
  0
VERTEX
  8
0
 10
251.23987899
 20
158.89146083
  0
VERTEX
  8
0
 10
251.46014959
 20
159.89847602
  0
SEQEND
  0
POLYLINE
  8
По_умолчанию
 62
256
 66
   1
 39
0.000000
 70
    1
  0
VERTEX
  8
0
 10
47.96567827
 20
117.43322089
  0
VERTEX
  8
0
 10
47.03036895
 20
117.13854584
  0
VERTEX
  8
0
 10
45.13849545
 20
116.49220135
  0
VERTEX
  8
0
 10
43.26120103
 20
115.80166939
  0
VERTEX
  8
0
 10
41.40590763
 20
115.07080550
  0
VERTEX
  8
0
 10
39.58003719
 20
114.30346525
  0
VERTEX
  8
0
 10
37.79101166
 20
113.50350419
  0
VERTEX
  8
0
 10
36.04625297
 20
112.67477789
  0
VERTEX
  8
0
 10
34.35318308
 20
111.82114188
  0
VERTEX
  8
0
 10
32.71922393
 20
110.94645170
  0
VERTEX
  8
0
 10
31.15179746
 20
110.05456295
  0
VERTEX
  8
0
 10
29.65832562
 20
109.14933116
  0
VERTEX
  8
0
 10
28.24623035
 20
108.23461187
  0
VERTEX
  8
0
 10
26.92293359
 20
107.31426066
  0
VERTEX
  8
0
 10
26.29690401
 20
106.85317793
  0
VERTEX
  8
0
 10
25.69585729
 20
106.39213307
  0
VERTEX
  8
0
 10
25.12072117
 20
105.93160799
  0
VERTEX
  8
0
 10
24.57242340
 20
105.47208466
  0
VERTEX
  8
0
 10
24.05189171
 20
105.01404499
  0
VERTEX
  8
0
 10
23.56005385
 20
104.55797096
  0
VERTEX
  8
0
 10
22.34323477
 20
103.35716761
  0
VERTEX
  8
0
 10
21.18052295
 20
102.12755659
  0
VERTEX
  8
0
 10
20.07238475
 20
100.87116951
  0
VERTEX
  8
0
 10
19.01928655
 20
99.59003795
  0
VERTEX
  8
0
 10
18.02169470
 20
98.28619349
  0
VERTEX
  8
0
 10
17.08007558
 20
96.96166773
  0
VERTEX
  8
0
 10
16.19489556
 20
95.61849225
  0
VERTEX
  8
0
 10
15.36662100
 20
94.25869864
  0
VERTEX
  8
0
 10
14.59571827
 20
92.88431850
  0
VERTEX
  8
0
 10
13.88265375
 20
91.49738341
  0
VERTEX
  8
0
 10
13.22789379
 20
90.09992496
  0
VERTEX
  8
0
 10
12.63190478
 20
88.69397472
  0
VERTEX
  8
0
 10
12.09515306
 20
87.28156431
  0
VERTEX
  8
0
 10
11.61810502
 20
85.86472530
  0
VERTEX
  8
0
 10
11.20122703
 20
84.44548929
  0
VERTEX
  8
0
 10
10.84498544
 20
83.02588786
  0
VERTEX
  8
0
 10
10.54984663
 20
81.60795260
  0
VERTEX
  8
0
 10
10.42533651
 20
80.90024465
  0
VERTEX
  8
0
 10
10.31627697
 20
80.19371509
  0
VERTEX
  8
0
 10
10.22272631
 20
79.48861787
  0
VERTEX
  8
0
 10
10.14474283
 20
78.78520694
  0
VERTEX
  8
0
 10
10.08238481
 20
78.08373623
  0
VERTEX
  8
0
 10
10.03571056
 20
77.38445972
  0
VERTEX
  8
0
 10
10.00477838
 20
76.68763134
  0
VERTEX
  8
0
 10
9.98964655
 20
75.99350502
  0
VERTEX
  8
0
 10
9.99037338
 20
75.30233474
  0
VERTEX
  8
0
 10
10.00701716
 20
74.61437444
  0
VERTEX
  8
0
 10
10.03963619
 20
73.92987806
  0
VERTEX
  8
0
 10
10.08828876
 20
73.24909956
  0
VERTEX
  8
0
 10
10.15303317
 20
72.57229288
  0
VERTEX
  8
0
 10
10.23392771
 20
71.89971197
  0
VERTEX
  8
0
 10
10.33103068
 20
71.23161078
  0
VERTEX
  8
0
 10
10.44440039
 20
70.56824326
  0
VERTEX
  8
0
 10
10.57409511
 20
69.90986336
  0
VERTEX
  8
0
 10
10.72017316
 20
69.25672502
  0
VERTEX
  8
0
 10
10.88269282
 20
68.60908219
  0
VERTEX
  8
0
 10
11.06171239
 20
67.96718883
  0
VERTEX
  8
0
 10
11.25729016
 20
67.33129888
  0
VERTEX
  8
0
 10
11.46948445
 20
66.70166629
  0
VERTEX
  8
0
 10
11.69835353
 20
66.07854501
  0
VERTEX
  8
0
 10
11.94395570
 20
65.46218899
  0
VERTEX
  8
0
 10
12.20634927
 20
64.85285217
  0
VERTEX
  8
0
 10
12.48559253
 20
64.25078850
  0
VERTEX
  8
0
 10
12.78174377
 20
63.65625194
  0
VERTEX
  8
0
 10
13.09486128
 20
63.06949643
  0
VERTEX
  8
0
 10
13.42500338
 20
62.49077592
  0
VERTEX
  8
0
 10
13.77222834
 20
61.92034435
  0
VERTEX
  8
0
 10
14.35333060
 20
61.02952632
  0
VERTEX
  8
0
 10
14.96258799
 20
60.16170397
  0
VERTEX
  8
0
 10
15.59984591
 20
59.31695850
  0
VERTEX
  8
0
 10
16.26494972
 20
58.49537113
  0
VERTEX
  8
0
 10
16.95774481
 20
57.69702306
  0
VERTEX
  8
0
 10
17.67807654
 20
56.92199550
  0
VERTEX
  8
0
 10
18.42579029
 20
56.17036965
  0
VERTEX
  8
0
 10
19.20073144
 20
55.44222674
  0
VERTEX
  8
0
 10
20.00274536
 20
54.73764795
  0
VERTEX
  8
0
 10
20.83167743
 20
54.05671451
  0
VERTEX
  8
0
 10
21.68737303
 20
53.39950761
  0
VERTEX
  8
0
 10
22.56967752
 20
52.76610845
  0
VERTEX
  8
0
 10
23.47843629
 20
52.15659826
  0
VERTEX
  8
0
 10
24.41349471
 20
51.57105824
  0
VERTEX
  8
0
 10
25.37469815
 20
51.00956960
  0
VERTEX
  8
0
 10
26.36189200
 20
50.47221354
  0
VERTEX
  8
0
 10
27.37492162
 20
49.95907127
  0
VERTEX
  8
0
 10
28.41363240
 20
49.47022401
  0
VERTEX
  8
0
 10
29.47786970
 20
49.00575293
  0
VERTEX
  8
0
 10
30.56747891
 20
48.56573927
  0
VERTEX
  8
0
 10
31.68230540
 20
48.15026423
  0
VERTEX
  8
0
 10
32.82219454
 20
47.75940902
  0
VERTEX
  8
0
 10
33.98699171
 20
47.39325485
  0
VERTEX
  8
0
 10
35.17654228
 20
47.05188291
  0
VERTEX
  8
0
 10
36.39069164
 20
46.73537442
  0
VERTEX
  8
0
 10
37.62928515
 20
46.44381059
  0
VERTEX
  8
0
 10
38.89216820
 20
46.17727263
  0
VERTEX
  8
0
 10
40.17918615
 20
45.93584173
  0
VERTEX
  8
0
 10
41.49018438
 20
45.71959911
  0
VERTEX
  8
0
 10
42.82500828
 20
45.52862598
  0
VERTEX
  8
0
 10
44.18350320
 20
45.36300354
  0
VERTEX
  8
0
 10
45.56551454
 20
45.22281299
  0
VERTEX
  8
0
 10
46.94650743
 20
45.11699703
  0
VERTEX
  8
0
 10
48.39320468
 20
45.04508883
  0
VERTEX
  8
0
 10
49.89664448
 20
45.00637819
  0
VERTEX
  8
0
 10
51.44786505
 20
45.00015491
  0
VERTEX
  8
0
 10
53.03790461
 20
45.02570879
  0
VERTEX
  8
0
 10
54.65780136
 20
45.08232963
  0
VERTEX
  8
0
 10
56.29859353
 20
45.16930722
  0
VERTEX
  8
0
 10
57.95131931
 20
45.28593137
  0
VERTEX
  8
0
 10
59.60701693
 20
45.43149188
  0
VERTEX
  8
0
 10
61.25672460
 20
45.60527855
  0
VERTEX
  8
0
 10
62.89148052
 20
45.80658118
  0
VERTEX
  8
0
 10
64.50232291
 20
46.03468956
  0
VERTEX
  8
0
 10
66.08028999
 20
46.28889350
  0
VERTEX
  8
0
 10
67.61641996
 20
46.56848279
  0
VERTEX
  8
0
 10
69.10175103
 20
46.87274724
  0
VERTEX
  8
0
 10
70.52732143
 20
47.20097665
  0
VERTEX
  8
0
 10
71.30204537
 20
47.38031461
  0
VERTEX
  8
0
 10
72.10291846
 20
47.54279318
  0
VERTEX
  8
0
 10
72.95905117
 20
47.68999834
  0
VERTEX
  8
0
 10
73.89955399
 20
47.82351604
  0
VERTEX
  8
0
 10
74.95353739
 20
47.94493226
  0
VERTEX
  8
0
 10
76.15011184
 20
48.05583297
  0
VERTEX
  8
0
 10
77.51838783
 20
48.15780413
  0
VERTEX
  8
0
 10
79.08747583
 20
48.25243173
  0
VERTEX
  8
0
 10
80.88648631
 20
48.34130172
  0
VERTEX
  8
0
 10
82.94452976
 20
48.42600009
  0
VERTEX
  8
0
 10
87.95415744
 20
48.58922580
  0
VERTEX
  8
0
 10
94.34924270
 20
48.75479661
  0
VERTEX
  8
0
 10
102.36266934
 20
48.93540029
  0
VERTEX
  8
0
 10
107.18364968
 20
49.02708098
  0
VERTEX
  8
0
 10
112.83923487
 20
49.11256485
  0
VERTEX
  8
0
 10
126.43899007
 20
49.26499506
  0
VERTEX
  8
0
 10
142.73147549
 20
49.39279687
  0
VERTEX
  8
0
 10
161.28623165
 20
49.49607620
  0
VERTEX
  8
0
 10
181.67279909
 20
49.57493901
  0
VERTEX
  8
0
 10
203.46071835
 20
49.62949121
  0
VERTEX
  8
0
 10
226.21952996
 20
49.65983876
  0
VERTEX
  8
0
 10
249.51877446
 20
49.66608759
  0
VERTEX
  8
0
 10
272.92799237
 20
49.64834364
  0
VERTEX
  8
0
 10
296.01672425
 20
49.60671284
  0
VERTEX
  8
0
 10
318.35451062
 20
49.54130113
  0
VERTEX
  8
0
 10
339.51089201
 20
49.45221445
  0
VERTEX
  8
0
 10
359.05540897
 20
49.33955875
  0
VERTEX
  8
0
 10
376.55760203
 20
49.20343994
  0
VERTEX
  8
0
 10
391.58701171
 20
49.04396399
  0
VERTEX
  8
0
 10
398.03990421
 20
48.95550019
  0
VERTEX
  8
0
 10
403.71317857
 20
48.86123681
  0
VERTEX
  8
0
 10
410.14813272
 20
48.73648281
  0
VERTEX
  8
0
 10
415.18765772
 20
48.61528768
  0
VERTEX
  8
0
 10
417.27236018
 20
48.54963662
  0
VERTEX
  8
0
 10
419.11407640
 20
48.47720958
  0
VERTEX
  8
0
 10
420.74809675
 20
48.39545136
  0
VERTEX
  8
0
 10
422.20971156
 20
48.30180671
  0
VERTEX
  8
0
 10
423.53421121
 20
48.19372041
  0
VERTEX
  8
0
 10
424.75688602
 20
48.06863723
  0
VERTEX
  8
0
 10
425.91302637
 20
47.92400195
  0
VERTEX
  8
0
 10
427.03792259
 20
47.75725933
  0
VERTEX
  8
0
 10
428.16686505
 20
47.56585416
  0
VERTEX
  8
0
 10
429.33514408
 20
47.34723119
  0
VERTEX
  8
0
 10
431.93087331
 20
46.81811099
  0
VERTEX
  8
0
 10
434.33007844
 20
46.32993614
  0
VERTEX
  8
0
 10
436.42473160
 20
45.94545762
  0
VERTEX
  8
0
 10
437.39725028
 20
45.78840363
  0
VERTEX
  8
0
 10
438.34090985
 20
45.65283269
  0
VERTEX
  8
0
 10
439.27146995
 20
45.53726447
  0
VERTEX
  8
0
 10
440.20469022
 20
45.44021863
  0
VERTEX
  8
0
 10
441.15633028
 20
45.36021482
  0
VERTEX
  8
0
 10
442.14214976
 20
45.29577270
  0
VERTEX
  8
0
 10
443.17790830
 20
45.24541193
  0
VERTEX
  8
0
 10
444.27936552
 20
45.20765217
  0
VERTEX
  8
0
 10
446.74241453
 20
45.16401431
  0
VERTEX
  8
0
 10
449.65737385
 20
45.15301638
  0
VERTEX
  8
0
 10
451.73723033
 20
45.16547373
  0
VERTEX
  8
0
 10
453.67893886
 20
45.20244361
  0
VERTEX
  8
0
 10
455.49412043
 20
45.26611160
  0
VERTEX
  8
0
 10
457.19439600
 20
45.35866332
  0
VERTEX
  8
0
 10
458.79138657
 20
45.48228437
  0
VERTEX
  8
0
 10
460.29671309
 20
45.63916033
  0
VERTEX
  8
0
 10
461.72199657
 20
45.83147681
  0
VERTEX
  8
0
 10
463.07885796
 20
46.06141942
  0
VERTEX
  8
0
 10
464.37891824
 20
46.33117374
  0
VERTEX
  8
0
 10
465.63379840
 20
46.64292538
  0
VERTEX
  8
0
 10
466.85511942
 20
46.99885994
  0
VERTEX
  8
0
 10
468.05450226
 20
47.40116301
  0
VERTEX
  8
0
 10
469.24356791
 20
47.85202021
  0
VERTEX
  8
0
 10
470.43393734
 20
48.35361712
  0
VERTEX
  8
0
 10
471.63723152
 20
48.90813934
  0
VERTEX
  8
0
 10
472.86507145
 20
49.51777249
  0
VERTEX
  8
0
 10
473.67311503
 20
49.94368026
  0
VERTEX
  8
0
 10
474.46625212
 20
50.38487603
  0
VERTEX
  8
0
 10
475.24412221
 20
50.84094563
  0
VERTEX
  8
0
 10
476.00636480
 20
51.31147489
  0
VERTEX
  8
0
 10
476.75261938
 20
51.79604965
  0
VERTEX
  8
0
 10
477.48252544
 20
52.29425575
  0
VERTEX
  8
0
 10
478.19572247
 20
52.80567902
  0
VERTEX
  8
0
 10
478.89184998
 20
53.32990532
  0
VERTEX
  8
0
 10
479.57054746
 20
53.86652045
  0
VERTEX
  8
0
 10
480.23145440
 20
54.41511027
  0
VERTEX
  8
0
 10
480.87421029
 20
54.97526062
  0
VERTEX
  8
0
 10
481.49845462
 20
55.54655732
  0
VERTEX
  8
0
 10
482.10382690
 20
56.12858622
  0
VERTEX
  8
0
 10
482.68996662
 20
56.72093317
  0
VERTEX
  8
0
 10
483.25651326
 20
57.32318396
  0
VERTEX
  8
0
 10
483.80310633
 20
57.93492447
  0
VERTEX
  8
0
 10
484.32938531
 20
58.55574053
  0
VERTEX
  8
0
 10
484.83498971
 20
59.18521797
  0
VERTEX
  8
0
 10
485.31955902
 20
59.82294262
  0
VERTEX
  8
0
 10
485.78273272
 20
60.46850033
  0
VERTEX
  8
0
 10
486.22415031
 20
61.12147693
  0
VERTEX
  8
0
 10
486.64345130
 20
61.78145826
  0
VERTEX
  8
0
 10
487.04027516
 20
62.44803015
  0
VERTEX
  8
0
 10
487.41426140
 20
63.12077845
  0
VERTEX
  8
0
 10
487.76504951
 20
63.79928898
  0
VERTEX
  8
0
 10
488.09227899
 20
64.48314759
  0
VERTEX
  8
0
 10
488.39558932
 20
65.17194011
  0
VERTEX
  8
0
 10
488.67462000
 20
65.86525239
  0
VERTEX
  8
0
 10
488.92901053
 20
66.56267024
  0
VERTEX
  8
0
 10
489.15840040
 20
67.26377953
  0
VERTEX
  8
0
 10
489.36242910
 20
67.96816607
  0
VERTEX
  8
0
 10
489.54073612
 20
68.67541570
  0
VERTEX
  8
0
 10
489.70350527
 20
69.51305243
  0
VERTEX
  8
0
 10
489.83081106
 20
70.46446763
  0
VERTEX
  8
0
 10
489.92369401
 20
71.51261299
  0
VERTEX
  8
0
 10
489.98319464
 20
72.64044018
  0
VERTEX
  8
0
 10
490.01035345
 20
73.83090094
  0
VERTEX
  8
0
 10
490.00621098
 20
75.06694694
  0
VERTEX
  8
0
 10
489.97180773
 20
76.33152988
  0
VERTEX
  8
0
 10
489.90818423
 20
77.60760147
  0
VERTEX
  8
0
 10
489.81638098
 20
78.87811340
  0
VERTEX
  8
0
 10
489.69743851
 20
80.12601736
  0
VERTEX
  8
0
 10
489.55239733
 20
81.33426505
  0
VERTEX
  8
0
 10
489.38229796
 20
82.48580818
  0
VERTEX
  8
0
 10
489.18818091
 20
83.56359843
  0
VERTEX
  8
0
 10
488.97108671
 20
84.55058750
  0
VERTEX
  8
0
 10
488.73205586
 20
85.42972710
  0
VERTEX
  8
0
 10
488.60463936
 20
85.82352575
  0
VERTEX
  8
0
 10
488.47212889
 20
86.18396891
  0
VERTEX
  8
0
 10
487.93248033
 20
87.51082638
  0
VERTEX
  8
0
 10
487.37105023
 20
88.80352648
  0
VERTEX
  8
0
 10
486.78705856
 20
90.06277823
  0
VERTEX
  8
0
 10
486.17972535
 20
91.28929064
  0
VERTEX
  8
0
 10
485.54827057
 20
92.48377271
  0
VERTEX
  8
0
 10
484.89191423
 20
93.64693346
  0
VERTEX
  8
0
 10
484.20987633
 20
94.77948189
  0
VERTEX
  8
0
 10
483.50137687
 20
95.88212702
  0
VERTEX
  8
0
 10
482.76563584
 20
96.95557786
  0
VERTEX
  8
0
 10
482.00187324
 20
98.00054341
  0
VERTEX
  8
0
 10
481.20930906
 20
99.01773269
  0
VERTEX
  8
0
 10
480.38716332
 20
100.00785471
  0
VERTEX
  8
0
 10
479.53465600
 20
100.97161848
  0
VERTEX
  8
0
 10
478.65100710
 20
101.90973299
  0
VERTEX
  8
0
 10
477.73543663
 20
102.82290727
  0
VERTEX
  8
0
 10
476.78716457
 20
103.71185033
  0
VERTEX
  8
0
 10
475.80541093
 20
104.57727118
  0
VERTEX
  8
0
 10
474.78939570
 20
105.41987883
  0
VERTEX
  8
0
 10
473.73833889
 20
106.24038227
  0
VERTEX
  8
0
 10
472.65146048
 20
107.03949055
  0
VERTEX
  8
0
 10
471.52798049
 20
107.81791264
  0
VERTEX
  8
0
 10
470.36711890
 20
108.57635757
  0
VERTEX
  8
0
 10
469.16809571
 20
109.31553434
  0
VERTEX
  8
0
 10
467.93013093
 20
110.03615196
  0
VERTEX
  8
0
 10
466.65244454
 20
110.73891946
  0
VERTEX
  8
0
 10
465.33425656
 20
111.42454583
  0
VERTEX
  8
0
 10
463.97478697
 20
112.09374009
  0
VERTEX
  8
0
 10
462.57325577
 20
112.74721124
  0
VERTEX
  8
0
 10
461.12888297
 20
113.38566831
  0
VERTEX
  8
0
 10
459.64088855
 20
114.00982028
  0
VERTEX
  8
0
 10
458.10849252
 20
114.62037619
  0
VERTEX
  8
0
 10
456.53091488
 20
115.21804502
  0
VERTEX
  8
0
 10
454.09590466
 20
116.10795597
  0
VERTEX
  8
0
 10
452.43800491
 20
116.61166791
  0
VERTEX
  8
0
 10
450.86677845
 20
117.02382815
  0
VERTEX
  8
0
 10
450.14431431
 20
117.21649052
  0
VERTEX
  8
0
 10
449.49777138
 20
117.37038296
  0
VERTEX
  8
0
 10
448.91808922
 20
117.48489411
  0
VERTEX
  8
0
 10
448.39620738
 20
117.55941263
  0
VERTEX
  8
0
 10
447.92306540
 20
117.59332723
  0
VERTEX
  8
0
 10
447.48960283
 20
117.58602652
  0
VERTEX
  8
0
 10
446.91797073
 20
117.40497506
  0
VERTEX
  8
0
 10
446.70547413
 20
116.79451217
  0
VERTEX
  8
0
 10
446.57605630
 20
116.03837283
  0
VERTEX
  8
0
 10
446.47217260
 20
115.42245864
  0
VERTEX
  8
0
 10
446.15069083
 20
114.81585619
  0
VERTEX
  8
0
 10
445.66731632
 20
114.31455064
  0
VERTEX
  8
0
 10
444.91142754
 20
113.87751986
  0
VERTEX
  8
0
 10
444.36878655
 20
113.77322563
  0
VERTEX
  8
0
 10
443.79483835
 20
113.68979070
  0
VERTEX
  8
0
 10
443.16871335
 20
113.63764329
  0
VERTEX
  8
0
 10
442.49041154
 20
113.65850260
  0
VERTEX
  8
0
 10
442.20921114
 20
113.69515896
  0
VERTEX
  8
0
 10
441.87996361
 20
113.74780835
  0
VERTEX
  8
0
 10
441.61829948
 20
113.80057234
  0
VERTEX
  8
0
 10
441.39492889
 20
113.85980025
  0
VERTEX
  8
0
 10
441.29919895
 20
113.90080371
  0
VERTEX
  8
0
 10
441.14876524
 20
113.96914299
  0
VERTEX
  8
0
 10
440.99377381
 20
114.03748285
  0
VERTEX
  8
0
 10
440.79775399
 20
114.16960572
  0
VERTEX
  8
0
 10
440.61996951
 20
114.31539623
  0
VERTEX
  8
0
 10
440.45586041
 20
114.46574299
  0
VERTEX
  8
0
 10
440.32012025
 20
114.58681762
  0
VERTEX
  8
0
 10
440.17590953
 20
114.70527459
  0
VERTEX
  8
0
 10
440.01919240
 20
114.84663899
  0
VERTEX
  8
0
 10
439.85284568
 20
114.99589714
  0
VERTEX
  8
0
 10
439.51862628
 20
115.35294147
  0
VERTEX
  8
0
 10
439.17887969
 20
115.78891912
  0
VERTEX
  8
0
 10
438.82941486
 20
116.30490528
  0
VERTEX
  8
0
 10
438.46604074
 20
116.90197511
  0
VERTEX
  8
0
 10
438.08456626
 20
117.58120379
  0
VERTEX
  8
0
 10
436.27205712
 20
120.91404989
  0
VERTEX
  8
0
 10
429.76028141
 20
122.21253115
  0
VERTEX
  8
0
 10
428.15001903
 20
122.51514083
  0
VERTEX
  8
0
 10
426.18220023
 20
122.85369655
  0
VERTEX
  8
0
 10
423.89353248
 20
123.22330446
  0
VERTEX
  8
0
 10
421.32072324
 20
123.61907066
  0
VERTEX
  8
0
 10
415.46951017
 20
124.46950248
  0
VERTEX
  8
0
 10
408.92222075
 20
125.36584100
  0
VERTEX
  8
0
 10
401.97251472
 20
126.26893521
  0
VERTEX
  8
0
 10
394.91405179
 20
127.13963411
  0
VERTEX
  8
0
 10
388.04049172
 20
127.93878670
  0
VERTEX
  8
0
 10
384.76481891
 20
128.29929844
  0
VERTEX
  8
0
 10
381.64549422
 20
128.62724198
  0
VERTEX
  8
0
 10
355.01249641
 20
131.36704136
  0
VERTEX
  8
0
 10
345.53158088
 20
132.35856466
  0
VERTEX
  8
0
 10
338.05228774
 20
133.15816338
  0
VERTEX
  8
0
 10
332.15804210
 20
133.81108226
  0
VERTEX
  8
0
 10
327.43226906
 20
134.36256602
  0
VERTEX
  8
0
 10
323.45839373
 20
134.85785942
  0
VERTEX
  8
0
 10
319.81984122
 20
135.34220722
  0
VERTEX
  8
0
 10
314.95542133
 20
136.01032678
  0
VERTEX
  8
0
 10
313.01497548
 20
136.28586543
  0
VERTEX
  8
0
 10
311.38235634
 20
136.53127637
  0
VERTEX
  8
0
 10
310.04255190
 20
136.75322441
  0
VERTEX
  8
0
 10
308.98055014
 20
136.95837437
  0
VERTEX
  8
0
 10
308.18133905
 20
137.15339101
  0
VERTEX
  8
0
 10
307.87558875
 20
137.24918210
  0
VERTEX
  8
0
 10
307.62990661
 20
137.34493917
  0
VERTEX
  8
0
 10
307.44241614
 20
137.44149530
  0
VERTEX
  8
0
 10
307.31124082
 20
137.53968362
  0
VERTEX
  8
0
 10
307.23450416
 20
137.64033720
  0
VERTEX
  8
0
 10
307.21032965
 20
137.74428917
  0
VERTEX
  8
0
 10
307.23684080
 20
137.85237261
  0
VERTEX
  8
0
 10
307.31216110
 20
137.96542062
  0
VERTEX
  8
0
 10
307.43441405
 20
138.08426631
  0
VERTEX
  8
0
 10
307.60172315
 20
138.20974278
  0
VERTEX
  8
0
 10
308.06400379
 20
138.48392042
  0
VERTEX
  8
0
 10
308.68399099
 20
138.79461835
  0
VERTEX
  8
0
 10
310.33703707
 20
139.55223433
  0
VERTEX
  8
0
 10
311.47309008
 20
140.09370011
  0
VERTEX
  8
0
 10
312.62452159
 20
140.69188079
  0
VERTEX
  8
0
 10
313.78285692
 20
141.34022880
  0
VERTEX
  8
0
 10
314.93962141
 20
142.03219661
  0
VERTEX
  8
0
 10
316.08634038
 20
142.76123666
  0
VERTEX
  8
0
 10
317.21453917
 20
143.52080140
  0
VERTEX
  8
0
 10
318.31574310
 20
144.30434332
  0
VERTEX
  8
0
 10
319.38147751
 20
145.10531485
  0
VERTEX
  8
0
 10
320.40326771
 20
145.91716844
  0
VERTEX
  8
0
 10
321.37263904
 20
146.73335656
  0
VERTEX
  8
0
 10
322.28111684
 20
147.54733165
  0
VERTEX
  8
0
 10
323.12022642
 20
148.35254617
  0
VERTEX
  8
0
 10
323.88149312
 20
149.14245259
  0
VERTEX
  8
0
 10
324.55644226
 20
149.91050333
  0
VERTEX
  8
0
 10
325.13659918
 20
150.65015087
  0
VERTEX
  8
0
 10
325.38848223
 20
151.00727734
  0
VERTEX
  8
0
 10
325.61348921
 20
151.35484768
  0
VERTEX
  8
0
 10
326.06396201
 20
152.13517665
  0
VERTEX
  8
0
 10
326.46399951
 20
152.93196342
  0
VERTEX
  8
0
 10
326.81404013
 20
153.74383770
  0
VERTEX
  8
0
 10
327.11452228
 20
154.56942916
  0
VERTEX
  8
0
 10
327.36588438
 20
155.40736748
  0
VERTEX
  8
0
 10
327.56856486
 20
156.25628237
  0
VERTEX
  8
0
 10
327.72300213
 20
157.11480348
  0
VERTEX
  8
0
 10
327.82963460
 20
157.98156051
  0
VERTEX
  8
0
 10
327.88890071
 20
158.85518317
  0
VERTEX
  8
0
 10
327.90123887
 20
159.73430110
  0
VERTEX
  8
0
 10
327.86708750
 20
160.61754401
  0
VERTEX
  8
0
 10
327.78688501
 20
161.50354160
  0
VERTEX
  8
0
 10
327.66106984
 20
162.39092352
  0
VERTEX
  8
0
 10
327.49008039
 20
163.27831949
  0
VERTEX
  8
0
 10
327.27435508
 20
164.16435916
  0
VERTEX
  8
0
 10
327.01433234
 20
165.04767225
  0
VERTEX
  8
0
 10
326.71045058
 20
165.92688842
  0
VERTEX
  8
0
 10
326.36314823
 20
166.80063737
  0
VERTEX
  8
0
 10
325.97286370
 20
167.66754878
  0
VERTEX
  8
0
 10
325.54003541
 20
168.52625233
  0
VERTEX
  8
0
 10
325.06510178
 20
169.37537772
  0
VERTEX
  8
0
 10
324.54850123
 20
170.21355463
  0
VERTEX
  8
0
 10
323.99067218
 20
171.03941272
  0
VERTEX
  8
0
 10
323.39205305
 20
171.85158171
  0
VERTEX
  8
0
 10
322.75308225
 20
172.64869127
  0
VERTEX
  8
0
 10
322.07419822
 20
173.42937107
  0
VERTEX
  8
0
 10
321.35583935
 20
174.19225083
  0
VERTEX
  8
0
 10
320.59844409
 20
174.93596021
  0
VERTEX
  8
0
 10
319.80245084
 20
175.65912892
  0
VERTEX
  8
0
 10
318.96829802
 20
176.36038660
  0
VERTEX
  8
0
 10
318.09642405
 20
177.03836297
  0
VERTEX
  8
0
 10
317.18726736
 20
177.69168772
  0
VERTEX
  8
0
 10
316.27569967
 20
178.30325750
  0
VERTEX
  8
0
 10
315.38355854
 20
178.86435842
  0
VERTEX
  8
0
 10
314.50570780
 20
179.37655338
  0
VERTEX
  8
0
 10
313.63701132
 20
179.84140535
  0
VERTEX
  8
0
 10
312.77233292
 20
180.26047725
  0
VERTEX
  8
0
 10
311.90653646
 20
180.63533197
  0
VERTEX
  8
0
 10
311.03448578
 20
180.96753248
  0
VERTEX
  8
0
 10
310.15104474
 20
181.25864169
  0
VERTEX
  8
0
 10
309.25107716
 20
181.51022254
  0
VERTEX
  8
0
 10
308.32944691
 20
181.72383795
  0
VERTEX
  8
0
 10
307.38101782
 20
181.90105084
  0
VERTEX
  8
0
 10
306.40065374
 20
182.04342416
  0
VERTEX
  8
0
 10
305.38321851
 20
182.15252082
  0
VERTEX
  8
0
 10
304.32357599
 20
182.22990375
  0
VERTEX
  8
0
 10
303.21659002
 20
182.27713589
  0
VERTEX
  8
0
 10
302.05712444
 20
182.29578017
  0
VERTEX
  8
0
 10
300.84771754
 20
182.28579184
  0
VERTEX
  8
0
 10
299.70939028
 20
182.24394814
  0
VERTEX
  8
0
 10
298.63543503
 20
182.16778045
  0
VERTEX
  8
0
 10
297.61914418
 20
182.05482015
  0
VERTEX
  8
0
 10
296.65381011
 20
181.90259863
  0
VERTEX
  8
0
 10
295.73272520
 20
181.70864724
  0
VERTEX
  8
0
 10
294.84918183
 20
181.47049741
  0
VERTEX
  8
0
 10
293.99647238
 20
181.18568048
  0
VERTEX
  8
0
 10
293.16788925
 20
180.85172785
  0
VERTEX
  8
0
 10
292.35672480
 20
180.46617090
  0
VERTEX
  8
0
 10
291.55627143
 20
180.02654100
  0
VERTEX
  8
0
 10
290.75982151
 20
179.53036955
  0
VERTEX
  8
0
 10
289.96066742
 20
178.97518793
  0
VERTEX
  8
0
 10
289.15210156
 20
178.35852750
  0
VERTEX
  8
0
 10
288.32741629
 20
177.67791968
  0
VERTEX
  8
0
 10
287.47990401
 20
176.93089580
  0
VERTEX
  8
0
 10
284.32297861
 20
174.06763366
  0
VERTEX
  8
0
 10
284.58216786
 20
178.59594146
  0
VERTEX
  8
0
 10
284.64282845
 20
179.92772105
  0
VERTEX
  8
0
 10
284.65161532
 20
181.05042414
  0
VERTEX
  8
0
 10
284.63335379
 20
181.54926507
  0
VERTEX
  8
0
 10
284.59828105
 20
182.01490855
  0
VERTEX
  8
0
 10
284.54511618
 20
182.45371180
  0
VERTEX
  8
0
 10
284.47257823
 20
182.87203202
  0
VERTEX
  8
0
 10
284.37938629
 20
183.27622646
  0
VERTEX
  8
0
 10
284.26425944
 20
183.67265233
  0
VERTEX
  8
0
 10
284.12591673
 20
184.06766684
  0
VERTEX
  8
0
 10
283.96307725
 20
184.46762723
  0
VERTEX
  8
0
 10
283.77446006
 20
184.87889072
  0
VERTEX
  8
0
 10
283.55878425
 20
185.30781453
  0
VERTEX
  8
0
 10
283.04113301
 20
186.24407196
  0
VERTEX
  8
0
 10
282.72582029
 20
186.76987929
  0
VERTEX
  8
0
 10
282.39140235
 20
187.28794761
  0
VERTEX
  8
0
 10
282.03847199
 20
187.79788345
  0
VERTEX
  8
0
 10
281.66762203
 20
188.29929330
  0
VERTEX
  8
0
 10
281.27944527
 20
188.79178372
  0
VERTEX
  8
0
 10
280.87453451
 20
189.27496120
  0
VERTEX
  8
0
 10
280.45348256
 20
189.74843228
  0
VERTEX
  8
0
 10
280.01688222
 20
190.21180346
  0
VERTEX
  8
0
 10
279.56532629
 20
190.66468127
  0
VERTEX
  8
0
 10
279.09940758
 20
191.10667223
  0
VERTEX
  8
0
 10
278.61971890
 20
191.53738285
  0
VERTEX
  8
0
 10
278.12685305
 20
191.95641967
  0
VERTEX
  8
0
 10
277.62140283
 20
192.36338918
  0
VERTEX
  8
0
 10
277.10396105
 20
192.75789791
  0
VERTEX
  8
0
 10
276.57512051
 20
193.13955239
  0
VERTEX
  8
0
 10
276.03547402
 20
193.50795914
  0
VERTEX
  8
0
 10
275.48561439
 20
193.86272466
  0
VERTEX
  8
0
 10
274.92613441
 20
194.20345549
  0
VERTEX
  8
0
 10
274.35762689
 20
194.52975812
  0
VERTEX
  8
0
 10
273.78068463
 20
194.84123911
  0
VERTEX
  8
0
 10
273.19590045
 20
195.13750494
  0
VERTEX
  8
0
 10
272.60386714
 20
195.41816216
  0
VERTEX
  8
0
 10
272.00517751
 20
195.68281727
  0
VERTEX
  8
0
 10
271.40042436
 20
195.93107680
  0
VERTEX
  8
0
 10
270.79020051
 20
196.16254725
  0
VERTEX
  8
0
 10
270.17509874
 20
196.37683516
  0
VERTEX
  8
0
 10
269.55571188
 20
196.57354706
  0
VERTEX
  8
0
 10
268.93263271
 20
196.75228943
  0
VERTEX
  8
0
 10
268.30645405
 20
196.91266881
  0
VERTEX
  8
0
 10
267.67776871
 20
197.05429173
  0
VERTEX
  8
0
 10
267.04716947
 20
197.17676470
  0
VERTEX
  8
0
 10
266.41524916
 20
197.27969423
  0
VERTEX
  8
0
 10
265.86090876
 20
197.36999534
  0
VERTEX
  8
0
 10
265.32886827
 20
197.47335297
  0
VERTEX
  8
0
 10
264.83183685
 20
197.58613817
  0
VERTEX
  8
0
 10
264.38252366
 20
197.70472201
  0
VERTEX
  8
0
 10
263.99363785
 20
197.82547556
  0
VERTEX
  8
0
 10
263.67788857
 20
197.94476985
  0
VERTEX
  8
0
 10
263.44798498
 20
198.05897595
  0
VERTEX
  8
0
 10
263.31663623
 20
198.16446493
  0
VERTEX
  8
0
 10
263.29288459
 20
198.23702414
  0
VERTEX
  8
0
 10
263.29862569
 20
198.35308648
  0
VERTEX
  8
0
 10
263.33260117
 20
198.51011004
  0
VERTEX
  8
0
 10
263.39355266
 20
198.70555294
  0
VERTEX
  8
0
 10
263.59135018
 20
199.20152933
  0
VERTEX
  8
0
 10
263.88195132
 20
199.82068060
  0
VERTEX
  8
0
 10
264.25528913
 20
200.54267175
  0
VERTEX
  8
0
 10
264.70129667
 20
201.34716777
  0
VERTEX
  8
0
 10
265.20990698
 20
202.21383365
  0
VERTEX
  8
0
 10
265.77105314
 20
203.12233438
  0
VERTEX
  8
0
 10
266.72557498
 20
204.68227343
  0
VERTEX
  8
0
 10
267.61356682
 20
206.24046264
  0
VERTEX
  8
0
 10
268.43508466
 20
207.79578295
  0
VERTEX
  8
0
 10
269.19018446
 20
209.34711539
  0
VERTEX
  8
0
 10
269.87892224
 20
210.89334090
  0
VERTEX
  8
0
 10
270.50135397
 20
212.43334048
  0
VERTEX
  8
0
 10
271.05753565
 20
213.96599512
  0
VERTEX
  8
0
 10
271.31080021
 20
214.72921837
  0
VERTEX
  8
0
 10
271.54752326
 20
215.49018576
  0
VERTEX
  8
0
 10
271.76771179
 20
216.24875740
  0
VERTEX
  8
0
 10
271.97137279
 20
217.00479341
  0
VERTEX
  8
0
 10
272.15851328
 20
217.75815392
  0
VERTEX
  8
0
 10
272.32914024
 20
218.50869905
  0
VERTEX
  8
0
 10
272.48326068
 20
219.25628891
  0
VERTEX
  8
0
 10
272.62088159
 20
220.00078364
  0
VERTEX
  8
0
 10
272.74200998
 20
220.74204336
  0
VERTEX
  8
0
 10
272.84665283
 20
221.47992819
  0
VERTEX
  8
0
 10
272.93481716
 20
222.21429825
  0
VERTEX
  8
0
 10
273.00650996
 20
222.94501365
  0
VERTEX
  8
0
 10
273.06173822
 20
223.67193453
  0
VERTEX
  8
0
 10
273.10050895
 20
224.39492101
  0
VERTEX
  8
0
 10
273.12282914
 20
225.11383322
  0
VERTEX
  8
0
 10
273.12870580
 20
225.82853125
  0
VERTEX
  8
0
 10
273.11814592
 20
226.53887525
  0
VERTEX
  8
0
 10
273.09115650
 20
227.24472535
  0
VERTEX
  8
0
 10
273.04774454
 20
227.94594165
  0
VERTEX
  8
0
 10
272.98791704
 20
228.64238430
  0
VERTEX
  8
0
 10
272.91168100
 20
229.33391338
  0
VERTEX
  8
0
 10
272.81904341
 20
230.02038904
  0
VERTEX
  8
0
 10
272.71001127
 20
230.70167141
  0
VERTEX
  8
0
 10
272.58459159
 20
231.37762061
  0
VERTEX
  8
0
 10
272.44279136
 20
232.04809674
  0
VERTEX
  8
0
 10
272.28461757
 20
232.71295993
  0
VERTEX
  8
0
 10
272.11007724
 20
233.37207031
  0
VERTEX
  8
0
 10
271.91917736
 20
234.02528801
  0
VERTEX
  8
0
 10
271.71192492
 20
234.67247315
  0
VERTEX
  8
0
 10
271.48832692
 20
235.31348583
  0
VERTEX
  8
0
 10
271.24839037
 20
235.94818620
  0
VERTEX
  8
0
 10
270.99212226
 20
236.57643438
  0
VERTEX
  8
0
 10
270.71952959
 20
237.19809047
  0
VERTEX
  8
0
 10
270.43061936
 20
237.81301460
  0
VERTEX
  8
0
 10
270.12539857
 20
238.42106691
  0
VERTEX
  8
0
 10
269.80387422
 20
239.02210751
  0
VERTEX
  8
0
 10
269.46605330
 20
239.61599652
  0
VERTEX
  8
0
 10
269.11194281
 20
240.20259407
  0
VERTEX
  8
0
 10
268.74154976
 20
240.78176028
  0
VERTEX
  8
0
 10
268.35488114
 20
241.35335527
  0
VERTEX
  8
0
 10
267.95194394
 20
241.91723916
  0
VERTEX
  8
0
 10
267.53274518
 20
242.47327206
  0
VERTEX
  8
0
 10
267.09729184
 20
243.02131412
  0
VERTEX
  8
0
 10
266.64559093
 20
243.56122546
  0
VERTEX
  8
0
 10
266.17764945
 20
244.09286618
  0
VERTEX
  8
0
 10
265.69347439
 20
244.61609642
  0
VERTEX
  8
0
 10
265.19307274
 20
245.13077630
  0
VERTEX
  8
0
 10
264.67645152
 20
245.63676593
  0
VERTEX
  8
0
 10
264.14361772
 20
246.13392546
  0
VERTEX
  8
0
 10
263.59457834
 20
246.62211499
  0
VERTEX
  8
0
 10
262.98053347
 20
247.14261771
  0
VERTEX
  8
0
 10
262.35716769
 20
247.64606379
  0
VERTEX
  8
0
 10
261.72437249
 20
248.13248987
  0
VERTEX
  8
0
 10
261.08203936
 20
248.60193257
  0
VERTEX
  8
0
 10
260.43005977
 20
249.05442855
  0
VERTEX
  8
0
 10
259.76832523
 20
249.49001445
  0
VERTEX
  8
0
 10
259.09672720
 20
249.90872691
  0
VERTEX
  8
0
 10
258.41515719
 20
250.31060257
  0
VERTEX
  8
0
 10
257.72350667
 20
250.69567807
  0
VERTEX
  8
0
 10
257.02166714
 20
251.06399005
  0
VERTEX
  8
0
 10
256.30953008
 20
251.41557516
  0
VERTEX
  8
0
 10
255.58698697
 20
251.75047002
  0
VERTEX
  8
0
 10
254.85392930
 20
252.06871129
  0
VERTEX
  8
0
 10
254.11024856
 20
252.37033560
  0
VERTEX
  8
0
 10
253.35583624
 20
252.65537961
  0
VERTEX
  8
0
 10
252.59058382
 20
252.92387995
  0
VERTEX
  8
0
 10
251.81438279
 20
253.17587324
  0
VERTEX
  8
0
 10
251.02712463
 20
253.41139615
  0
VERTEX
  8
0
 10
250.22870083
 20
253.63048533
  0
VERTEX
  8
0
 10
249.41900288
 20
253.83317737
  0
VERTEX
  8
0
 10
248.59792226
 20
254.01950898
  0
VERTEX
  8
0
 10
247.76535047
 20
254.18951673
  0
VERTEX
  8
0
 10
246.92117897
 20
254.34323732
  0
VERTEX
  8
0
 10
246.06529928
 20
254.48070735
  0
VERTEX
  8
0
 10
245.19760286
 20
254.60196350
  0
VERTEX
  8
0
 10
244.31798121
 20
254.70704237
  0
VERTEX
  8
0
 10
243.42632581
 20
254.79598063
  0
VERTEX
  8
0
 10
242.52252814
 20
254.86881491
  0
VERTEX
  8
0
 10
241.60647971
 20
254.92558186
  0
VERTEX
  8
0
 10
240.67807198
 20
254.96631811
  0
VERTEX
  8
0
 10
239.73719646
 20
254.99106030
  0
VERTEX
  8
0
 10
238.78374461
 20
254.99984509
  0
VERTEX
  8
0
 10
237.58764951
 20
254.98695545
  0
VERTEX
  8
0
 10
236.40861240
 20
254.94636356
  0
VERTEX
  8
0
 10
235.24704680
 20
254.87826572
  0
VERTEX
  8
0
 10
234.10336622
 20
254.78285819
  0
VERTEX
  8
0
 10
232.97798416
 20
254.66033728
  0
VERTEX
  8
0
 10
231.87131412
 20
254.51089930
  0
VERTEX
  8
0
 10
230.78376962
 20
254.33474050
  0
VERTEX
  8
0
 10
229.71576416
 20
254.13205719
  0
VERTEX
  8
0
 10
228.66771125
 20
253.90304569
  0
VERTEX
  8
0
 10
227.64002439
 20
253.64790224
  0
VERTEX
  8
0
 10
226.63311710
 20
253.36682315
  0
VERTEX
  8
0
 10
225.64740287
 20
253.06000473
  0
VERTEX
  8
0
 10
224.68329522
 20
252.72764325
  0
VERTEX
  8
0
 10
223.74120765
 20
252.36993501
  0
VERTEX
  8
0
 10
222.82155366
 20
251.98707630
  0
VERTEX
  8
0
 10
221.92474678
 20
251.57926341
  0
VERTEX
  8
0
 10
221.05120049
 20
251.14669262
  0
VERTEX
  8
0
 10
220.20132831
 20
250.68956023
  0
VERTEX
  8
0
 10
219.37554375
 20
250.20806254
  0
VERTEX
  8
0
 10
218.57426031
 20
249.70239584
  0
VERTEX
  8
0
 10
217.79789150
 20
249.17275640
  0
VERTEX
  8
0
 10
217.04685082
 20
248.61934055
  0
VERTEX
  8
0
 10
216.32155179
 20
248.04234453
  0
VERTEX
  8
0
 10
215.62240791
 20
247.44196467
  0
VERTEX
  8
0
 10
214.94983268
 20
246.81839724
  0
VERTEX
  8
0
 10
214.30423961
 20
246.17183854
  0
VERTEX
  8
0
 10
213.68604221
 20
245.50248486
  0
VERTEX
  8
0
 10
213.09565399
 20
244.81053250
  0
VERTEX
  8
0
 10
212.53348846
 20
244.09617773
  0
VERTEX
  8
0
 10
211.99995911
 20
243.35961686
  0
VERTEX
  8
0
 10
211.49547946
 20
242.60104617
  0
VERTEX
  8
0
 10
211.02046301
 20
241.82066197
  0
VERTEX
  8
0
 10
210.47650541
 20
240.84148124
  0
VERTEX
  8
0
 10
210.24778564
 20
240.38615529
  0
VERTEX
  8
0
 10
210.04574872
 20
239.94353042
  0
VERTEX
  8
0
 10
209.86877727
 20
239.50600018
  0
VERTEX
  8
0
 10
209.71525389
 20
239.06595820
  0
VERTEX
  8
0
 10
209.58356122
 20
238.61579802
  0
VERTEX
  8
0
 10
209.47208185
 20
238.14791328
  0
VERTEX
  8
0
 10
209.37919842
 20
237.65469750
  0
VERTEX
  8
0
 10
209.30329353
 20
237.12854433
  0
VERTEX
  8
0
 10
209.24274980
 20
236.56184731
  0
VERTEX
  8
0
 10
209.19594986
 20
235.94700004
  0
VERTEX
  8
0
 10
209.13711177
 20
234.54242913
  0
VERTEX
  8
0
 10
209.11384020
 20
232.85398027
  0
VERTEX
  8
0
 10
209.12314586
 20
231.37942350
  0
VERTEX
  8
0
 10
209.16923850
 20
230.06118950
  0
VERTEX
  8
0
 10
209.25462250
 20
228.88245490
  0
VERTEX
  8
0
 10
209.38180226
 20
227.82639638
  0
VERTEX
  8
0
 10
209.46184816
 20
227.33911335
  0
VERTEX
  8
0
 10
209.55328214
 20
226.87619061
  0
VERTEX
  8
0
 10
209.65641725
 20
226.43552521
  0
VERTEX
  8
0
 10
209.77156654
 20
226.01501425
  0
VERTEX
  8
0
 10
209.89904305
 20
225.61255482
  0
VERTEX
  8
0
 10
210.03915983
 20
225.22604397
  0
VERTEX
  8
0
 10
210.19222993
 20
224.85337882
  0
VERTEX
  8
0
 10
210.35856639
 20
224.49245644
  0
VERTEX
  8
0
 10
210.70603207
 20
223.83174156
  0
VERTEX
  8
0
 10
211.08892964
 20
223.20211028
  0
VERTEX
  8
0
 10
211.50476850
 20
222.60405957
  0
VERTEX
  8
0
 10
211.95105808
 20
222.03808642
  0
VERTEX
  8
0
 10
212.42530779
 20
221.50468777
  0
VERTEX
  8
0
 10
212.92502705
 20
221.00436063
  0
VERTEX
  8
0
 10
213.44772529
 20
220.53760192
  0
VERTEX
  8
0
 10
213.99091191
 20
220.10490864
  0
VERTEX
  8
0
 10
214.55209635
 20
219.70677777
  0
VERTEX
  8
0
 10
215.12878800
 20
219.34370625
  0
VERTEX
  8
0
 10
215.71849631
 20
219.01619106
  0
VERTEX
  8
0
 10
216.31873067
 20
218.72472919
  0
VERTEX
  8
0
 10
216.92700051
 20
218.46981756
  0
VERTEX
  8
0
 10
217.54081526
 20
218.25195320
  0
VERTEX
  8
0
 10
218.15768432
 20
218.07163302
  0
VERTEX
  8
0
 10
218.77511711
 20
217.92935403
  0
VERTEX
  8
0
 10
219.39062306
 20
217.82561319
  0
VERTEX
  8
0
 10
220.00171158
 20
217.76090746
  0
VERTEX
  8
0
 10
220.60589209
 20
217.73573382
  0
VERTEX
  8
0
 10
221.20067401
 20
217.75058924
  0
VERTEX
  8
0
 10
221.78356676
 20
217.80597066
  0
VERTEX
  8
0
 10
222.35207975
 20
217.90237510
  0
VERTEX
  8
0
 10
222.90372240
 20
218.04029947
  0
VERTEX
  8
0
 10
223.43600414
 20
218.22024080
  0
VERTEX
  8
0
 10
223.94643437
 20
218.44269602
  0
VERTEX
  8
0
 10
224.43252252
 20
218.70816210
  0
VERTEX
  8
0
 10
224.89177801
 20
219.01713602
  0
VERTEX
  8
0
 10
225.32171025
 20
219.37011475
  0
VERTEX
  8
0
 10
225.71982867
 20
219.76759526
  0
VERTEX
  8
0
 10
226.08364267
 20
220.21007451
  0
VERTEX
  8
0
 10
226.41066169
 20
220.69804948
  0
VERTEX
  8
0
 10
226.69839513
 20
221.23201713
  0
VERTEX
  8
0
 10
227.03029606
 20
221.94180971
  0
VERTEX
  8
0
 10
227.15340520
 20
222.23902726
  0
VERTEX
  8
0
 10
227.24444393
 20
222.50664765
  0
VERTEX
  8
0
 10
227.30078011
 20
222.75131243
  0
VERTEX
  8
0
 10
227.31978161
 20
222.97966311
  0
VERTEX
  8
0
 10
227.29881627
 20
223.19834121
  0
VERTEX
  8
0
 10
227.23525196
 20
223.41398823
  0
VERTEX
  8
0
 10
227.12645653
 20
223.63324572
  0
VERTEX
  8
0
 10
226.96979784
 20
223.86275517
  0
VERTEX
  8
0
 10
226.76264375
 20
224.10915811
  0
VERTEX
  8
0
 10
226.50236213
 20
224.37909608
  0
VERTEX
  8
0
 10
225.81188767
 20
225.01614309
  0
VERTEX
  8
0
 10
224.87731734
 20
225.82702835
  0
VERTEX
  8
0
 10
224.26298062
 20
226.38271194
  0
VERTEX
  8
0
 10
223.69416295
 20
226.95206494
  0
VERTEX
  8
0
 10
223.17071080
 20
227.53379532
  0
VERTEX
  8
0
 10
222.69247064
 20
228.12661115
  0
VERTEX
  8
0
 10
222.25928895
 20
228.72922043
  0
VERTEX
  8
0
 10
221.87101221
 20
229.34033119
  0
VERTEX
  8
0
 10
221.52748689
 20
229.95865142
  0
VERTEX
  8
0
 10
221.22855946
 20
230.58288917
  0
VERTEX
  8
0
 10
220.97407641
 20
231.21175246
  0
VERTEX
  8
0
 10
220.76388420
 20
231.84394928
  0
VERTEX
  8
0
 10
220.59782931
 20
232.47818767
  0
VERTEX
  8
0
 10
220.47575821
 20
233.11317563
  0
VERTEX
  8
0
 10
220.39751738
 20
233.74762121
  0
VERTEX
  8
0
 10
220.36295330
 20
234.38023242
  0
VERTEX
  8
0
 10
220.37191244
 20
235.00971727
  0
VERTEX
  8
0
 10
220.42424127
 20
235.63478379
  0
VERTEX
  8
0
 10
220.51978627
 20
236.25413997
  0
VERTEX
  8
0
 10
220.65839391
 20
236.86649387
  0
VERTEX
  8
0
 10
220.83991068
 20
237.47055347
  0
VERTEX
  8
0
 10
221.06418303
 20
238.06502682
  0
VERTEX
  8
0
 10
221.33105746
 20
238.64862193
  0
VERTEX
  8
0
 10
221.64038043
 20
239.22004683
  0
VERTEX
  8
0
 10
221.99199842
 20
239.77800951
  0
VERTEX
  8
0
 10
222.38575790
 20
240.32121800
  0
VERTEX
  8
0
 10
222.82150534
 20
240.84838035
  0
VERTEX
  8
0
 10
223.29908724
 20
241.35820453
  0
VERTEX
  8
0
 10
223.81835005
 20
241.84939859
  0
VERTEX
  8
0
 10
224.37914025
 20
242.32067055
  0
VERTEX
  8
0
 10
224.98130432
 20
242.77072842
  0
VERTEX
  8
0
 10
225.62468873
 20
243.19828021
  0
VERTEX
  8
0
 10
226.30913996
 20
243.60203396
  0
VERTEX
  8
0
 10
227.03450448
 20
243.98069769
  0
VERTEX
  8
0
 10
227.71166581
 20
244.28646345
  0
VERTEX
  8
0
 10
228.47793719
 20
244.58582912
  0
VERTEX
  8
0
 10
229.32094340
 20
244.87642385
  0
VERTEX
  8
0
 10
230.22830922
 20
245.15587687
  0
VERTEX
  8
0
 10
231.18765941
 20
245.42181733
  0
VERTEX
  8
0
 10
232.18661878
 20
245.67187444
  0
VERTEX
  8
0
 10
233.21281208
 20
245.90367737
  0
VERTEX
  8
0
 10
234.25386410
 20
246.11485532
  0
VERTEX
  8
0
 10
235.29739962
 20
246.30303745
  0
VERTEX
  8
0
 10
236.33104341
 20
246.46585298
  0
VERTEX
  8
0
 10
237.34242026
 20
246.60093108
  0
VERTEX
  8
0
 10
238.31915494
 20
246.70590093
  0
VERTEX
  8
0
 10
239.24887223
 20
246.77839173
  0
VERTEX
  8
0
 10
240.11919691
 20
246.81603265
  0
VERTEX
  8
0
 10
240.91775375
 20
246.81645288
  0
VERTEX
  8
0
 10
241.63216755
 20
246.77728161
  0
VERTEX
  8
0
 10
242.45836858
 20
246.68833565
  0
VERTEX
  8
0
 10
243.26948762
 20
246.57081779
  0
VERTEX
  8
0
 10
244.06515276
 20
246.42506194
  0
VERTEX
  8
0
 10
244.84499206
 20
246.25140196
  0
VERTEX
  8
0
 10
245.60863361
 20
246.05017170
  0
VERTEX
  8
0
 10
246.35570548
 20
245.82170504
  0
VERTEX
  8
0
 10
247.08583574
 20
245.56633584
  0
VERTEX
  8
0
 10
247.79865249
 20
245.28439796
  0
VERTEX
  8
0
 10
248.49378378
 20
244.97622529
  0
VERTEX
  8
0
 10
249.17085770
 20
244.64215167
  0
VERTEX
  8
0
 10
249.82950233
 20
244.28251096
  0
VERTEX
  8
0
 10
250.46934574
 20
243.89763706
  0
VERTEX
  8
0
 10
251.09001600
 20
243.48786381
  0
VERTEX
  8
0
 10
251.69114121
 20
243.05352510
  0
VERTEX
  8
0
 10
252.27234943
 20
242.59495476
  0
VERTEX
  8
0
 10
252.83326873
 20
242.11248668
  0
VERTEX
  8
0
 10
253.37352720
 20
241.60645474
  0
VERTEX
  8
0
 10
253.89275292
 20
241.07719277
  0
VERTEX
  8
0
 10
254.39057395
 20
240.52503466
  0
VERTEX
  8
0
 10
254.86661839
 20
239.95031428
  0
VERTEX
  8
0
 10
255.32051429
 20
239.35336548
  0
VERTEX
  8
0
 10
255.75188975
 20
238.73452214
  0
VERTEX
  8
0
 10
256.16037283
 20
238.09411811
  0
VERTEX
  8
0
 10
256.54559162
 20
237.43248728
  0
VERTEX
  8
0
 10
256.90717418
 20
236.74996349
  0
VERTEX
  8
0
 10
257.24474861
 20
236.04688063
  0
VERTEX
  8
0
 10
257.55794297
 20
235.32357256
  0
VERTEX
  8
0
 10
257.84638534
 20
234.58037312
  0
VERTEX
  8
0
 10
258.10970380
 20
233.81761621
  0
VERTEX
  8
0
 10
258.34752642
 20
233.03563570
  0
VERTEX
  8
0
 10
258.55948129
 20
232.23476541
  0
VERTEX
  8
0
 10
258.74519648
 20
231.41533925
  0
VERTEX
  8
0
 10
258.88321652
 20
230.67921697
  0
VERTEX
  8
0
 10
258.99326572
 20
229.93176567
  0
VERTEX
  8
0
 10
259.07541552
 20
229.17320581
  0
VERTEX
  8
0
 10
259.12973741
 20
228.40375785
  0
VERTEX
  8
0
 10
259.15630284
 20
227.62364230
  0
VERTEX
  8
0
 10
259.15518327
 20
226.83307959
  0
VERTEX
  8
0
 10
259.12645016
 20
226.03229020
  0
VERTEX
  8
0
 10
259.07017499
 20
225.22149461
  0
VERTEX
  8
0
 10
258.98642921
 20
224.40091328
  0
VERTEX
  8
0
 10
258.87528429
 20
223.57076669
  0
VERTEX
  8
0
 10
258.73681170
 20
222.73127529
  0
VERTEX
  8
0
 10
258.57108288
 20
221.88265956
  0
VERTEX
  8
0
 10
258.37816932
 20
221.02513998
  0
VERTEX
  8
0
 10
258.15814246
 20
220.15893699
  0
VERTEX
  8
0
 10
257.91107379
 20
219.28427110
  0
VERTEX
  8
0
 10
257.63703475
 20
218.40136273
  0
VERTEX
  8
0
 10
257.33609681
 20
217.51043238
  0
VERTEX
  8
0
 10
257.00833144
 20
216.61170053
  0
VERTEX
  8
0
 10
256.65381010
 20
215.70538762
  0
VERTEX
  8
0
 10
256.27260425
 20
214.79171414
  0
VERTEX
  8
0
 10
255.86478536
 20
213.87090055
  0
VERTEX
  8
0
 10
255.43042488
 20
212.94316732
  0
VERTEX
  8
0
 10
254.96959429
 20
212.00873493
  0
VERTEX
  8
0
 10
254.48236505
 20
211.06782383
  0
VERTEX
  8
0
 10
253.96880862
 20
210.12065450
  0
VERTEX
  8
0
 10
253.42899646
 20
209.16744739
  0
VERTEX
  8
0
 10
252.86300004
 20
208.20842301
  0
VERTEX
  8
0
 10
252.27089082
 20
207.24380180
  0
VERTEX
  8
0
 10
251.65274026
 20
206.27380424
  0
VERTEX
  8
0
 10
251.00861983
 20
205.29865079
  0
VERTEX
  8
0
 10
250.33860099
 20
204.31856191
  0
VERTEX
  8
0
 10
249.64275520
 20
203.33375810
  0
VERTEX
  8
0
 10
248.33994213
 20
201.49119565
  0
VERTEX
  8
0
 10
247.12104109
 20
199.70570760
  0
VERTEX
  8
0
 10
245.96282709
 20
197.93948474
  0
VERTEX
  8
0
 10
244.84207513
 20
196.15471785
  0
VERTEX
  8
0
 10
243.73556022
 20
194.31359772
  0
VERTEX
  8
0
 10
242.62005737
 20
192.37831516
  0
VERTEX
  8
0
 10
241.47234158
 20
190.31106091
  0
VERTEX
  8
0
 10
240.26918786
 20
188.07402579
  0
VERTEX
  8
0
 10
239.87677516
 20
187.37627365
  0
VERTEX
  8
0
 10
239.68629930
 20
187.07998854
  0
VERTEX
  8
0
 10
239.49239463
 20
186.81433877
  0
VERTEX
  8
0
 10
239.28962429
 20
186.57600533
  0
VERTEX
  8
0
 10
239.07255143
 20
186.36166922
  0
VERTEX
  8
0
 10
238.83573918
 20
186.16801144
  0
VERTEX
  8
0
 10
238.57375070
 20
185.99171300
  0
VERTEX
  8
0
 10
238.28114913
 20
185.82945487
  0
VERTEX
  8
0
 10
237.95249761
 20
185.67791810
  0
VERTEX
  8
0
 10
237.58235929
 20
185.53378365
  0
VERTEX
  8
0
 10
237.16529731
 20
185.39373256
  0
VERTEX
  8
0
 10
236.16865495
 20
185.11260440
  0
VERTEX
  8
0
 10
234.91907568
 20
184.80798163
  0
VERTEX
  8
0
 10
233.98760457
 20
184.56815813
  0
VERTEX
  8
0
 10
233.06862814
 20
184.28816846
  0
VERTEX
  8
0
 10
232.16525533
 20
183.97002054
  0
VERTEX
  8
0
 10
231.28059503
 20
183.61572225
  0
VERTEX
  8
0
 10
230.41775617
 20
183.22728150
  0
VERTEX
  8
0
 10
229.57984765
 20
182.80670617
  0
VERTEX
  8
0
 10
228.76997839
 20
182.35600418
  0
VERTEX
  8
0
 10
227.99125730
 20
181.87718341
  0
VERTEX
  8
0
 10
227.24679329
 20
181.37225176
  0
VERTEX
  8
0
 10
226.53969528
 20
180.84321714
  0
VERTEX
  8
0
 10
225.87307218
 20
180.29208744
  0
VERTEX
  8
0
 10
225.25003289
 20
179.72087055
  0
VERTEX
  8
0
 10
224.67368634
 20
179.13157440
  0
VERTEX
  8
0
 10
224.14714144
 20
178.52620683
  0
VERTEX
  8
0
 10
223.67350710
 20
177.90677579
  0
VERTEX
  8
0
 10
223.25589223
 20
177.27528917
  0
VERTEX
  8
0
 10
222.96513963
 20
176.75253175
  0
VERTEX
  8
0
 10
222.70414864
 20
176.18956235
  0
VERTEX
  8
0
 10
222.47341138
 20
175.59238777
  0
VERTEX
  8
0
 10
222.27342002
 20
174.96701483
  0
VERTEX
  8
0
 10
222.10466671
 20
174.31945034
  0
VERTEX
  8
0
 10
221.96764359
 20
173.65570108
  0
VERTEX
  8
0
 10
221.86284282
 20
172.98177390
  0
VERTEX
  8
0
 10
221.79075656
 20
172.30367558
  0
VERTEX
  8
0
 10
221.75187694
 20
171.62741294
  0
VERTEX
  8
0
 10
221.74669614
 20
170.95899277
  0
VERTEX
  8
0
 10
221.77570628
 20
170.30442191
  0
VERTEX
  8
0
 10
221.83939954
 20
169.66970716
  0
VERTEX
  8
0
 10
221.93826805
 20
169.06085530
  0
VERTEX
  8
0
 10
222.07280397
 20
168.48387318
  0
VERTEX
  8
0
 10
222.24349946
 20
167.94476758
  0
VERTEX
  8
0
 10
222.45084666
 20
167.44954533
  0
VERTEX
  8
0
 10
222.62070863
 20
167.07399784
  0
VERTEX
  8
0
 10
222.74200308
 20
166.75883075
  0
VERTEX
  8
0
 10
222.81578342
 20
166.50362516
  0
VERTEX
  8
0
 10
222.84310307
 20
166.30796214
  0
VERTEX
  8
0
 10
222.82501546
 20
166.17142278
  0
VERTEX
  8
0
 10
222.79927311
 20
166.12519355
  0
VERTEX
  8
0
 10
222.76257399
 20
166.09358815
  0
VERTEX
  8
0
 10
222.71504975
 20
166.07655421
  0
VERTEX
  8
0
 10
222.65683209
 20
166.07403936
  0
VERTEX
  8
0
 10
222.50884319
 20
166.11235745
  0
VERTEX
  8
0
 10
222.31966069
 20
166.20812355
  0
VERTEX
  8
0
 10
222.09033803
 20
166.36091872
  0
VERTEX
  8
0
 10
221.82192861
 20
166.57032402
  0
VERTEX
  8
0
 10
221.51548587
 20
166.83592057
  0
VERTEX
  8
0
 10
220.79271408
 20
167.53401170
  0
VERTEX
  8
0
 10
219.93045001
 20
168.45184076
  0
VERTEX
  8
0
 10
219.34903956
 20
169.05677867
  0
VERTEX
  8
0
 10
218.73730405
 20
169.62163501
  0
VERTEX
  8
0
 10
218.09688154
 20
170.14643517
  0
VERTEX
  8
0
 10
217.42941007
 20
170.63120462
  0
VERTEX
  8
0
 10
216.73652772
 20
171.07596881
  0
VERTEX
  8
0
 10
216.01987252
 20
171.48075312
  0
VERTEX
  8
0
 10
215.28108254
 20
171.84558304
  0
VERTEX
  8
0
 10
214.52179584
 20
172.17048398
  0
VERTEX
  8
0
 10
213.74365047
 20
172.45548137
  0
VERTEX
  8
0
 10
212.94828449
 20
172.70060067
  0
VERTEX
  8
0
 10
212.13733594
 20
172.90586729
  0
VERTEX
  8
0
 10
211.31244290
 20
173.07130667
  0
VERTEX
  8
0
 10
210.47524341
 20
173.19694426
  0
VERTEX
  8
0
 10
209.62737553
 20
173.28280549
  0
VERTEX
  8
0
 10
208.77047732
 20
173.32891580
  0
VERTEX
  8
0
 10
207.90618684
 20
173.33530059
  0
VERTEX
  8
0
 10
207.03614213
 20
173.30198534
  0
VERTEX
  8
0
 10
206.16198125
 20
173.22899547
  0
VERTEX
  8
0
 10
205.28534227
 20
173.11635641
  0
VERTEX
  8
0
 10
204.40786323
 20
172.96409360
  0
VERTEX
  8
0
 10
203.53118220
 20
172.77223248
  0
VERTEX
  8
0
 10
202.65693723
 20
172.54079847
  0
VERTEX
  8
0
 10
201.78676637
 20
172.26981702
  0
VERTEX
  8
0
 10
200.92230768
 20
171.95931357
  0
VERTEX
  8
0
 10
200.06519922
 20
171.60931354
  0
VERTEX
  8
0
 10
199.21707904
 20
171.21984237
  0
VERTEX
  8
0
 10
198.37958520
 20
170.79092550
  0
VERTEX
  8
0
 10
197.55435576
 20
170.32258837
  0
VERTEX
  8
0
 10
196.74302876
 20
169.81485639
  0
VERTEX
  8
0
 10
195.94724228
 20
169.26775502
  0
VERTEX
  8
0
 10
195.16863436
 20
168.68130969
  0
VERTEX
  8
0
 10
194.40884305
 20
168.05554584
  0
VERTEX
  8
0
 10
193.93033928
 20
167.62616771
  0
VERTEX
  8
0
 10
193.46937790
 20
167.17747914
  0
VERTEX
  8
0
 10
193.02630307
 20
166.71069403
  0
VERTEX
  8
0
 10
192.60145896
 20
166.22702630
  0
VERTEX
  8
0
 10
192.19518973
 20
165.72768983
  0
VERTEX
  8
0
 10
191.80783953
 20
165.21389850
  0
VERTEX
  8
0
 10
191.43975254
 20
164.68686624
  0
VERTEX
  8
0
 10
191.09127291
 20
164.14780695
  0
VERTEX
  8
0
 10
190.76274481
 20
163.59793451
  0
VERTEX
  8
0
 10
190.45451240
 20
163.03846283
  0
VERTEX
  8
0
 10
190.16691983
 20
162.47060582
  0
VERTEX
  8
0
 10
189.90031129
 20
161.89557736
  0
VERTEX
  8
0
 10
189.65503091
 20
161.31459136
  0
VERTEX
  8
0
 10
189.43142288
 20
160.72886170
  0
VERTEX
  8
0
 10
189.22983135
 20
160.13960230
  0
VERTEX
  8
0
 10
189.05060048
 20
159.54802706
  0
VERTEX
  8
0
 10
188.89407443
 20
158.95534988
  0
VERTEX
  8
0
 10
188.76059737
 20
158.36278464
  0
VERTEX
  8
0
 10
188.65051346
 20
157.77154525
  0
VERTEX
  8
0
 10
188.56416687
 20
157.18284561
  0
VERTEX
  8
0
 10
188.50190175
 20
156.59789963
  0
VERTEX
  8
0
 10
188.46406226
 20
156.01792119
  0
VERTEX
  8
0
 10
188.45099258
 20
155.44412420
  0
VERTEX
  8
0
 10
188.46303685
 20
154.87772257
  0
VERTEX
  8
0
 10
188.50053925
 20
154.31993018
  0
VERTEX
  8
0
 10
188.56384393
 20
153.77196093
  0
VERTEX
  8
0
 10
188.65329507
 20
153.23502872
  0
VERTEX
  8
0
 10
188.76923681
 20
152.71034746
  0
VERTEX
  8
0
 10
188.91201333
 20
152.19913105
  0
VERTEX
  8
0
 10
189.08196878
 20
151.70259339
  0
VERTEX
  8
0
 10
189.27944733
 20
151.22194835
  0
VERTEX
  8
0
 10
189.50479314
 20
150.75840986
  0
VERTEX
  8
0
 10
189.81024684
 20
150.24683892
  0
VERTEX
  8
0
 10
190.20759134
 20
149.69204651
  0
VERTEX
  8
0
 10
190.68885020
 20
149.10073475
  0
VERTEX
  8
0
 10
191.24604699
 20
148.47960574
  0
VERTEX
  8
0
 10
191.87120529
 20
147.83536161
  0
VERTEX
  8
0
 10
192.55634868
 20
147.17470446
  0
VERTEX
  8
0
 10
193.29350073
 20
146.50433642
  0
VERTEX
  8
0
 10
194.07468501
 20
145.83095958
  0
VERTEX
  8
0
 10
194.89192510
 20
145.16127607
  0
VERTEX
  8
0
 10
195.73724458
 20
144.50198800
  0
VERTEX
  8
0
 10
196.60266700
 20
143.85979749
  0
VERTEX
  8
0
 10
197.48021596
 20
143.24140664
  0
VERTEX
  8
0
 10
198.36191503
 20
142.65351756
  0
VERTEX
  8
0
 10
199.23978777
 20
142.10283239
  0
VERTEX
  8
0
 10
200.10585777
 20
141.59605321
  0
VERTEX
  8
0
 10
200.95214859
 20
141.13988215
  0
VERTEX
  8
0
 10
204.50200522
 20
139.31487538
  0
VERTEX
  8
0
 10
195.93976205
 20
138.05199594
  0
VERTEX
  8
0
 10
193.71401753
 20
137.73755453
  0
VERTEX
  8
0
 10
190.98312319
 20
137.37491087
  0
VERTEX
  8
0
 10
184.24189280
 20
136.53154175
  0
VERTEX
  8
0
 10
176.18808637
 20
135.57493872
  0
VERTEX
  8
0
 10
167.29371939
 20
134.55815186
  0
VERTEX
  8
0
 10
158.03080737
 20
133.53423130
  0
VERTEX
  8
0
 10
148.87136579
 20
132.55622714
  0
VERTEX
  8
0
 10
140.28741017
 20
131.67718945
  0
VERTEX
  8
0
 10
132.75095599
 20
130.95016837
  0
VERTEX
  8
0
 10
128.53348338
 20
130.55153892
  0
VERTEX
  8
0
 10
124.30386600
 20
130.13412252
  0
VERTEX
  8
0
 10
120.07743996
 20
129.69983959
  0
VERTEX
  8
0
 10
115.86954140
 20
129.25061056
  0
VERTEX
  8
0
 10
111.69550646
 20
128.78835590
  0
VERTEX
  8
0
 10
107.57067127
 20
128.31499601
  0
VERTEX
  8
0
 10
103.51037195
 20
127.83245137
  0
VERTEX
  8
0
 10
99.52994465
 20
127.34264238
  0
VERTEX
  8
0
 10
95.64472549
 20
126.84748951
  0
VERTEX
  8
0
 10
91.87005060
 20
126.34891320
  0
VERTEX
  8
0
 10
88.22125613
 20
125.84883388
  0
VERTEX
  8
0
 10
84.71367819
 20
125.34917200
  0
VERTEX
  8
0
 10
81.36265293
 20
124.85184798
  0
VERTEX
  8
0
 10
78.18351647
 20
124.35878230
  0
VERTEX
  8
0
 10
75.19160495
 20
123.87189534
  0
VERTEX
  8
0
 10
72.40225449
 20
123.39310760
  0
VERTEX
  8
0
 10
71.05863768
 20
123.15568082
  0
VERTEX
  8
0
 10
65.23305463
 20
122.12625828
  0
VERTEX
  8
0
 10
63.42054549
 20
118.79341219
  0
VERTEX
  8
0
 10
63.03907101
 20
118.11418351
  0
VERTEX
  8
0
 10
62.67569689
 20
117.51711369
  0
VERTEX
  8
0
 10
62.32623206
 20
117.00112752
  0
VERTEX
  8
0
 10
61.98648547
 20
116.56514987
  0
VERTEX
  8
0
 10
61.65226607
 20
116.20810555
  0
VERTEX
  8
0
 10
61.48591935
 20
116.05884739
  0
VERTEX
  8
0
 10
61.32920222
 20
115.91748299
  0
VERTEX
  8
0
 10
61.18499150
 20
115.79902602
  0
VERTEX
  8
0
 10
61.04925134
 20
115.67795139
  0
VERTEX
  8
0
 10
60.88514224
 20
115.52760463
  0
VERTEX
  8
0
 10
60.70735776
 20
115.38181412
  0
VERTEX
  8
0
 10
60.51133794
 20
115.24969125
  0
VERTEX
  8
0
 10
60.35634651
 20
115.18135139
  0
VERTEX
  8
0
 10
60.20591280
 20
115.11301211
  0
VERTEX
  8
0
 10
60.11018286
 20
115.07200865
  0
VERTEX
  8
0
 10
59.88681227
 20
115.01278074
  0
VERTEX
  8
0
 10
59.62514814
 20
114.96001675
  0
VERTEX
  8
0
 10
59.29590061
 20
114.90736736
  0
VERTEX
  8
0
 10
59.01470021
 20
114.87071100
  0
VERTEX
  8
0
 10
58.33639840
 20
114.84985169
  0
VERTEX
  8
0
 10
57.71027340
 20
114.90199910
  0
VERTEX
  8
0
 10
57.13632520
 20
114.98543403
  0
VERTEX
  8
0
 10
56.59368421
 20
115.08972826
  0
VERTEX
  8
0
 10
55.83779543
 20
115.52675904
  0
VERTEX
  8
0
 10
55.35442092
 20
116.02806459
  0
VERTEX
  8
0
 10
55.03293915
 20
116.63466704
  0
VERTEX
  8
0
 10
54.92905545
 20
117.25058123
  0
VERTEX
  8
0
 10
54.79963762
 20
118.00672057
  0
VERTEX
  8
0
 10
54.58714102
 20
118.61718346
  0
VERTEX
  8
0
 10
54.01550892
 20
118.79823492
  0
VERTEX
  8
0
 10
53.58204635
 20
118.80553562
  0
VERTEX
  8
0
 10
53.10890437
 20
118.77162103
  0
VERTEX
  8
0
 10
52.58702253
 20
118.69710250
  0
VERTEX
  8
0
 10
52.00734037
 20
118.58259135
  0
VERTEX
  8
0
 10
51.36079744
 20
118.42869892
  0
VERTEX
  8
0
 10
50.63833330
 20
118.23603656
  0
VERTEX
  8
0
 10
48.92939957
 20
117.73684731
  0
VERTEX
  8
0
 10
47.96567827
 20
117.43322089
  0
SEQEND
  0
POLYLINE
  8
По_умолчанию
 62
256
 66
   1
 39
0.000000
 70
    1
  0
VERTEX
  8
0
 10
199.01534341
 20
85.38455056
  0
VERTEX
  8
0
 10
199.88285704
 20
85.60452280
  0
VERTEX
  8
0
 10
200.78577939
 20
85.88734424
  0
VERTEX
  8
0
 10
201.72411046
 20
86.23301490
  0
VERTEX
  8
0
 10
202.69785025
 20
86.64153477
  0
VERTEX
  8
0
 10
203.75125965
 20
87.08933539
  0
VERTEX
  8
0
 10
204.78696470
 20
87.55284831
  0
VERTEX
  8
0
 10
205.80496539
 20
88.03207354
  0
VERTEX
  8
0
 10
206.80526171
 20
88.52701107
  0
VERTEX
  8
0
 10
208.07112344
 20
89.23406469
  0
VERTEX
  8
0
 10
209.31928080
 20
89.97254291
  0
VERTEX
  8
0
 10
210.54973381
 20
90.74244573
  0
VERTEX
  8
0
 10
211.76248245
 20
91.54377316
  0
VERTEX
  8
0
 10
212.93097020
 20
92.36866905
  0
VERTEX
  8
0
 10
214.02864050
 20
93.20927723
  0
VERTEX
  8
0
 10
215.05549337
 20
94.06559772
  0
VERTEX
  8
0
 10
216.01152880
 20
94.93763052
  0
VERTEX
  8
0
 10
216.75511191
 20
95.69182104
  0
VERTEX
  8
0
 10
217.42787758
 20
96.44601156
  0
VERTEX
  8
0
 10
218.02982581
 20
97.20020208
  0
VERTEX
  8
0
 10
218.56095661
 20
97.95439261
  0
VERTEX
  8
0
 10
218.79332633
 20
98.32755979
  0
VERTEX
  8
0
 10
218.99471342
 20
98.69287083
  0
VERTEX
  8
0
 10
219.16511788
 20
99.05032571
  0
VERTEX
  8
0
 10
219.30453972
 20
99.39992444
  0
VERTEX
  8
0
 10
219.41297892
 20
99.74166702
  0
VERTEX
  8
0
 10
219.49043549
 20
100.07555345
  0
VERTEX
  8
0
 10
219.53690944
 20
100.40158373
  0
VERTEX
  8
0
 10
219.55240075
 20
100.71975786
  0
VERTEX
  8
0
 10
219.54354857
 20
101.08703293
  0
VERTEX
  8
0
 10
219.51699203
 20
101.43466762
  0
VERTEX
  8
0
 10
219.47273113
 20
101.76266194
  0
VERTEX
  8
0
 10
219.41076587
 20
102.07101588
  0
VERTEX
  8
0
 10
219.33109626
 20
102.35972943
  0
VERTEX
  8
0
 10
219.23372228
 20
102.62880262
  0
VERTEX
  8
0
 10
219.11864394
 20
102.87823542
  0
VERTEX
  8
0
 10
218.98586124
 20
103.10802784
  0
VERTEX
  8
0
 10
218.85529159
 20
103.31425182
  0
VERTEX
  8
0
 10
218.67603494
 20
103.49297926
  0
VERTEX
  8
0
 10
218.44809131
 20
103.64421017
  0
VERTEX
  8
0
 10
218.17146069
 20
103.76794455
  0
VERTEX
  8
0
 10
217.84614308
 20
103.86418240
  0
VERTEX
  8
0
 10
217.47213848
 20
103.93292373
  0
VERTEX
  8
0
 10
217.04944689
 20
103.97416852
  0
VERTEX
  8
0
 10
216.57806831
 20
103.98791679
  0
VERTEX
  8
0
 10
216.08234624
 20
103.96434833
  0
VERTEX
  8
0
 10
215.58662416
 20
103.89364297
  0
VERTEX
  8
0
 10
215.09090209
 20
103.77580070
  0
VERTEX
  8
0
 10
214.59518002
 20
103.61082153
  0
VERTEX
  8
0
 10
214.09945794
 20
103.46941080
  0
VERTEX
  8
0
 10
213.60373587
 20
103.29657547
  0
VERTEX
  8
0
 10
213.10801379
 20
103.09231554
  0
VERTEX
  8
0
 10
212.61229172
 20
102.85663100
  0
VERTEX
  8
0
 10
211.87092165
 20
102.45400325
  0
VERTEX
  8
0
 10
211.13397768
 20
102.00031051
  0
VERTEX
  8
0
 10
210.40145979
 20
101.49555279
  0
VERTEX
  8
0
 10
209.67336800
 20
100.93973009
  0
VERTEX
  8
0
 10
208.94970229
 20
100.33284241
  0
VERTEX
  8
0
 10
208.23046268
 20
99.67488974
  0
VERTEX
  8
0
 10
207.51564915
 20
98.96587208
  0
VERTEX
  8
0
 10
206.80526171
 20
98.20578945
  0
VERTEX
  8
0
 10
206.11036559
 20
97.41624624
  0
VERTEX
  8
0
 10
205.44202601
 20
96.61884689
  0
VERTEX
  8
0
 10
204.80024297
 20
95.81359138
  0
VERTEX
  8
0
 10
204.18501647
 20
95.00047973
  0
VERTEX
  8
0
 10
203.59634650
 20
94.17951192
  0
VERTEX
  8
0
 10
203.03423308
 20
93.35068796
  0
VERTEX
  8
0
 10
202.49867620
 20
92.51400785
  0
VERTEX
  8
0
 10
201.98967585
 20
91.66947158
  0
VERTEX
  8
0
 10
201.50280596
 20
90.85243185
  0
VERTEX
  8
0
 10
201.03364043
 20
90.03539212
  0
VERTEX
  8
0
 10
200.58217925
 20
89.21835239
  0
VERTEX
  8
0
 10
200.14842244
 20
88.40131265
  0
VERTEX
  8
0
 10
199.81203960
 20
87.59998522
  0
VERTEX
  8
0
 10
199.51106549
 20
86.83008240
  0
VERTEX
  8
0
 10
199.24550009
 20
86.09160418
  0
VERTEX
  8
0
 10
199.01534341
 20
85.38455056
  0
SEQEND
  0
POLYLINE
  8
По_умолчанию
 62
256
 66
   1
 39
0.000000
 70
    1
  0
VERTEX
  8
0
 10
63.89108710
 20
62.72713576
  0
VERTEX
  8
0
 10
67.87374129
 20
62.31439638
  0
VERTEX
  8
0
 10
72.08559256
 20
61.92704971
  0
VERTEX
  8
0
 10
73.14878081
 20
61.82724483
  0
VERTEX
  8
0
 10
74.21876543
 20
61.75592253
  0
VERTEX
  8
0
 10
76.37006197
 20
61.66074887
  0
VERTEX
  8
0
 10
78.52135851
 20
61.56557521
  0
VERTEX
  8
0
 10
79.59134313
 20
61.49425291
  0
VERTEX
  8
0
 10
80.65453137
 20
61.39444803
  0
VERTEX
  8
0
 10
83.48096379
 20
61.31141138
  0
VERTEX
  8
0
 10
83.43471142
 20
61.38655840
  0
VERTEX
  8
0
 10
83.30192873
 20
61.64973947
  0
VERTEX
  8
0
 10
83.18685039
 20
61.93648899
  0
VERTEX
  8
0
 10
83.08947641
 20
62.24680697
  0
VERTEX
  8
0
 10
83.00980679
 20
62.58069340
  0
VERTEX
  8
0
 10
82.94784153
 20
62.93814828
  0
VERTEX
  8
0
 10
82.90358063
 20
63.31917162
  0
VERTEX
  8
0
 10
82.87702409
 20
63.72376341
  0
VERTEX
  8
0
 10
82.86817191
 20
64.15192365
  0
VERTEX
  8
0
 10
82.87702409
 20
64.67042964
  0
VERTEX
  8
0
 10
82.90358063
 20
65.22036023
  0
VERTEX
  8
0
 10
83.00980679
 20
66.41449522
  0
VERTEX
  8
0
 10
83.57634630
 20
69.05416205
  0
VERTEX
  8
0
 10
84.01895530
 20
70.28757780
  0
VERTEX
  8
0
 10
84.49697301
 20
71.47385664
  0
VERTEX
  8
0
 10
85.01039944
 20
72.61299858
  0
VERTEX
  8
0
 10
85.55923460
 20
73.70500361
  0
VERTEX
  8
0
 10
85.87791307
 20
74.23529382
  0
VERTEX
  8
0
 10
86.19659155
 20
74.69487867
  0
VERTEX
  8
0
 10
86.51527003
 20
75.08375816
  0
VERTEX
  8
0
 10
86.83394850
 20
75.40193228
  0
VERTEX
  8
0
 10
87.15262698
 20
75.64940105
  0
VERTEX
  8
0
 10
87.31196622
 20
75.74662092
  0
VERTEX
  8
0
 10
87.47130545
 20
75.82616445
  0
VERTEX
  8
0
 10
87.63064469
 20
75.88803164
  0
VERTEX
  8
0
 10
87.78998393
 20
75.93222249
  0
VERTEX
  8
0
 10
87.94932317
 20
75.95873700
  0
VERTEX
  8
0
 10
88.10866241
 20
75.96757517
  0
VERTEX
  8
0
 10
88.25029728
 20
75.96757517
  0
VERTEX
  8
0
 10
88.32111472
 20
75.95971902
  0
VERTEX
  8
0
 10
88.39193216
 20
75.93615057
  0
VERTEX
  8
0
 10
88.53356704
 20
75.84187675
  0
VERTEX
  8
0
 10
88.67520192
 20
75.82616445
  0
VERTEX
  8
0
 10
88.81683680
 20
75.77902754
  0
VERTEX
  8
0
 10
88.95847168
 20
75.70046603
  0
VERTEX
  8
0
 10
89.10010655
 20
75.59047991
  0
VERTEX
  8
0
 10
89.52501119
 20
75.43335689
  0
VERTEX
  8
0
 10
89.94991582
 20
75.21338465
  0
VERTEX
  8
0
 10
90.58727277
 20
74.96198781
  0
VERTEX
  8
0
 10
91.36626460
 20
74.71059097
  0
VERTEX
  8
0
 10
91.82657796
 20
74.60060485
  0
VERTEX
  8
0
 10
92.35770875
 20
74.52204334
  0
VERTEX
  8
0
 10
92.95965698
 20
74.47490643
  0
VERTEX
  8
0
 10
93.63242266
 20
74.45919413
  0
VERTEX
  8
0
 10
94.27863179
 20
74.47294239
  0
VERTEX
  8
0
 10
94.94254528
 20
74.51418719
  0
VERTEX
  8
0
 10
95.62416313
 20
74.58292851
  0
VERTEX
  8
0
 10
96.32348534
 20
74.67916637
  0
VERTEX
  8
0
 10
97.04051191
 20
74.80290075
  0
VERTEX
  8
0
 10
97.77524284
 20
74.95413166
  0
VERTEX
  8
0
 10
98.52767813
 20
75.13285910
  0
VERTEX
  8
0
 10
99.29781778
 20
75.33908307
  0
VERTEX
  8
0
 10
100.07680961
 20
75.60030010
  0
VERTEX
  8
0
 10
100.85580145
 20
75.88115751
  0
VERTEX
  8
0
 10
101.63479328
 20
76.18165530
  0
VERTEX
  8
0
 10
102.41378511
 20
76.50179346
  0
VERTEX
  8
0
 10
103.19277694
 20
76.84157200
  0
VERTEX
  8
0
 10
103.97176877
 20
77.20099093
  0
VERTEX
  8
0
 10
104.75076060
 20
77.58005022
  0
VERTEX
  8
0
 10
105.52975243
 20
77.97874990
  0
VERTEX
  8
0
 10
106.45037913
 20
78.46190321
  0
VERTEX
  8
0
 10
107.37100584
 20
78.96862496
  0
VERTEX
  8
0
 10
108.29163255
 20
79.49891517
  0
VERTEX
  8
0
 10
109.21225926
 20
80.05277384
  0
VERTEX
  8
0
 10
110.13288597
 20
80.63020096
  0
VERTEX
  8
0
 10
111.05351268
 20
81.23119653
  0
VERTEX
  8
0
 10
111.97413938
 20
81.85576056
  0
VERTEX
  8
0
 10
112.89476609
 20
82.50389304
  0
VERTEX
  8
0
 10
113.80211453
 20
83.16577378
  0
VERTEX
  8
0
 10
114.68290643
 20
83.83158260
  0
VERTEX
  8
0
 10
115.53714179
 20
84.50131950
  0
VERTEX
  8
0
 10
116.36482061
 20
85.17498447
  0
VERTEX
  8
0
 10
117.16594289
 20
85.85257752
  0
VERTEX
  8
0
 10
117.94050863
 20
86.53409864
  0
VERTEX
  8
0
 10
118.68851783
 20
87.21954784
  0
VERTEX
  8
0
 10
119.40997049
 20
87.90892512
  0
VERTEX
  8
0
 10
119.96544478
 20
88.44314340
  0
VERTEX
  8
0
 10
120.49878862
 20
88.97736169
  0
VERTEX
  8
0
 10
121.01000201
 20
89.51157998
  0
VERTEX
  8
0
 10
121.49908494
 20
90.04579826
  0
VERTEX
  8
0
 10
121.96603743
 20
90.58001655
  0
VERTEX
  8
0
 10
122.41085947
 20
91.11423484
  0
VERTEX
  8
0
 10
122.83355106
 20
91.64845312
  0
VERTEX
  8
0
 10
123.23411220
 20
92.18267141
  0
VERTEX
  8
0
 10
123.64352552
 20
92.71099758
  0
VERTEX
  8
0
 10
124.02195621
 20
93.22753953
  0
VERTEX
  8
0
 10
124.36940427
 20
93.73229725
  0
VERTEX
  8
0
 10
124.68586970
 20
94.22527074
  0
VERTEX
  8
0
 10
124.97135251
 20
94.70646001
  0
VERTEX
  8
0
 10
125.22585268
 20
95.17586505
  0
VERTEX
  8
0
 10
125.44937022
 20
95.63348586
  0
VERTEX
  8
0
 10
125.64190513
 20
96.07932244
  0
VERTEX
  8
0
 10
125.74813129
 20
96.29929468
  0
VERTEX
  8
0
 10
125.78354001
 20
96.45641771
  0
VERTEX
  8
0
 10
125.84550527
 20
96.58211613
  0
VERTEX
  8
0
 10
125.88976617
 20
96.70781455
  0
VERTEX
  8
0
 10
125.91632271
 20
96.83351297
  0
VERTEX
  8
0
 10
125.92517489
 20
96.95921139
  0
VERTEX
  8
0
 10
125.98714015
 20
97.02991675
  0
VERTEX
  8
0
 10
126.03140105
 20
97.11633441
  0
VERTEX
  8
0
 10
126.05795759
 20
97.21846438
  0
VERTEX
  8
0
 10
126.06680977
 20
97.33630665
  0
VERTEX
  8
0
 10
126.06680977
 20
97.71340191
  0
VERTEX
  8
0
 10
126.05795759
 20
97.83910033
  0
VERTEX
  8
0
 10
126.03140105
 20
97.96479875
  0
VERTEX
  8
0
 10
125.98714015
 20
98.09049717
  0
VERTEX
  8
0
 10
125.92517489
 20
98.21619559
  0
VERTEX
  8
0
 10
125.90747053
 20
98.38903092
  0
VERTEX
  8
0
 10
125.85435745
 20
98.53044164
  0
VERTEX
  8
0
 10
125.76583565
 20
98.64042776
  0
VERTEX
  8
0
 10
125.64190513
 20
98.71898927
  0
VERTEX
  8
0
 10
125.49141807
 20
98.83683154
  0
VERTEX
  8
0
 10
125.32322666
 20
98.93896151
  0
VERTEX
  8
0
 10
125.13733088
 20
99.02537917
  0
VERTEX
  8
0
 10
124.93373074
 20
99.09608454
  0
VERTEX
  8
0
 10
124.72127842
 20
99.15107759
  0
VERTEX
  8
0
 10
124.50882611
 20
99.19035835
  0
VERTEX
  8
0
 10
124.29637379
 20
99.21392680
  0
VERTEX
  8
0
 10
124.08392147
 20
99.22178296
  0
VERTEX
  8
0
 10
123.73315384
 20
99.21245378
  0
VERTEX
  8
0
 10
123.35361663
 20
99.18446624
  0
VERTEX
  8
0
 10
122.50823345
 20
99.07251608
  0
VERTEX
  8
0
 10
121.54777193
 20
98.88593249
  0
VERTEX
  8
0
 10
120.47223208
 20
98.62471546
  0
VERTEX
  8
0
 10
119.28161388
 20
98.28886499
  0
VERTEX
  8
0
 10
117.97591735
 20
97.87838109
  0
VERTEX
  8
0
 10
116.55514248
 20
97.39326375
  0
VERTEX
  8
0
 10
115.01928927
 20
96.83351297
  0
VERTEX
  8
0
 10
113.45024038
 20
96.21091298
  0
VERTEX
  8
0
 10
111.85906105
 20
95.53724801
  0
VERTEX
  8
0
 10
110.24575126
 20
94.81251805
  0
VERTEX
  8
0
 10
108.61031103
 20
94.03672311
  0
VERTEX
  8
0
 10
106.95274034
 20
93.20986319
  0
VERTEX
  8
0
 10
105.27303921
 20
92.33193829
  0
VERTEX
  8
0
 10
103.57120763
 20
91.40294840
  0
VERTEX
  8
0
 10
101.84724559
 20
90.42289353
  0
VERTEX
  8
0
 10
99.01454803
 20
88.66311564
  0
VERTEX
  8
0
 10
97.59819925
 20
87.75180209
  0
VERTEX
  8
0
 10
96.18185046
 20
86.77763933
  0
VERTEX
  8
0
 10
95.64186749
 20
87.41398759
  0
VERTEX
  8
0
 10
95.15499760
 20
88.06604814
  0
VERTEX
  8
0
 10
94.72124078
 20
88.73382100
  0
VERTEX
  8
0
 10
94.34059705
 20
89.41730616
  0
VERTEX
  8
0
 10
94.07503165
 20
90.11650363
  0
VERTEX
  8
0
 10
93.84487497
 20
90.83141339
  0
VERTEX
  8
0
 10
93.65012702
 20
91.56203546
  0
VERTEX
  8
0
 10
93.49078778
 20
92.30836983
  0
VERTEX
  8
0
 10
93.38456162
 20
92.77973891
  0
VERTEX
  8
0
 10
93.35800508
 20
92.99185499
  0
VERTEX
  8
0
 10
93.34915290
 20
93.18825877
  0
VERTEX
  8
0
 10
93.34915290
 20
94.19384614
  0
VERTEX
  8
0
 10
93.35800508
 20
94.75948903
  0
VERTEX
  8
0
 10
93.38456162
 20
95.32513192
  0
VERTEX
  8
0
 10
93.42882252
 20
95.89077481
  0
VERTEX
  8
0
 10
93.49078778
 20
96.45641771
  0
VERTEX
  8
0
 10
93.77405753
 20
97.55627889
  0
VERTEX
  8
0
 10
94.05732729
 20
98.59329085
  0
VERTEX
  8
0
 10
94.65927552
 20
98.97038612
  0
VERTEX
  8
0
 10
95.33204119
 20
99.34748138
  0
VERTEX
  8
0
 10
96.07562431
 20
99.85027506
  0
VERTEX
  8
0
 10
96.89002486
 20
100.35306874
  0
VERTEX
  8
0
 10
97.57606880
 20
100.69677536
  0
VERTEX
  8
0
 10
98.28866928
 20
101.03655390
  0
VERTEX
  8
0
 10
99.79353986
 20
101.70432676
  0
VERTEX
  8
0
 10
101.40463660
 20
102.35638732
  0
VERTEX
  8
0
 10
103.12195950
 20
102.99273557
  0
VERTEX
  8
0
 10
104.97206509
 20
103.66836458
  0
VERTEX
  8
0
 10
106.83987505
 20
104.31256898
  0
VERTEX
  8
0
 10
108.72538937
 20
104.92534878
  0
VERTEX
  8
0
 10
110.62860804
 20
105.50670398
  0
VERTEX
  8
0
 10
112.59379198
 20
105.98592921
  0
VERTEX
  8
0
 10
114.52356719
 20
106.41801753
  0
VERTEX
  8
0
 10
116.41793369
 20
106.80296894
  0
VERTEX
  8
0
 10
118.27689147
 20
107.14078344
  0
VERTEX
  8
0
 10
119.18202686
 20
107.31754685
  0
VERTEX
  8
0
 10
120.05617962
 20
107.47074180
  0
VERTEX
  8
0
 10
120.89934976
 20
107.60036829
  0
VERTEX
  8
0
 10
121.71153726
 20
107.70642634
  0
VERTEX
  8
0
 10
122.49274214
 20
107.78891592
  0
VERTEX
  8
0
 10
123.24296438
 20
107.84783706
  0
VERTEX
  8
0
 10
123.96220400
 20
107.88318974
  0
VERTEX
  8
0
 10
124.65046099
 20
107.89497397
  0
VERTEX
  8
0
 10
125.28781794
 20
107.86354936
  0
VERTEX
  8
0
 10
126.06680977
 20
107.76927555
  0
VERTEX
  8
0
 10
126.57138402
 20
107.69071403
  0
VERTEX
  8
0
 10
127.09366263
 20
107.58072792
  0
VERTEX
  8
0
 10
127.63364561
 20
107.43931719
  0
VERTEX
  8
0
 10
128.19133294
 20
107.26648186
  0
VERTEX
  8
0
 10
128.57418972
 20
107.12507114
  0
VERTEX
  8
0
 10
128.94376823
 20
106.95223581
  0
VERTEX
  8
0
 10
129.30006847
 20
106.74797588
  0
VERTEX
  8
0
 10
129.64309044
 20
106.51229134
  0
VERTEX
  8
0
 10
129.97283414
 20
106.24518220
  0
VERTEX
  8
0
 10
130.28929957
 20
105.94664845
  0
VERTEX
  8
0
 10
130.59248674
 20
105.61669010
  0
VERTEX
  8
0
 10
130.88239563
 20
105.25530714
  0
VERTEX
  8
0
 10
131.18115670
 20
104.85660746
  0
VERTEX
  8
0
 10
131.44008296
 20
104.41469895
  0
VERTEX
  8
0
 10
131.65917441
 20
103.92958161
  0
VERTEX
  8
0
 10
131.83843105
 20
103.40125544
  0
VERTEX
  8
0
 10
131.97785289
 20
102.82972043
  0
VERTEX
  8
0
 10
132.07743991
 20
102.21497659
  0
VERTEX
  8
0
 10
132.13719213
 20
101.55702392
  0
VERTEX
  8
0
 10
132.15710953
 20
100.85586242
  0
VERTEX
  8
0
 10
132.14825735
 20
100.40806180
  0
VERTEX
  8
0
 10
132.12170081
 20
99.94454887
  0
VERTEX
  8
0
 10
132.07743991
 20
99.46532365
  0
VERTEX
  8
0
 10
132.01547465
 20
98.97038612
  0
VERTEX
  8
0
 10
131.83843105
 20
97.93337415
  0
VERTEX
  8
0
 10
131.59057002
 20
96.83351297
  0
VERTEX
  8
0
 10
132.84094043
 20
97.24988899
  0
VERTEX
  8
0
 10
134.04262385
 20
97.68197731
  0
VERTEX
  8
0
 10
135.19562028
 20
98.12977793
  0
VERTEX
  8
0
 10
136.29992972
 20
98.59329085
  0
VERTEX
  8
0
 10
137.35555217
 20
99.07251608
  0
VERTEX
  8
0
 10
138.36248763
 20
99.56745361
  0
VERTEX
  8
0
 10
139.32073611
 20
100.07810345
  0
VERTEX
  8
0
 10
140.23029759
 20
100.60446558
  0
VERTEX
  8
0
 10
141.11108949
 20
101.18385674
  0
VERTEX
  8
0
 10
141.98302921
 20
101.79074442
  0
VERTEX
  8
0
 10
142.84611675
 20
102.42512864
  0
VERTEX
  8
0
 10
143.70035210
 20
103.08700938
  0
VERTEX
  8
0
 10
144.54573528
 20
103.77638666
  0
VERTEX
  8
0
 10
145.38226628
 20
104.49326046
  0
VERTEX
  8
0
 10
146.20994510
 20
105.23763080
  0
VERTEX
  8
0
 10
147.02877174
 20
106.00949766
  0
VERTEX
  8
0
 10
148.23266821
 20
107.17220805
  0
VERTEX
  8
0
 10
149.43656467
 20
108.39776765
  0
VERTEX
  8
0
 10
150.64046114
 20
109.68617646
  0
VERTEX
  8
0
 10
151.84435760
 20
111.03743448
  0
VERTEX
  8
0
 10
154.39378541
 20
114.05419657
  0
VERTEX
  8
0
 10
157.22648297
 20
117.32235550
  0
VERTEX
  8
0
 10
157.55401363
 20
117.45591007
  0
VERTEX
  8
0
 10
157.97006608
 20
117.60517695
  0
VERTEX
  8
0
 10
159.06773639
 20
117.95084760
  0
VERTEX
  8
0
 10
162.04206883
 20
118.83073654
  0
VERTEX
  8
0
 10
162.89187810
 20
119.08213339
  0
VERTEX
  8
0
 10
163.74168737
 20
119.33353023
  0
VERTEX
  8
0
 10
164.65346190
 20
119.56921476
  0
VERTEX
  8
0
 10
165.54753207
 20
119.77347470
  0
VERTEX
  8
0
 10
166.42389788
 20
119.94631003
  0
VERTEX
  8
0
 10
167.28255933
 20
120.08772075
  0
VERTEX
  8
0
 10
168.07925552
 20
120.25269993
  0
VERTEX
  8
0
 10
168.76972555
 20
120.37054219
  0
VERTEX
  8
0
 10
169.35396942
 20
120.44124756
  0
VERTEX
  8
0
 10
169.83198714
 20
120.46481601
  0
VERTEX
  8
0
 10
169.96476983
 20
120.45695986
  0
VERTEX
  8
0
 10
170.07984817
 20
120.43339141
  0
VERTEX
  8
0
 10
170.17722215
 20
120.39411065
  0
VERTEX
  8
0
 10
170.25689177
 20
120.33911759
  0
VERTEX
  8
0
 10
170.31885703
 20
120.33126144
  0
VERTEX
  8
0
 10
170.36311793
 20
120.30769298
  0
VERTEX
  8
0
 10
170.38967447
 20
120.26841223
  0
VERTEX
  8
0
 10
170.39852665
 20
120.21341917
  0
VERTEX
  8
0
 10
170.37639620
 20
120.00817722
  0
VERTEX
  8
0
 10
170.31000485
 20
119.76954662
  0
VERTEX
  8
0
 10
170.19935260
 20
119.49752738
  0
VERTEX
  8
0
 10
170.04443945
 20
119.19211950
  0
VERTEX
  8
0
 10
169.84526541
 20
118.85332298
  0
VERTEX
  8
0
 10
169.60183046
 20
118.48113781
  0
VERTEX
  8
0
 10
169.31413461
 20
118.07556400
  0
VERTEX
  8
0
 10
168.98217787
 20
117.63660155
  0
VERTEX
  8
0
 10
168.18548168
 20
116.65851072
  0
VERTEX
  8
0
 10
167.21174189
 20
115.54686531
  0
VERTEX
  8
0
 10
166.06095850
 20
114.30166533
  0
VERTEX
  8
0
 10
164.73313152
 20
112.92291078
  0
VERTEX
  8
0
 10
163.32342187
 20
111.43024204
  0
VERTEX
  8
0
 10
161.85617306
 20
109.84329948
  0
VERTEX
  8
0
 10
160.33138507
 20
108.16208311
  0
VERTEX
  8
0
 10
158.74905792
 20
106.38659292
  0
VERTEX
  8
0
 10
157.10919159
 20
104.51682892
  0
VERTEX
  8
0
 10
155.41178610
 20
102.55279110
  0
VERTEX
  8
0
 10
153.65684143
 20
100.49447946
  0
VERTEX
  8
0
 10
151.84435760
 20
98.34189401
  0
VERTEX
  8
0
 10
150.81750474
 20
97.05348520
  0
VERTEX
  8
0
 10
149.71983443
 20
95.70222718
  0
VERTEX
  8
0
 10
148.72839028
 20
94.41381837
  0
VERTEX
  8
0
 10
147.73694613
 20
93.06256035
  0
VERTEX
  8
0
 10
145.75405784
 20
90.54859195
  0
VERTEX
  8
0
 10
145.26718795
 20
89.91224369
  0
VERTEX
  8
0
 10
144.79802241
 20
89.26018314
  0
VERTEX
  8
0
 10
144.34656124
 20
88.59241028
  0
VERTEX
  8
0
 10
143.91280442
 20
87.90892512
  0
VERTEX
  8
0
 10
142.65579488
 20
86.15700338
  0
VERTEX
  8
0
 10
141.43419405
 20
84.42079395
  0
VERTEX
  8
0
 10
140.24800195
 20
82.70029682
  0
VERTEX
  8
0
 10
139.09721856
 20
80.99551199
  0
VERTEX
  8
0
 10
136.93728667
 20
77.85305148
  0
VERTEX
  8
0
 10
134.98980709
 20
74.96198781
  0
VERTEX
  8
0
 10
136.62746037
 20
76.00685593
  0
VERTEX
  8
0
 10
138.14118313
 20
77.00458714
  0
VERTEX
  8
0
 10
139.53097538
 20
77.95518145
  0
VERTEX
  8
0
 10
140.79683710
 20
78.85863884
  0
VERTEX
  8
0
 10
145.47078808
 20
82.25249620
  0
VERTEX
  8
0
 10
145.75405784
 20
82.50389304
  0
VERTEX
  8
0
 10
146.03732760
 20
82.66101606
  0
VERTEX
  8
0
 10
146.32059735
 20
82.88098830
  0
VERTEX
  8
0
 10
146.73664981
 20
83.14024129
  0
VERTEX
  8
0
 10
147.13499790
 20
83.41520659
  0
VERTEX
  8
0
 10
147.51564164
 20
83.70588418
  0
VERTEX
  8
0
 10
147.87858101
 20
84.01227408
  0
VERTEX
  8
0
 10
149.57819955
 20
85.26925829
  0
VERTEX
  8
0
 10
151.84989021
 20
86.98386330
  0
VERTEX
  8
0
 10
154.02641994
 20
88.60812258
  0
VERTEX
  8
0
 10
156.10778874
 20
90.14203612
  0
VERTEX
  8
0
 10
158.09399660
 20
91.58560391
  0
VERTEX
  8
0
 10
159.98504353
 20
92.93882597
  0
VERTEX
  8
0
 10
161.78092953
 20
94.20170229
  0
VERTEX
  8
0
 10
163.48165459
 20
95.37423287
  0
VERTEX
  8
0
 10
165.08721872
 20
96.45641771
  0
VERTEX
  8
0
 10
166.59762191
 20
97.44825681
  0
VERTEX
  8
0
 10
168.01286417
 20
98.34975016
  0
VERTEX
  8
0
 10
169.33294549
 20
99.16089778
  0
VERTEX
  8
0
 10
170.55786589
 20
99.88169966
  0
VERTEX
  8
0
 10
171.68762534
 20
100.51215580
  0
VERTEX
  8
0
 10
172.72222387
 20
101.05226620
  0
VERTEX
  8
0
 10
173.66166146
 20
101.50203086
  0
VERTEX
  8
0
 10
174.50593812
 20
101.86144979
  0
VERTEX
  8
0
 10
176.03072610
 20
102.45066113
  0
VERTEX
  8
0
 10
177.41830530
 20
102.96131096
  0
VERTEX
  8
0
 10
178.66867571
 20
103.39339928
  0
VERTEX
  8
0
 10
179.78183733
 20
103.74692609
  0
VERTEX
  8
0
 10
180.75779016
 20
104.02189139
  0
VERTEX
  8
0
 10
181.59653421
 20
104.21829517
  0
VERTEX
  8
0
 10
182.29806946
 20
104.33613744
  0
VERTEX
  8
0
 10
182.59738380
 20
104.36559800
  0
VERTEX
  8
0
 10
182.86239593
 20
104.37541819
  0
VERTEX
  8
0
 10
183.00403081
 20
104.37541819
  0
VERTEX
  8
0
 10
183.14566569
 20
104.37541819
  0
VERTEX
  8
0
 10
183.32049624
 20
104.33417340
  0
VERTEX
  8
0
 10
183.49090070
 20
104.27328823
  0
VERTEX
  8
0
 10
183.65687908
 20
104.19276268
  0
VERTEX
  8
0
 10
183.81843136
 20
104.09259675
  0
VERTEX
  8
0
 10
183.97555755
 20
103.97279044
  0
VERTEX
  8
0
 10
184.12825766
 20
103.83334376
  0
VERTEX
  8
0
 10
184.27653167
 20
103.67425669
  0
VERTEX
  8
0
 10
184.42037959
 20
103.49552925
  0
VERTEX
  8
0
 10
184.55316229
 20
103.29912547
  0
VERTEX
  8
0
 10
184.66824063
 20
103.08700938
  0
VERTEX
  8
0
 10
184.76561461
 20
102.85918100
  0
VERTEX
  8
0
 10
184.84528423
 20
102.61564031
  0
VERTEX
  8
0
 10
184.90724949
 20
102.35638732
  0
VERTEX
  8
0
 10
184.95151038
 20
102.08142202
  0
VERTEX
  8
0
 10
184.97806692
 20
101.79074442
  0
VERTEX
  8
0
 10
184.98691910
 20
101.48435452
  0
VERTEX
  8
0
 10
184.97806692
 20
101.19564096
  0
VERTEX
  8
0
 10
184.95151038
 20
100.89514318
  0
VERTEX
  8
0
 10
184.90724949
 20
100.58286116
  0
VERTEX
  8
0
 10
184.84528423
 20
100.25879492
  0
VERTEX
  8
0
 10
184.66824063
 20
99.57530976
  0
VERTEX
  8
0
 10
184.42037959
 20
98.84468769
  0
VERTEX
  8
0
 10
184.18137073
 20
98.09049717
  0
VERTEX
  8
0
 10
183.88924880
 20
97.33630665
  0
VERTEX
  8
0
 10
183.54401378
 20
96.58211613
  0
VERTEX
  8
0
 10
183.14566569
 20
95.82792560
  0
VERTEX
  8
0
 10
182.69420451
 20
95.02070606
  0
VERTEX
  8
0
 10
182.18963026
 20
94.23312689
  0
VERTEX
  8
0
 10
181.63194293
 20
93.46518811
  0
VERTEX
  8
0
 10
181.02114251
 20
92.71688970
  0
VERTEX
  8
0
 10
180.35722902
 20
91.98823167
  0
VERTEX
  8
0
 10
179.64020245
 20
91.27921401
  0
VERTEX
  8
0
 10
178.87006280
 20
90.58983674
  0
VERTEX
  8
0
 10
178.04681007
 20
89.92009984
  0
VERTEX
  8
0
 10
177.63518371
 20
89.60094370
  0
VERTEX
  8
0
 10
177.21470516
 20
89.30339197
  0
VERTEX
  8
0
 10
176.78537444
 20
89.02744465
  0
VERTEX
  8
0
 10
176.34719153
 20
88.77310176
  0
VERTEX
  8
0
 10
175.90015645
 20
88.54036328
  0
VERTEX
  8
0
 10
175.44426918
 20
88.32922921
  0
VERTEX
  8
0
 10
174.97952974
 20
88.13969956
  0
VERTEX
  8
0
 10
174.50593812
 20
87.97177433
  0
VERTEX
  8
0
 10
174.02349431
 20
87.82545351
  0
VERTEX
  8
0
 10
173.53219833
 20
87.70073711
  0
VERTEX
  8
0
 10
173.03205016
 20
87.59762512
  0
VERTEX
  8
0
 10
172.52304982
 20
87.51611755
  0
VERTEX
  8
0
 10
172.00519730
 20
87.45621440
  0
VERTEX
  8
0
 10
171.47849259
 20
87.41791566
  0
VERTEX
  8
0
 10
170.94293571
 20
87.40122134
  0
VERTEX
  8
0
 10
170.39852665
 20
87.40613143
  0
VERTEX
  8
0
 10
169.82313496
 20
87.42184374
  0
VERTEX
  8
0
 10
169.23003890
 20
87.46898064
  0
VERTEX
  8
0
 10
168.61923849
 20
87.54754216
  0
VERTEX
  8
0
 10
167.99073372
 20
87.65752828
  0
VERTEX
  8
0
 10
167.41534203
 20
87.79893900
  0
VERTEX
  8
0
 10
166.82224597
 20
87.97177433
  0
VERTEX
  8
0
 10
166.21144556
 20
88.17603426
  0
VERTEX
  8
0
 10
165.58294079
 20
88.41171880
  0
VERTEX
  8
0
 10
164.92787948
 20
88.01105508
  0
VERTEX
  8
0
 10
164.23740945
 20
87.56325446
  0
VERTEX
  8
0
 10
163.51153070
 20
87.06831693
  0
VERTEX
  8
0
 10
162.75024322
 20
86.52624249
  0
VERTEX
  8
0
 10
161.26307700
 20
85.45780592
  0
VERTEX
  8
0
 10
159.63427590
 20
84.26367092
  0
VERTEX
  8
0
 10
158.18251840
 20
83.06953593
  0
VERTEX
  8
0
 10
156.65994346
 20
81.74970251
  0
VERTEX
  8
0
 10
155.96947343
 20
81.05836120
  0
VERTEX
  8
0
 10
155.31441212
 20
80.36701989
  0
VERTEX
  8
0
 10
154.69475953
 20
79.67567858
  0
VERTEX
  8
0
 10
154.11051565
 20
78.98433727
  0
VERTEX
  8
0
 10
153.36693254
 20
78.10444832
  0
VERTEX
  8
0
 10
152.69416687
 20
77.22455938
  0
VERTEX
  8
0
 10
152.09221864
 20
76.34467044
  0
VERTEX
  8
0
 10
151.81780106
 20
75.90472596
  0
VERTEX
  8
0
 10
151.56108785
 20
75.46478149
  0
VERTEX
  8
0
 10
151.32871812
 20
75.06018970
  0
VERTEX
  8
0
 10
151.12733103
 20
74.66345406
  0
VERTEX
  8
0
 10
150.95692657
 20
74.27457457
  0
VERTEX
  8
0
 10
150.81750474
 20
73.89355124
  0
VERTEX
  8
0
 10
150.70906553
 20
73.52038405
  0
VERTEX
  8
0
 10
150.63160896
 20
73.15507302
  0
VERTEX
  8
0
 10
150.58513501
 20
72.79761813
  0
VERTEX
  8
0
 10
150.56964370
 20
72.44801940
  0
VERTEX
  8
0
 10
150.58734806
 20
71.94129764
  0
VERTEX
  8
0
 10
150.64046114
 20
71.48956895
  0
VERTEX
  8
0
 10
150.72898294
 20
71.09283331
  0
VERTEX
  8
0
 10
150.85291345
 20
70.75109073
  0
VERTEX
  8
0
 10
151.01225269
 20
70.46434120
  0
VERTEX
  8
0
 10
151.10520058
 20
70.34158884
  0
VERTEX
  8
0
 10
151.20700065
 20
70.23258474
  0
VERTEX
  8
0
 10
151.31765290
 20
70.13732891
  0
VERTEX
  8
0
 10
151.43715733
 20
70.05582134
  0
VERTEX
  8
0
 10
151.56551394
 20
69.98806203
  0
VERTEX
  8
0
 10
151.70272272
 20
69.93405099
  0
VERTEX
  8
0
 10
151.99484466
 20
69.84566929
  0
VERTEX
  8
0
 10
152.30467096
 20
69.76907182
  0
VERTEX
  8
0
 10
152.97743663
 20
69.65122955
  0
VERTEX
  8
0
 10
153.72101974
 20
69.58052419
  0
VERTEX
  8
0
 10
154.53542029
 20
69.55695573
  0
VERTEX
  8
0
 10
155.03114236
 20
69.56481188
  0
VERTEX
  8
0
 10
155.52686444
 20
69.58838034
  0
VERTEX
  8
0
 10
156.02258651
 20
69.62766109
  0
VERTEX
  8
0
 10
156.51830858
 20
69.68265415
  0
VERTEX
  8
0
 10
157.07599592
 20
69.75335951
  0
VERTEX
  8
0
 10
157.61597889
 20
69.83977718
  0
VERTEX
  8
0
 10
158.13825750
 20
69.94190714
  0
VERTEX
  8
0
 10
158.64283176
 20
70.05974941
  0
VERTEX
  8
0
 10
160.34245029
 20
70.59396770
  0
VERTEX
  8
0
 10
162.04206883
 20
71.19103520
  0
VERTEX
  8
0
 10
163.67086993
 20
71.81952730
  0
VERTEX
  8
0
 10
165.15803615
 20
72.44801940
  0
VERTEX
  8
0
 10
166.11407158
 20
72.88010772
  0
VERTEX
  8
0
 10
166.99928957
 20
73.29648374
  0
VERTEX
  8
0
 10
167.81369012
 20
73.69714746
  0
VERTEX
  8
0
 10
168.55727323
 20
74.08209887
  0
VERTEX
  8
0
 10
170.39852665
 20
75.21338465
  0
VERTEX
  8
0
 10
170.52245717
 20
75.29980232
  0
VERTEX
  8
0
 10
170.75261384
 20
75.43335689
  0
VERTEX
  8
0
 10
171.53160567
 20
75.84187675
  0
VERTEX
  8
0
 10
172.66468470
 20
76.37609504
  0
VERTEX
  8
0
 10
173.79776373
 20
76.97316254
  0
VERTEX
  8
0
 10
176.06392178
 20
78.10444832
  0
VERTEX
  8
0
 10
177.19700080
 20
78.60724200
  0
VERTEX
  8
0
 10
177.33863568
 20
78.59152970
  0
VERTEX
  8
0
 10
177.48027056
 20
78.54439279
  0
VERTEX
  8
0
 10
177.62190544
 20
78.46583128
  0
VERTEX
  8
0
 10
177.76354032
 20
78.35584516
  0
VERTEX
  8
0
 10
177.88747083
 20
78.23014674
  0
VERTEX
  8
0
 10
177.97599263
 20
78.10444832
  0
VERTEX
  8
0
 10
178.02910571
 20
77.97874990
  0
VERTEX
  8
0
 10
178.04681007
 20
77.85305148
  0
VERTEX
  8
0
 10
178.03740463
 20
77.68954533
  0
VERTEX
  8
0
 10
178.00918831
 20
77.51327294
  0
VERTEX
  8
0
 10
177.89632301
 20
77.12242941
  0
VERTEX
  8
0
 10
177.70821419
 20
76.68052090
  0
VERTEX
  8
0
 10
177.44486184
 20
76.18754741
  0
VERTEX
  8
0
 10
177.10626596
 20
75.64350893
  0
VERTEX
  8
0
 10
176.69242655
 20
75.04840548
  0
VERTEX
  8
0
 10
176.20334361
 20
74.40223703
  0
VERTEX
  8
0
 10
175.63901714
 20
73.70500361
  0
VERTEX
  8
0
 10
175.01715150
 20
73.00777018
  0
VERTEX
  8
0
 10
174.35545106
 20
72.29875253
  0
VERTEX
  8
0
 10
173.65391580
 20
71.57795065
  0
VERTEX
  8
0
 10
172.91254574
 20
70.84536454
  0
VERTEX
  8
0
 10
172.13134086
 20
70.10099421
  0
VERTEX
  8
0
 10
171.31030118
 20
69.34483965
  0
VERTEX
  8
0
 10
170.44942668
 20
68.57690086
  0
VERTEX
  8
0
 10
169.54871738
 20
67.79717785
  0
VERTEX
  8
0
 10
167.95532500
 20
66.41449522
  0
VERTEX
  8
0
 10
166.29111518
 20
65.03181260
  0
VERTEX
  8
0
 10
165.43245373
 20
64.34832744
  0
VERTEX
  8
0
 10
164.55608792
 20
63.68055458
  0
VERTEX
  8
0
 10
163.66201775
 20
63.02849402
  0
VERTEX
  8
0
 10
162.75024322
 20
62.39214577
  0
VERTEX
  8
0
 10
161.35002624
 20
61.49896120
  0
VERTEX
  8
0
 10
160.87335399
 20
61.20658489
  0
VERTEX
  8
0
 10
193.38611222
 20
61.21894581
  0
VERTEX
  8
0
 10
192.64940678
 20
61.62821264
  0
VERTEX
  8
0
 10
191.92565997
 20
62.08415962
  0
VERTEX
  8
0
 10
191.21492391
 20
62.58674577
  0
VERTEX
  8
0
 10
190.51725072
 20
63.13593014
  0
VERTEX
  8
0
 10
190.01986886
 20
63.60533518
  0
VERTEX
  8
0
 10
189.55457616
 20
64.10223675
  0
VERTEX
  8
0
 10
189.12137260
 20
64.62663485
  0
VERTEX
  8
0
 10
188.72025820
 20
65.17852948
  0
VERTEX
  8
0
 10
188.35123295
 20
65.75792063
  0
VERTEX
  8
0
 10
188.01429686
 20
66.36480832
  0
VERTEX
  8
0
 10
187.70944991
 20
66.99919253
  0
VERTEX
  8
0
 10
187.43669212
 20
67.66107328
  0
VERTEX
  8
0
 10
187.19602348
 20
68.35045055
  0
VERTEX
  8
0
 10
186.98744399
 20
69.06732436
  0
VERTEX
  8
0
 10
186.81095365
 20
69.81169469
  0
VERTEX
  8
0
 10
186.66655247
 20
70.58356156
  0
VERTEX
  8
0
 10
186.55424044
 20
71.38292495
  0
VERTEX
  8
0
 10
186.47401756
 20
72.20978487
  0
VERTEX
  8
0
 10
186.42588383
 20
73.06414132
  0
VERTEX
  8
0
 10
186.40983925
 20
73.94599430
  0
VERTEX
  8
0
 10
186.42311752
 20
74.64126369
  0
VERTEX
  8
0
 10
186.46295233
 20
75.34438923
  0
VERTEX
  8
0
 10
186.52934368
 20
76.05537092
  0
VERTEX
  8
0
 10
186.62229157
 20
76.77420876
  0
VERTEX
  8
0
 10
186.74179600
 20
77.50090276
  0
VERTEX
  8
0
 10
186.88785696
 20
78.23545290
  0
VERTEX
  8
0
 10
187.06047447
 20
78.97785920
  0
VERTEX
  8
0
 10
187.25964852
 20
79.72812164
  0
VERTEX
  8
0
 10
187.48316606
 20
80.48427620
  0
VERTEX
  8
0
 10
187.72881405
 20
81.24435884
  0
VERTEX
  8
0
 10
187.99659250
 20
82.00836955
  0
VERTEX
  8
0
 10
188.28650139
 20
82.77630834
  0
VERTEX
  8
0
 10
188.59854073
 20
83.54817520
  0
VERTEX
  8
0
 10
188.93271052
 20
84.32397014
  0
VERTEX
  8
0
 10
189.28901076
 20
85.10369315
  0
VERTEX
  8
0
 10
189.66744145
 20
85.88734424
  0
VERTEX
  8
0
 10
190.19469941
 20
86.87378224
  0
VERTEX
  8
0
 10
190.74962044
 20
87.85334610
  0
VERTEX
  8
0
 10
191.33220453
 20
88.82603583
  0
VERTEX
  8
0
 10
191.94245168
 20
89.79185143
  0
VERTEX
  8
0
 10
192.58036189
 20
90.75079289
  0
VERTEX
  8
0
 10
193.24593517
 20
91.70286023
  0
VERTEX
  8
0
 10
193.93917151
 20
92.64805343
  0
VERTEX
  8
0
 10
194.66007091
 20
93.58637250
  0
VERTEX
  8
0
 10
195.40863337
 20
94.51781743
  0
VERTEX
  8
0
 10
196.18485889
 20
95.44238824
  0
VERTEX
  8
0
 10
196.98874748
 20
96.36008491
  0
VERTEX
  8
0
 10
197.82029913
 20
97.27090744
  0
VERTEX
  8
0
 10
198.67951384
 20
98.17485585
  0
VERTEX
  8
0
 10
199.56639161
 20
99.07193013
  0
VERTEX
  8
0
 10
200.48093244
 20
99.96213027
  0
VERTEX
  8
0
 10
201.42313634
 20
100.84545628
  0
VERTEX
  8
0
 10
202.38249134
 20
101.70619585
  0
VERTEX
  8
0
 10
203.34848547
 20
102.52863669
  0
VERTEX
  8
0
 10
204.32111873
 20
103.31277879
  0
VERTEX
  8
0
 10
205.30039113
 20
104.05862215
  0
VERTEX
  8
0
 10
206.28630267
 20
104.76616677
  0
VERTEX
  8
0
 10
207.27885334
 20
105.43541266
  0
VERTEX
  8
0
 10
208.27804314
 20
106.06635981
  0
VERTEX
  8
0
 10
209.28387208
 20
106.65900822
  0
VERTEX
  8
0
 10
210.29634016
 20
107.21335790
  0
VERTEX
  8
0
 10
211.31544737
 20
107.72940883
  0
VERTEX
  8
0
 10
212.34119371
 20
108.20716103
  0
VERTEX
  8
0
 10
213.37357919
 20
108.64661449
  0
VERTEX
  8
0
 10
214.41260381
 20
109.04776922
  0
VERTEX
  8
0
 10
215.45826755
 20
109.41062521
  0
VERTEX
  8
0
 10
216.51057044
 20
109.73518246
  0
VERTEX
  8
0
 10
217.56951246
 20
110.02144097
  0
VERTEX
  8
0
 10
218.21572159
 20
110.13928324
  0
VERTEX
  8
0
 10
218.87963508
 20
110.24141320
  0
VERTEX
  8
0
 10
219.56125293
 20
110.32783087
  0
VERTEX
  8
0
 10
220.26057514
 20
110.39853623
  0
VERTEX
  8
0
 10
220.95989736
 20
110.50852235
  0
VERTEX
  8
0
 10
221.64151521
 20
110.58708386
  0
VERTEX
  8
0
 10
222.30542870
 20
110.63422077
  0
VERTEX
  8
0
 10
222.95163783
 20
110.64993307
  0
VERTEX
  8
0
 10
223.84128191
 20
110.63029269
  0
VERTEX
  8
0
 10
224.66896073
 20
110.57137156
  0
VERTEX
  8
0
 10
225.43467429
 20
110.47316967
  0
VERTEX
  8
0
 10
226.13842259
 20
110.33568702
  0
VERTEX
  8
0
 10
226.78020563
 20
110.15892362
  0
VERTEX
  8
0
 10
227.36002341
 20
109.94287946
  0
VERTEX
  8
0
 10
227.62669533
 20
109.82012709
  0
VERTEX
  8
0
 10
227.87787594
 20
109.68755454
  0
VERTEX
  8
0
 10
228.11356523
 20
109.54516180
  0
VERTEX
  8
0
 10
228.33376320
 20
109.39294887
  0
VERTEX
  8
0
 10
228.77637220
 20
109.10423531
  0
VERTEX
  8
0
 10
229.18357247
 20
108.80373752
  0
VERTEX
  8
0
 10
229.55536403
 20
108.49145551
  0
VERTEX
  8
0
 10
229.89174686
 20
108.16738927
  0
VERTEX
  8
0
 10
230.19272098
 20
107.83153880
  0
VERTEX
  8
0
 10
230.45828638
 20
107.48390411
  0
VERTEX
  8
0
 10
230.68844305
 20
107.12448518
  0
VERTEX
  8
0
 10
230.88319101
 20
106.75328204
  0
VERTEX
  8
0
 10
231.00712153
 20
106.43903599
  0
VERTEX
  8
0
 10
231.09564333
 20
106.12478993
  0
VERTEX
  8
0
 10
231.14875641
 20
105.81054388
  0
VERTEX
  8
0
 10
231.16646077
 20
105.49629783
  0
VERTEX
  8
0
 10
231.22842603
 20
105.24490099
  0
VERTEX
  8
0
 10
231.27268693
 20
104.99350415
  0
VERTEX
  8
0
 10
231.29924346
 20
104.74210731
  0
VERTEX
  8
0
 10
231.30809564
 20
104.49071047
  0
VERTEX
  8
0
 10
231.28817824
 20
104.01148524
  0
VERTEX
  8
0
 10
231.22842603
 20
103.51654771
  0
VERTEX
  8
0
 10
231.12883900
 20
103.00589788
  0
VERTEX
  8
0
 10
230.98941717
 20
102.47953574
  0
VERTEX
  8
0
 10
230.81016053
 20
101.93746130
  0
VERTEX
  8
0
 10
230.59106907
 20
101.37967456
  0
VERTEX
  8
0
 10
230.33214281
 20
100.80617552
  0
VERTEX
  8
0
 10
230.03338174
 20
100.21696417
  0
VERTEX
  8
0
 10
229.70142500
 20
99.65132128
  0
VERTEX
  8
0
 10
229.34291171
 20
99.08567839
  0
VERTEX
  8
0
 10
228.95784188
 20
98.52003550
  0
VERTEX
  8
0
 10
228.54621552
 20
97.95439261
  0
VERTEX
  8
0
 10
228.10803262
 20
97.38874971
  0
VERTEX
  8
0
 10
227.64329317
 20
96.82310682
  0
VERTEX
  8
0
 10
227.15199719
 20
96.25746393
  0
VERTEX
  8
0
 10
226.63414466
 20
95.69182104
  0
VERTEX
  8
0
 10
225.67810924
 20
94.66070118
  0
VERTEX
  8
0
 10
224.65125637
 20
93.64136555
  0
VERTEX
  8
0
 10
223.55358606
 20
92.63381415
  0
VERTEX
  8
0
 10
222.38509832
 20
91.63804698
  0
VERTEX
  8
0
 10
221.14579313
 20
90.65406403
  0
VERTEX
  8
0
 10
219.83567051
 20
89.68186531
  0
VERTEX
  8
0
 10
218.45473045
 20
88.72145082
  0
VERTEX
  8
0
 10
217.00297295
 20
87.77282055
  0
VERTEX
  8
0
 10
215.51138063
 20
86.88703949
  0
VERTEX
  8
0
 10
214.01093614
 20
86.05232342
  0
VERTEX
  8
0
 10
212.50163947
 20
85.26867233
  0
VERTEX
  8
0
 10
210.98349062
 20
84.53608622
  0
VERTEX
  8
0
 10
209.45648959
 20
83.85456510
  0
VERTEX
  8
0
 10
207.92063638
 20
83.22410896
  0
VERTEX
  8
0
 10
206.37593099
 20
82.64471780
  0
VERTEX
  8
0
 10
204.82237342
 20
82.11639163
  0
VERTEX
  8
0
 10
204.10534685
 20
81.87285094
  0
VERTEX
  8
0
 10
203.37061592
 20
81.64502255
  0
VERTEX
  8
0
 10
202.61818063
 20
81.43290647
  0
VERTEX
  8
0
 10
201.84804098
 20
81.23650269
  0
VERTEX
  8
0
 10
199.01534341
 20
80.73370901
  0
VERTEX
  8
0
 10
199.01534341
 20
80.10521690
  0
VERTEX
  8
0
 10
199.01534341
 20
79.60242322
  0
VERTEX
  8
0
 10
199.01534341
 20
78.09404218
  0
VERTEX
  8
0
 10
199.09501303
 20
77.71694692
  0
VERTEX
  8
0
 10
199.19238701
 20
77.33985165
  0
VERTEX
  8
0
 10
199.30746535
 20
76.96275639
  0
VERTEX
  8
0
 10
199.44024805
 20
76.58566113
  0
VERTEX
  8
0
 10
199.59958728
 20
76.05537092
  0
VERTEX
  8
0
 10
199.79433524
 20
75.53293686
  0
VERTEX
  8
0
 10
200.02449192
 20
75.01835895
  0
VERTEX
  8
0
 10
200.29005732
 20
74.51163719
  0
VERTEX
  8
0
 10
200.59103143
 20
74.01277159
  0
VERTEX
  8
0
 10
200.92741427
 20
73.52176213
  0
VERTEX
  8
0
 10
201.29920582
 20
73.03860883
  0
VERTEX
  8
0
 10
201.70640610
 20
72.56331168
  0
VERTEX
  8
0
 10
201.94430843
 20
72.35021357
  0
VERTEX
  8
0
 10
202.19770208
 20
72.15086374
  0
VERTEX
  8
0
 10
202.46658705
 20
71.96526216
  0
VERTEX
  8
0
 10
202.75096332
 20
71.79340885
  0
VERTEX
  8
0
 10
203.05083092
 20
71.63530381
  0
VERTEX
  8
0
 10
203.36618983
 20
71.49094703
  0
VERTEX
  8
0
 10
203.69704005
 20
71.36033851
  0
VERTEX
  8
0
 10
204.04338159
 20
71.24347826
  0
VERTEX
  8
0
 10
204.40521444
 20
71.14036628
  0
VERTEX
  8
0
 10
204.78253861
 20
71.05100256
  0
VERTEX
  8
0
 10
205.17535409
 20
70.97538710
  0
VERTEX
  8
0
 10
205.58366089
 20
70.91351991
  0
VERTEX
  8
0
 10
206.00745900
 20
70.86540098
  0
VERTEX
  8
0
 10
206.44674843
 20
70.83103032
  0
VERTEX
  8
0
 10
207.37180123
 20
70.80353379
  0
VERTEX
  8
0
 10
207.95604510
 20
70.81924609
  0
VERTEX
  8
0
 10
208.57569769
 20
70.86638300
  0
VERTEX
  8
0
 10
209.23075900
 20
70.94494451
  0
VERTEX
  8
0
 10
209.92122903
 20
71.05493063
  0
VERTEX
  8
0
 10
210.62055125
 20
71.25133441
  0
VERTEX
  8
0
 10
211.30216910
 20
71.46345050
  0
VERTEX
  8
0
 10
211.96608259
 20
71.69127889
  0
VERTEX
  8
0
 10
212.61229172
 20
71.93481958
  0
VERTEX
  8
0
 10
213.70996203
 20
72.31191484
  0
VERTEX
  8
0
 10
214.73681489
 20
72.68901010
  0
VERTEX
  8
0
 10
215.83448520
 20
73.16037917
  0
VERTEX
  8
0
 10
216.86133807
 20
73.56889904
  0
VERTEX
  8
0
 10
219.69403563
 20
74.95158167
  0
VERTEX
  8
0
 10
220.89793210
 20
75.61149837
  0
VERTEX
  8
0
 10
221.67692393
 20
76.08286745
  0
VERTEX
  8
0
 10
223.99619506
 20
77.41841317
  0
VERTEX
  8
0
 10
225.85515283
 20
78.53398665
  0
VERTEX
  8
0
 10
226.61201421
 20
79.00928380
  0
VERTEX
  8
0
 10
227.25379726
 20
79.42958789
  0
VERTEX
  8
0
 10
227.78050196
 20
79.79489893
  0
VERTEX
  8
0
 10
228.19212832
 20
80.10521690
  0
VERTEX
  8
0
 10
228.84718964
 20
80.60801059
  0
VERTEX
  8
0
 10
229.39602479
 20
80.98510585
  0
VERTEX
  8
0
 10
229.83863378
 20
81.23650269
  0
VERTEX
  8
0
 10
230.02010347
 20
81.31506420
  0
VERTEX
  8
0
 10
230.17501662
 20
81.36220111
  0
VERTEX
  8
0
 10
230.31665150
 20
81.45647492
  0
VERTEX
  8
0
 10
230.38746894
 20
81.48004338
  0
VERTEX
  8
0
 10
230.45828638
 20
81.48789953
  0
VERTEX
  8
0
 10
230.74155613
 20
81.48789953
  0
VERTEX
  8
0
 10
230.84335620
 20
81.48004338
  0
VERTEX
  8
0
 10
230.93630409
 20
81.45647492
  0
VERTEX
  8
0
 10
231.02039980
 20
81.41719417
  0
VERTEX
  8
0
 10
231.09564333
 20
81.36220111
  0
VERTEX
  8
0
 10
231.16203468
 20
81.29149575
  0
VERTEX
  8
0
 10
231.21957385
 20
81.20507808
  0
VERTEX
  8
0
 10
231.30809564
 20
80.98510585
  0
VERTEX
  8
0
 10
231.37448699
 20
80.88101184
  0
VERTEX
  8
0
 10
231.43202616
 20
80.75727746
  0
VERTEX
  8
0
 10
231.52054796
 20
80.45088756
  0
VERTEX
  8
0
 10
231.57366104
 20
80.06593615
  0
VERTEX
  8
0
 10
231.59136540
 20
79.60242322
  0
VERTEX
  8
0
 10
231.57808713
 20
79.46886865
  0
VERTEX
  8
0
 10
231.53825232
 20
79.31960178
  0
VERTEX
  8
0
 10
231.47186097
 20
79.15462260
  0
VERTEX
  8
0
 10
231.37891308
 20
78.97393112
  0
VERTEX
  8
0
 10
231.11334769
 20
78.56541125
  0
VERTEX
  8
0
 10
230.74155613
 20
78.09404218
  0
VERTEX
  8
0
 10
230.17501662
 20
77.47340623
  0
VERTEX
  8
0
 10
229.32520735
 20
76.61708574
  0
VERTEX
  8
0
 10
228.19212832
 20
75.52508071
  0
VERTEX
  8
0
 10
226.77577954
 20
74.19739114
  0
VERTEX
  8
0
 10
226.13842259
 20
73.58461134
  0
VERTEX
  8
0
 10
225.35943076
 20
72.87755773
  0
VERTEX
  8
0
 10
224.43880405
 20
72.07623030
  0
VERTEX
  8
0
 10
223.37654246
 20
71.18062905
  0
VERTEX
  8
0
 10
222.27887216
 20
70.28502781
  0
VERTEX
  8
0
 10
221.11038441
 20
69.35800196
  0
VERTEX
  8
0
 10
219.87107923
 20
68.39955150
  0
VERTEX
  8
0
 10
218.56095661
 20
67.40967644
  0
VERTEX
  8
0
 10
217.18886872
 20
66.41980138
  0
VERTEX
  8
0
 10
215.76366776
 20
65.46135092
  0
VERTEX
  8
0
 10
214.28535372
 20
64.53432507
  0
VERTEX
  8
0
 10
212.75392660
 20
63.63872383
  0
VERTEX
  8
0
 10
211.42959593
 20
62.96693439
  0
VERTEX
  8
0
 10
210.10499790
 20
62.34049390
  0
VERTEX
  8
0
 10
208.77986516
 20
61.75934273
  0
VERTEX
  8
0
 10
207.45393034
 20
61.22342126
  0
VERTEX
  8
0
 10
231.51814895
 20
61.23107690
  0
VERTEX
  8
0
 10
231.61525954
 20
61.80614516
  0
VERTEX
  8
0
 10
231.73098801
 20
62.39214577
  0
VERTEX
  8
0
 10
232.03196213
 20
63.45272619
  0
VERTEX
  8
0
 10
232.36834496
 20
64.49759431
  0
VERTEX
  8
0
 10
232.74013652
 20
65.52675013
  0
VERTEX
  8
0
 10
233.14733680
 20
66.54019364
  0
VERTEX
  8
0
 10
233.62756755
 20
67.60470214
  0
VERTEX
  8
0
 10
234.14763312
 20
68.66135449
  0
VERTEX
  8
0
 10
234.70753350
 20
69.71015068
  0
VERTEX
  8
0
 10
235.30726869
 20
70.75109073
  0
VERTEX
  8
0
 10
235.94683868
 20
71.78417462
  0
VERTEX
  8
0
 10
236.62624349
 20
72.80940236
  0
VERTEX
  8
0
 10
237.34548311
 20
73.82677395
  0
VERTEX
  8
0
 10
238.10455753
 20
74.83628939
  0
VERTEX
  8
0
 10
238.88576241
 20
75.82616445
  0
VERTEX
  8
0
 10
239.67139337
 20
76.78461491
  0
VERTEX
  8
0
 10
240.46145043
 20
77.71164076
  0
VERTEX
  8
0
 10
241.25593357
 20
78.60724200
  0
VERTEX
  8
0
 10
242.05484281
 20
79.47141864
  0
VERTEX
  8
0
 10
242.85817813
 20
80.30417068
  0
VERTEX
  8
0
 10
243.66593955
 20
81.10549811
  0
VERTEX
  8
0
 10
244.47812705
 20
81.87540094
  0
VERTEX
  8
0
 10
245.89447583
 20
83.10096053
  0
VERTEX
  8
0
 10
247.31082462
 20
84.26367092
  0
VERTEX
  8
0
 10
248.01014683
 20
84.80574536
  0
VERTEX
  8
0
 10
248.69176468
 20
85.30068289
  0
VERTEX
  8
0
 10
249.35567817
 20
85.74848352
  0
VERTEX
  8
0
 10
250.00188730
 20
86.14914723
  0
VERTEX
  8
0
 10
260.34123341
 20
103.36983083
  0
VERTEX
  8
0
 10
258.96029335
 20
102.30139426
  0
VERTEX
  8
0
 10
258.29637986
 20
101.81431288
  0
VERTEX
  8
0
 10
257.65017073
 20
101.35865610
  0
VERTEX
  8
0
 10
255.38401267
 20
99.85027506
  0
VERTEX
  8
0
 10
255.31319524
 20
99.84241891
  0
VERTEX
  8
0
 10
255.24237780
 20
99.81885045
  0
VERTEX
  8
0
 10
255.10074292
 20
99.72457664
  0
VERTEX
  8
0
 10
254.92369932
 20
99.59887822
  0
VERTEX
  8
0
 10
254.67583828
 20
99.47317980
  0
VERTEX
  8
0
 10
253.54275926
 20
98.71898927
  0
VERTEX
  8
0
 10
252.94081103
 20
98.34189401
  0
VERTEX
  8
0
 10
252.26804535
 20
97.96479875
  0
VERTEX
  8
0
 10
251.90510598
 20
97.73697036
  0
VERTEX
  8
0
 10
251.38282737
 20
97.43058046
  0
VERTEX
  8
0
 10
249.86025242
 20
96.58211613
  0
VERTEX
  8
0
 10
248.05440773
 20
95.54510416
  0
VERTEX
  8
0
 10
246.03611071
 20
94.44524298
  0
VERTEX
  8
0
 10
245.85906711
 20
94.31954456
  0
VERTEX
  8
0
 10
245.61120608
 20
94.19384614
  0
VERTEX
  8
0
 10
245.54038864
 20
94.18598999
  0
VERTEX
  8
0
 10
245.46957120
 20
94.16242153
  0
VERTEX
  8
0
 10
245.32793632
 20
94.06814772
  0
VERTEX
  8
0
 10
243.23882187
 20
92.96828654
  0
VERTEX
  8
0
 10
241.22052485
 20
91.93127457
  0
VERTEX
  8
0
 10
240.30875032
 20
91.48347395
  0
VERTEX
  8
0
 10
239.55631503
 20
91.14565944
  0
VERTEX
  8
0
 10
238.96321898
 20
90.91783106
  0
VERTEX
  8
0
 10
238.72642317
 20
90.84516166
  0
VERTEX
  8
0
 10
238.52946217
 20
90.79998879
  0
VERTEX
  8
0
 10
238.38782729
 20
90.79998879
  0
VERTEX
  8
0
 10
238.24619241
 20
90.79998879
  0
VERTEX
  8
0
 10
237.96292265
 20
90.79998879
  0
VERTEX
  8
0
 10
237.67965290
 20
90.79998879
  0
VERTEX
  8
0
 10
237.53801802
 20
90.79998879
  0
VERTEX
  8
0
 10
237.42335844
 20
90.84691725
  0
VERTEX
  8
0
 10
237.36805114
 20
90.87350640
  0
VERTEX
  8
0
 10
237.32057271
 20
90.90996207
  0
VERTEX
  8
0
 10
237.28238069
 20
90.97704346
  0
VERTEX
  8
0
 10
237.25474826
 20
91.05138563
  0
VERTEX
  8
0
 10
237.25474826
 20
91.30278247
  0
VERTEX
  8
0
 10
237.25474826
 20
91.55417931
  0
VERTEX
  8
0
 10
237.26360044
 20
91.61702852
  0
VERTEX
  8
0
 10
237.29015698
 20
91.67987773
  0
VERTEX
  8
0
 10
237.39638314
 20
91.80557615
  0
VERTEX
  8
0
 10
237.48213863
 20
91.95238798
  0
VERTEX
  8
0
 10
237.59777023
 20
92.11000201
  0
VERTEX
  8
0
 10
237.91866175
 20
92.45763671
  0
VERTEX
  8
0
 10
238.35905770
 20
92.84848023
  0
VERTEX
  8
0
 10
238.91895808
 20
93.28253259
  0
VERTEX
  8
0
 10
239.59836289
 20
93.75979378
  0
VERTEX
  8
0
 10
240.39727212
 20
94.28026380
  0
VERTEX
  8
0
 10
241.31568579
 20
94.84394266
  0
VERTEX
  8
0
 10
242.35360388
 20
95.45083034
  0
VERTEX
  8
0
 10
242.92954883
 20
95.79355494
  0
VERTEX
  8
0
 10
243.55971339
 20
96.19323664
  0
VERTEX
  8
0
 10
244.24409755
 20
96.64987543
  0
VERTEX
  8
0
 10
244.98270131
 20
97.16347132
  0
VERTEX
  8
0
 10
246.62256763
 20
98.36153439
  0
VERTEX
  8
0
 10
248.47931236
 20
99.78742585
  0
VERTEX
  8
0
 10
250.55293550
 20
101.44114569
  0
VERTEX
  8
0
 10
252.84343705
 20
103.32269392
  0
VERTEX
  8
0
 10
255.35081700
 20
105.43207054
  0
VERTEX
  8
0
 10
258.07507536
 20
107.76927555
  0
VERTEX
  8
0
 10
259.49142414
 20
109.02625975
  0
VERTEX
  8
0
 10
260.44745957
 20
109.90614869
  0
VERTEX
  8
0
 10
261.33267756
 20
110.78603764
  0
VERTEX
  8
0
 10
262.02314759
 20
111.35168053
  0
VERTEX
  8
0
 10
262.67820890
 20
111.91732342
  0
VERTEX
  8
0
 10
263.29786149
 20
112.48296631
  0
VERTEX
  8
0
 10
263.88210537
 20
113.04860920
  0
VERTEX
  8
0
 10
265.44008903
 20
114.43129183
  0
VERTEX
  8
0
 10
267.42297732
 20
116.56816498
  0
VERTEX
  8
0
 10
268.06033427
 20
117.22808168
  0
VERTEX
  8
0
 10
268.55605635
 20
117.69945076
  0
VERTEX
  8
0
 10
268.83932611
 20
117.86442994
  0
VERTEX
  8
0
 10
269.12259586
 20
117.98227221
  0
VERTEX
  8
0
 10
269.40586562
 20
118.05297757
  0
VERTEX
  8
0
 10
269.68913537
 20
118.07654602
  0
VERTEX
  8
0
 10
270.00781385
 20
118.13153908
  0
VERTEX
  8
0
 10
270.39730977
 20
118.17081984
  0
VERTEX
  8
0
 10
270.85762312
 20
118.19438829
  0
VERTEX
  8
0
 10
271.38875391
 20
118.20224444
  0
VERTEX
  8
0
 10
272.03496304
 20
118.19438829
  0
VERTEX
  8
0
 10
272.62805910
 20
118.17081984
  0
VERTEX
  8
0
 10
273.16804207
 20
118.13153908
  0
VERTEX
  8
0
 10
273.65491196
 20
118.07654602
  0
VERTEX
  8
0
 10
274.08866878
 20
118.00584066
  0
VERTEX
  8
0
 10
274.46931251
 20
117.91942300
  0
VERTEX
  8
0
 10
274.79684317
 20
117.81729303
  0
VERTEX
  8
0
 10
275.07126075
 20
117.69945076
  0
VERTEX
  8
0
 10
275.34125223
 20
117.57178830
  0
VERTEX
  8
0
 10
275.58468718
 20
117.44019777
  0
VERTEX
  8
0
 10
275.80156559
 20
117.30467916
  0
VERTEX
  8
0
 10
275.99188745
 20
117.16523247
  0
VERTEX
  8
0
 10
276.15565278
 20
117.02185771
  0
VERTEX
  8
0
 10
276.29286157
 20
116.87455488
  0
VERTEX
  8
0
 10
276.40351382
 20
116.72332396
  0
VERTEX
  8
0
 10
276.48760953
 20
116.56816498
  0
VERTEX
  8
0
 10
276.54957479
 20
116.44246656
  0
VERTEX
  8
0
 10
276.59383569
 20
116.31676814
  0
VERTEX
  8
0
 10
276.62039223
 20
116.19106972
  0
VERTEX
  8
0
 10
276.62924441
 20
116.06537129
  0
VERTEX
  8
0
 10
276.62924441
 20
115.56257761
  0
VERTEX
  8
0
 10
276.62924441
 20
115.43687919
  0
VERTEX
  8
0
 10
276.62039223
 20
115.13048929
  0
VERTEX
  8
0
 10
276.59383569
 20
114.83981170
  0
VERTEX
  8
0
 10
276.54957479
 20
114.56484640
  0
VERTEX
  8
0
 10
276.48760953
 20
114.30559341
  0
VERTEX
  8
0
 10
276.46990517
 20
114.11704578
  0
VERTEX
  8
0
 10
276.41679209
 20
113.92849815
  0
VERTEX
  8
0
 10
276.32827029
 20
113.73995052
  0
VERTEX
  8
0
 10
276.20433977
 20
113.55140289
  0
VERTEX
  8
0
 10
275.95205265
 20
113.10753034
  0
VERTEX
  8
0
 10
275.62009590
 20
112.59295243
  0
VERTEX
  8
0
 10
275.20846953
 20
112.00766916
  0
VERTEX
  8
0
 10
274.71717355
 20
111.35168053
  0
VERTEX
  8
0
 10
274.14620795
 20
110.62498654
  0
VERTEX
  8
0
 10
273.49557273
 20
109.82758718
  0
VERTEX
  8
0
 10
271.95529343
 20
108.02067239
  0
VERTEX
  8
0
 10
271.51545074
 20
107.50854953
  0
VERTEX
  8
0
 10
271.04573194
 20
106.91491909
  0
VERTEX
  8
0
 10
270.54613704
 20
106.23978109
  0
VERTEX
  8
0
 10
270.01666603
 20
105.48313552
  0
VERTEX
  8
0
 10
269.45731891
 20
104.64498238
  0
VERTEX
  8
0
 10
268.86809569
 20
103.72532168
  0
VERTEX
  8
0
 10
268.24899636
 20
102.72415340
  0
VERTEX
  8
0
 10
267.60002092
 20
101.64147755
  0
VERTEX
  8
0
 10
266.21244172
 20
99.23160315
  0
VERTEX
  8
0
 10
264.70535810
 20
96.49569846
  0
VERTEX
  8
0
 10
263.07877004
 20
93.43376350
  0
VERTEX
  8
0
 10
261.33267756
 20
90.04579826
  0
VERTEX
  8
0
 10
262.37723479
 20
90.21863359
  0
VERTEX
  8
0
 10
263.38638329
 20
90.36004431
  0
VERTEX
  8
0
 10
264.36012308
 20
90.47003043
  0
VERTEX
  8
0
 10
265.29845415
 20
90.54859195
  0
VERTEX
  8
0
 10
267.13970757
 20
90.64286576
  0
VERTEX
  8
0
 10
268.69769123
 20
90.67429037
  0
VERTEX
  8
0
 10
269.52979614
 20
90.66643421
  0
VERTEX
  8
0
 10
270.32649233
 20
90.64286576
  0
VERTEX
  8
0
 10
271.08777980
 20
90.60358500
  0
VERTEX
  8
0
 10
271.81365855
 20
90.54859195
  0
VERTEX
  8
0
 10
272.49527640
 20
90.53287964
  0
VERTEX
  8
0
 10
273.12378117
 20
90.48574274
  0
VERTEX
  8
0
 10
273.69917286
 20
90.40718122
  0
VERTEX
  8
0
 10
274.22145148
 20
90.29719510
  0
VERTEX
  8
0
 10
275.28371306
 20
91.80557615
  0
VERTEX
  8
0
 10
276.48760953
 20
93.56535404
  0
VERTEX
  8
0
 10
277.79773215
 20
95.48225495
  0
VERTEX
  8
0
 10
279.17867221
 20
97.46200507
  0
VERTEX
  8
0
 10
280.13470764
 20
98.68756467
  0
VERTEX
  8
0
 10
281.01992563
 20
99.85027506
  0
VERTEX
  8
0
 10
281.51564771
 20
100.46305486
  0
VERTEX
  8
0
 10
282.01136978
 20
101.04441005
  0
VERTEX
  8
0
 10
282.50709185
 20
101.59434064
  0
VERTEX
  8
0
 10
283.00281393
 20
102.11284663
  0
VERTEX
  8
0
 10
283.98540589
 20
103.25198856
  0
VERTEX
  8
0
 10
284.47006274
 20
103.78031473
  0
VERTEX
  8
0
 10
284.95029350
 20
104.28114438
  0
VERTEX
  8
0
 10
285.42609817
 20
104.75447749
  0
VERTEX
  8
0
 10
285.89747675
 20
105.20031408
  0
VERTEX
  8
0
 10
286.36442924
 20
105.61865413
  0
VERTEX
  8
0
 10
286.82695564
 20
106.00949766
  0
VERTEX
  8
0
 10
287.31603858
 20
106.36302447
  0
VERTEX
  8
0
 10
287.79184325
 20
106.66941437
  0
VERTEX
  8
0
 10
288.25436965
 20
106.92866736
  0
VERTEX
  8
0
 10
288.70361777
 20
107.14078344
  0
VERTEX
  8
0
 10
289.13958763
 20
107.30576262
  0
VERTEX
  8
0
 10
289.56227922
 20
107.42360489
  0
VERTEX
  8
0
 10
289.97169254
 20
107.49431025
  0
VERTEX
  8
0
 10
290.36782759
 20
107.51787870
  0
VERTEX
  8
0
 10
290.70863652
 20
107.49627429
  0
VERTEX
  8
0
 10
291.02288891
 20
107.43146104
  0
VERTEX
  8
0
 10
291.31058475
 20
107.32343896
  0
VERTEX
  8
0
 10
291.57172406
 20
107.17220805
  0
VERTEX
  8
0
 10
291.80630683
 20
106.97776830
  0
VERTEX
  8
0
 10
292.01433305
 20
106.74011973
  0
VERTEX
  8
0
 10
292.19580274
 20
106.45926232
  0
VERTEX
  8
0
 10
292.35071589
 20
106.13519608
  0
VERTEX
  8
0
 10
292.48571163
 20
105.81702195
  0
VERTEX
  8
0
 10
292.60742911
 20
105.49099168
  0
VERTEX
  8
0
 10
292.81102924
 20
104.81536267
  0
VERTEX
  8
0
 10
292.96151630
 20
104.10830905
  0
VERTEX
  8
0
 10
293.05889028
 20
103.36983083
  0
VERTEX
  8
0
 10
293.12085554
 20
102.99273557
  0
VERTEX
  8
0
 10
293.16511644
 20
102.61564031
  0
VERTEX
  8
0
 10
293.19167298
 20
102.23854505
  0
VERTEX
  8
0
 10
293.20052516
 20
101.86144979
  0
VERTEX
  8
0
 10
293.20052516
 20
100.60446558
  0
VERTEX
  8
0
 10
293.18282080
 20
99.83456276
  0
VERTEX
  8
0
 10
293.12970772
 20
99.15893375
  0
VERTEX
  8
0
 10
293.04118592
 20
98.57757855
  0
VERTEX
  8
0
 10
292.91725540
 20
98.09049717
  0
VERTEX
  8
0
 10
292.87299450
 20
97.90194954
  0
VERTEX
  8
0
 10
292.81102924
 20
97.71340191
  0
VERTEX
  8
0
 10
292.73135962
 20
97.52485428
  0
VERTEX
  8
0
 10
292.63398565
 20
97.33630665
  0
VERTEX
  8
0
 10
292.38612461
 20
96.95921139
  0
VERTEX
  8
0
 10
292.06744613
 20
96.58211613
  0
VERTEX
  8
0
 10
291.64254150
 20
96.29929468
  0
VERTEX
  8
0
 10
291.21763686
 20
95.95362402
  0
VERTEX
  8
0
 10
290.75732351
 20
95.57652876
  0
VERTEX
  8
0
 10
290.22619272
 20
95.19943350
  0
VERTEX
  8
0
 10
288.38493930
 20
93.56535404
  0
VERTEX
  8
0
 10
287.39349515
 20
92.65404049
  0
VERTEX
  8
0
 10
286.40205100
 20
91.67987773
  0
VERTEX
  8
0
 10
285.12733710
 20
90.39146892
  0
VERTEX
  8
0
 10
283.85262320
 20
89.04021090
  0
VERTEX
  8
0
 10
283.22411842
 20
88.34101344
  0
VERTEX
  8
0
 10
282.61331801
 20
87.62610367
  0
VERTEX
  8
0
 10
282.02022196
 20
86.89548160
  0
VERTEX
  8
0
 10
281.44483027
 20
86.14914723
  0
VERTEX
  8
0
 10
280.69239498
 20
85.14355987
  0
VERTEX
  8
0
 10
279.99307276
 20
84.13797250
  0
VERTEX
  8
0
 10
279.34686363
 20
83.13238514
  0
VERTEX
  8
0
 10
278.75376758
 20
82.12679778
  0
VERTEX
  8
0
 10
278.30230641
 20
81.15263502
  0
VERTEX
  8
0
 10
277.93936703
 20
80.24132147
  0
VERTEX
  8
0
 10
277.79109302
 20
79.80923315
  0
VERTEX
  8
0
 10
277.66494945
 20
79.39285713
  0
VERTEX
  8
0
 10
277.56093634
 20
78.99219342
  0
VERTEX
  8
0
 10
277.47905368
 20
78.60724200
  0
VERTEX
  8
0
 10
277.41708842
 20
78.47368743
  0
VERTEX
  8
0
 10
277.37282752
 20
78.32442056
  0
VERTEX
  8
0
 10
277.34627098
 20
78.15944138
  0
VERTEX
  8
0
 10
277.33741880
 20
77.97874990
  0
VERTEX
  8
0
 10
277.33741880
 20
77.47595622
  0
VERTEX
  8
0
 10
277.33741880
 20
77.22455938
  0
VERTEX
  8
0
 10
277.34627098
 20
77.16956632
  0
VERTEX
  8
0
 10
277.37282752
 20
77.13028556
  0
VERTEX
  8
0
 10
277.41708842
 20
77.10671711
  0
VERTEX
  8
0
 10
277.47905368
 20
77.09886096
  0
VERTEX
  8
0
 10
277.47905368
 20
76.84746412
  0
VERTEX
  8
0
 10
277.47905368
 20
76.59606728
  0
VERTEX
  8
0
 10
277.59634506
 20
76.17379915
  0
VERTEX
  8
0
 10
277.73576689
 20
75.78688370
  0
VERTEX
  8
0
 10
277.89731918
 20
75.43532093
  0
VERTEX
  8
0
 10
278.08100191
 20
75.11911084
  0
VERTEX
  8
0
 10
278.28681509
 20
74.83825343
  0
VERTEX
  8
0
 10
278.51475872
 20
74.59274870
  0
VERTEX
  8
0
 10
278.76483280
 20
74.38259665
  0
VERTEX
  8
0
 10
279.03703734
 20
74.20779729
  0
VERTEX
  8
0
 10
279.35792886
 20
74.06049445
  0
VERTEX
  8
0
 10
279.68324647
 20
73.93283199
  0
VERTEX
  8
0
 10
280.01299017
 20
73.82480991
  0
VERTEX
  8
0
 10
280.34715996
 20
73.73642821
  0
VERTEX
  8
0
 10
280.68575584
 20
73.66768689
  0
VERTEX
  8
0
 10
281.02877781
 20
73.61858594
  0
VERTEX
  8
0
 10
281.37622587
 20
73.58912538
  0
VERTEX
  8
0
 10
281.72810002
 20
73.57930519
  0
VERTEX
  8
0
 10
282.86117905
 20
73.57930519
  0
VERTEX
  8
0
 10
283.99425807
 20
73.83070203
  0
VERTEX
  8
0
 10
284.77324990
 20
73.97996890
  0
VERTEX
  8
0
 10
285.55224173
 20
74.17637268
  0
VERTEX
  8
0
 10
286.33123356
 20
74.41991337
  0
VERTEX
  8
0
 10
287.11022539
 20
74.71059097
  0
VERTEX
  8
0
 10
289.94292296
 20
76.09327359
  0
VERTEX
  8
0
 10
291.21763686
 20
76.84746412
  0
VERTEX
  8
0
 10
292.03353843
 20
77.32393757
  0
VERTEX
  8
0
 10
292.84469404
 20
77.80826340
  0
VERTEX
  8
0
 10
294.01024878
 20
78.55294717
  0
VERTEX
  8
0
 10
295.16847405
 20
79.30923176
  0
VERTEX
  8
0
 10
296.52401239
 20
80.27759845
  0
VERTEX
  8
0
 10
297.54818343
 20
81.01815332
  0
VERTEX
  8
0
 10
298.55731991
 20
81.77856682
  0
VERTEX
  8
0
 10
299.12832766
 20
82.24012168
  0
VERTEX
  8
0
 10
299.69499615
 20
82.71533862
  0
VERTEX
  8
0
 10
300.81862474
 20
83.67875434
  0
VERTEX
  8
0
 10
301.12664277
 20
84.35467057
  0
VERTEX
  8
0
 10
301.45405579
 20
85.03343357
  0
VERTEX
  8
0
 10
301.80085650
 20
85.71504539
  0
VERTEX
  8
0
 10
302.16703763
 20
86.39950811
  0
VERTEX
  8
0
 10
302.55259189
 20
87.08682379
  0
VERTEX
  8
0
 10
302.95751199
 20
87.77699451
  0
VERTEX
  8
0
 10
303.82542057
 20
89.16590932
  0
VERTEX
  8
0
 10
304.36761659
 20
90.03990615
  0
VERTEX
  8
0
 10
304.93194306
 20
90.90211875
  0
VERTEX
  8
0
 10
305.51839998
 20
91.75254713
  0
VERTEX
  8
0
 10
306.12698734
 20
92.59119128
  0
VERTEX
  8
0
 10
306.75770516
 20
93.41805120
  0
VERTEX
  8
0
 10
307.41055343
 20
94.23312689
  0
VERTEX
  8
0
 10
308.08553214
 20
95.03641836
  0
VERTEX
  8
0
 10
308.78264131
 20
95.82792560
  0
VERTEX
  8
0
 10
309.49302875
 20
96.62925303
  0
VERTEX
  8
0
 10
310.20784227
 20
97.39915586
  0
VERTEX
  8
0
 10
310.92708189
 20
98.13763408
  0
VERTEX
  8
0
 10
311.65074759
 20
98.84468769
  0
VERTEX
  8
0
 10
312.37883939
 20
99.52031670
  0
VERTEX
  8
0
 10
313.11135728
 20
100.16452111
  0
VERTEX
  8
0
 10
313.84830125
 20
100.77730091
  0
VERTEX
  8
0
 10
314.58967132
 20
101.35865610
  0
VERTEX
  8
0
 10
315.15399779
 20
101.81627692
  0
VERTEX
  8
0
 10
315.71389816
 20
102.24640120
  0
VERTEX
  8
0
 10
316.26937245
 20
102.64902895
  0
VERTEX
  8
0
 10
316.82042065
 20
103.02416017
  0
VERTEX
  8
0
 10
317.36704276
 20
103.37179487
  0
VERTEX
  8
0
 10
317.90923878
 20
103.69193303
  0
VERTEX
  8
0
 10
318.44700870
 20
103.98457467
  0
VERTEX
  8
0
 10
318.98035254
 20
104.24971977
  0
VERTEX
  8
0
 10
319.54246596
 20
104.51486488
  0
VERTEX
  8
0
 10
320.09572721
 20
104.74465730
  0
VERTEX
  8
0
 10
320.64013627
 20
104.93909705
  0
VERTEX
  8
0
 10
321.17569315
 20
105.09818411
  0
VERTEX
  8
0
 10
321.70239786
 20
105.22191849
  0
VERTEX
  8
0
 10
322.22025038
 20
105.31030020
  0
VERTEX
  8
0
 10
322.72925072
 20
105.36332922
  0
VERTEX
  8
0
 10
323.22939889
 20
105.38100556
  0
VERTEX
  8
0
 10
323.82028190
 20
105.36725729
  0
VERTEX
  8
0
 10
324.38903445
 20
105.32601250
  0
VERTEX
  8
0
 10
324.93565656
 20
105.25727117
  0
VERTEX
  8
0
 10
325.46014822
 20
105.16103332
  0
VERTEX
  8
0
 10
325.96250943
 20
105.03729894
  0
VERTEX
  8
0
 10
326.44274019
 20
104.88606803
  0
VERTEX
  8
0
 10
326.90084050
 20
104.70734059
  0
VERTEX
  8
0
 10
327.33681036
 20
104.50111661
  0
VERTEX
  8
0
 10
327.76835413
 20
104.27918034
  0
VERTEX
  8
0
 10
328.14235873
 20
104.05331599
  0
VERTEX
  8
0
 10
328.45882416
 20
103.82352357
  0
VERTEX
  8
0
 10
328.71775042
 20
103.58980307
  0
VERTEX
  8
0
 10
328.91913751
 20
103.35215449
  0
VERTEX
  8
0
 10
329.06298543
 20
103.11057784
  0
VERTEX
  8
0
 10
329.14929419
 20
102.86507311
  0
VERTEX
  8
0
 10
329.17806377
 20
102.61564031
  0
VERTEX
  8
0
 10
329.15372028
 20
102.28764599
  0
VERTEX
  8
0
 10
329.08068979
 20
101.93215515
  0
VERTEX
  8
0
 10
328.95897232
 20
101.54916777
  0
VERTEX
  8
0
 10
328.78856786
 20
101.13868387
  0
VERTEX
  8
0
 10
328.56947641
 20
100.70070343
  0
VERTEX
  8
0
 10
328.30169796
 20
100.23522647
  0
VERTEX
  8
0
 10
327.98523253
 20
99.74225298
  0
VERTEX
  8
0
 10
327.62008011
 20
99.22178296
  0
VERTEX
  8
0
 10
326.79682738
 20
98.13763408
  0
VERTEX
  8
0
 10
325.88505285
 20
97.02206060
  0
VERTEX
  8
0
 10
324.88475653
 20
95.87506251
  0
VERTEX
  8
0
 10
323.79593840
 20
94.69663982
  0
VERTEX
  8
0
 10
320.82160596
 20
92.05697299
  0
VERTEX
  8
0
 10
320.11343157
 20
91.44419319
  0
VERTEX
  8
0
 10
319.40525718
 20
90.86283800
  0
VERTEX
  8
0
 10
318.69708279
 20
90.31290741
  0
VERTEX
  8
0
 10
317.98890839
 20
89.79440142
  0
VERTEX
  8
0
 10
315.29784571
 20
87.90892512
  0
VERTEX
  8
0
 10
314.02313180
 20
87.18615920
  0
VERTEX
  8
0
 10
312.74841790
 20
86.52624249
  0
VERTEX
  8
0
 10
312.54481776
 20
86.45553713
  0
VERTEX
  8
0
 10
312.35892199
 20
86.36911947
  0
VERTEX
  8
0
 10
312.19073057
 20
86.26698950
  0
VERTEX
  8
0
 10
312.04024351
 20
86.14914723
  0
VERTEX
  8
0
 10
311.47370400
 20
85.89775039
  0
VERTEX
  8
0
 10
311.33206912
 20
85.89775039
  0
VERTEX
  8
0
 10
310.48225985
 20
85.39495671
  0
VERTEX
  8
0
 10
309.34918082
 20
84.76646461
  0
VERTEX
  8
0
 10
309.14558069
 20
84.25581477
  0
VERTEX
  8
0
 10
308.95968491
 20
83.72945264
  0
VERTEX
  8
0
 10
308.79149349
 20
83.18737820
  0
VERTEX
  8
0
 10
308.64100643
 20
82.62959146
  0
VERTEX
  8
0
 10
308.57904117
 20
82.12679778
  0
VERTEX
  8
0
 10
308.53478027
 20
81.62400409
  0
VERTEX
  8
0
 10
308.50822373
 20
81.12121041
  0
VERTEX
  8
0
 10
308.49937155
 20
80.61841673
  0
VERTEX
  8
0
 10
308.51707591
 20
79.99974482
  0
VERTEX
  8
0
 10
308.57018899
 20
79.40071328
  0
VERTEX
  8
0
 10
308.65871079
 20
78.82132213
  0
VERTEX
  8
0
 10
308.78264131
 20
78.26157135
  0
VERTEX
  8
0
 10
308.94198055
 20
77.72146095
  0
VERTEX
  8
0
 10
309.13672851
 20
77.20099093
  0
VERTEX
  8
0
 10
309.36688518
 20
76.70016128
  0
VERTEX
  8
0
 10
309.63245058
 20
76.21897202
  0
VERTEX
  8
0
 10
309.96219428
 20
75.77706351
  0
VERTEX
  8
0
 10
310.31406843
 20
75.39407613
  0
VERTEX
  8
0
 10
310.68807303
 20
75.07000989
  0
VERTEX
  8
0
 10
310.88337425
 20
74.93007220
  0
VERTEX
  8
0
 10
311.08420808
 20
74.80486479
  0
VERTEX
  8
0
 10
311.29057453
 20
74.69438766
  0
VERTEX
  8
0
 10
311.50247358
 20
74.59864081
  0
VERTEX
  8
0
 10
311.71990525
 20
74.51762425
  0
VERTEX
  8
0
 10
311.94286953
 20
74.45133798
  0
VERTEX
  8
0
 10
312.17136642
 20
74.39978199
  0
VERTEX
  8
0
 10
312.40539593
 20
74.36295628
  0
VERTEX
  8
0
 10
312.64495805
 20
74.34086085
  0
VERTEX
  8
0
 10
312.89005278
 20
74.33349571
  0
VERTEX
  8
0
 10
313.17774863
 20
74.34331590
  0
VERTEX
  8
0
 10
313.47429665
 20
74.37277647
  0
VERTEX
  8
0
 10
313.77969686
 20
74.42187741
  0
VERTEX
  8
0
 10
314.09394924
 20
74.49061873
  0
VERTEX
  8
0
 10
314.41705381
 20
74.57900044
  0
VERTEX
  8
0
 10
314.74901056
 20
74.68702252
  0
VERTEX
  8
0
 10
315.43948059
 20
74.96198781
  0
VERTEX
  8
0
 10
316.18306370
 20
75.30765847
  0
VERTEX
  8
0
 10
316.99746425
 20
75.71617833
  0
VERTEX
  8
0
 10
317.88268224
 20
76.18754741
  0
VERTEX
  8
0
 10
318.83871766
 20
76.72176570
  0
VERTEX
  8
0
 10
319.69737911
 20
77.24027168
  0
VERTEX
  8
0
 10
320.57374492
 20
77.79020227
  0
VERTEX
  8
0
 10
321.46781509
 20
78.37155747
  0
VERTEX
  8
0
 10
322.37958962
 20
78.98433727
  0
VERTEX
  8
0
 10
322.89301605
 20
79.32215177
  0
VERTEX
  8
0
 10
323.44185121
 20
79.70710318
  0
VERTEX
  8
0
 10
324.02609508
 20
80.13919150
  0
VERTEX
  8
0
 10
324.64574767
 20
80.61841673
  0
VERTEX
  8
0
 10
325.99127901
 20
81.71827791
  0
VERTEX
  8
0
 10
327.47844523
 20
83.00668672
  0
VERTEX
  8
0
 10
352.68945356
 20
105.12960872
  0
VERTEX
  8
0
 10
352.97272331
 20
105.38100556
  0
VERTEX
  8
0
 10
353.25599307
 20
105.63240240
  0
VERTEX
  8
0
 10
353.40648013
 20
105.81309388
  0
VERTEX
  8
0
 10
353.57467155
 20
105.97807305
  0
VERTEX
  8
0
 10
353.76056732
 20
106.12733993
  0
VERTEX
  8
0
 10
353.96416746
 20
106.26089450
  0
VERTEX
  8
0
 10
354.24743722
 20
106.37088062
  0
VERTEX
  8
0
 10
354.53070697
 20
106.44944213
  0
VERTEX
  8
0
 10
354.81397673
 20
106.49657904
  0
VERTEX
  8
0
 10
355.09724649
 20
106.51229134
  0
VERTEX
  8
0
 10
355.41592496
 20
106.48086674
  0
VERTEX
  8
0
 10
355.80542088
 20
106.38659292
  0
VERTEX
  8
0
 10
356.01787319
 20
106.30803141
  0
VERTEX
  8
0
 10
356.23032551
 20
106.19804529
  0
VERTEX
  8
0
 10
356.44277783
 20
106.05663457
  0
VERTEX
  8
0
 10
356.65523015
 20
105.88379924
  0
VERTEX
  8
0
 10
356.83006070
 20
105.74238852
  0
VERTEX
  8
0
 10
357.00046516
 20
105.56955319
  0
VERTEX
  8
0
 10
357.16644354
 20
105.36529325
  0
VERTEX
  8
0
 10
357.32799582
 20
105.12960872
  0
VERTEX
  8
0
 10
357.48512201
 20
104.86249957
  0
VERTEX
  8
0
 10
357.63782211
 20
104.56396582
  0
VERTEX
  8
0
 10
357.78609613
 20
104.23400747
  0
VERTEX
  8
0
 10
357.92994405
 20
103.87262451
  0
VERTEX
  8
0
 10
358.09592242
 20
103.50338540
  0
VERTEX
  8
0
 10
358.23977035
 20
103.08700938
  0
VERTEX
  8
0
 10
358.36148782
 20
102.62349646
  0
VERTEX
  8
0
 10
358.46107484
 20
102.11284663
  0
VERTEX
  8
0
 10
358.53853142
 20
101.55505989
  0
VERTEX
  8
0
 10
358.59385754
 20
100.95013624
  0
VERTEX
  8
0
 10
358.62705322
 20
100.29807568
  0
VERTEX
  8
0
 10
358.63811844
 20
99.59887822
  0
VERTEX
  8
0
 10
358.63811844
 20
98.97038612
  0
VERTEX
  8
0
 10
358.63811844
 20
98.46759243
  0
VERTEX
  8
0
 10
358.62926626
 20
98.28690095
  0
VERTEX
  8
0
 10
358.60270972
 20
98.12192178
  0
VERTEX
  8
0
 10
358.55844882
 20
97.97265490
  0
VERTEX
  8
0
 10
358.49648356
 20
97.83910033
  0
VERTEX
  8
0
 10
358.48763138
 20
97.71340191
  0
VERTEX
  8
0
 10
358.46107484
 20
97.58770349
  0
VERTEX
  8
0
 10
358.41681394
 20
97.46200507
  0
VERTEX
  8
0
 10
358.35484869
 20
97.33630665
  0
VERTEX
  8
0
 10
358.21321381
 20
97.21060823
  0
VERTEX
  8
0
 10
358.20436163
 20
97.14775902
  0
VERTEX
  8
0
 10
358.17780509
 20
97.08490981
  0
VERTEX
  8
0
 10
358.07157893
 20
96.95921139
  0
VERTEX
  8
0
 10
345.46607477
 20
84.76646461
  0
VERTEX
  8
0
 10
344.61626550
 20
84.01227408
  0
VERTEX
  8
0
 10
344.29758702
 20
83.60375422
  0
VERTEX
  8
0
 10
343.90809111
 20
83.13238514
  0
VERTEX
  8
0
 10
343.62703440
 20
82.77689429
  0
VERTEX
  8
0
 10
343.35040377
 20
82.40176307
  0
VERTEX
  8
0
 10
342.81042080
 20
81.59257949
  0
VERTEX
  8
0
 10
342.28814219
 20
80.70483439
  0
VERTEX
  8
0
 10
341.78356793
 20
79.73852779
  0
VERTEX
  8
0
 10
341.55119821
 20
79.25733852
  0
VERTEX
  8
0
 10
341.34981112
 20
78.75650888
  0
VERTEX
  8
0
 10
341.17940666
 20
78.23603886
  0
VERTEX
  8
0
 10
341.03998482
 20
77.69592846
  0
VERTEX
  8
0
 10
340.93154562
 20
77.13617768
  0
VERTEX
  8
0
 10
340.85408905
 20
76.55678652
  0
VERTEX
  8
0
 10
340.80761510
 20
75.95775499
  0
VERTEX
  8
0
 10
340.79212379
 20
75.33908307
  0
VERTEX
  8
0
 10
340.80540206
 20
74.84218150
  0
VERTEX
  8
0
 10
340.84523687
 20
74.35706416
  0
VERTEX
  8
0
 10
340.91162822
 20
73.88373105
  0
VERTEX
  8
0
 10
341.00457610
 20
73.42218216
  0
VERTEX
  8
0
 10
341.12408053
 20
72.97241750
  0
VERTEX
  8
0
 10
341.27014150
 20
72.53443707
  0
VERTEX
  8
0
 10
341.44275901
 20
72.10824086
  0
VERTEX
  8
0
 10
341.64193306
 20
71.69382888
  0
VERTEX
  8
0
 10
341.87208973
 20
71.34030207
  0
VERTEX
  8
0
 10
342.13765513
 20
71.03391217
  0
VERTEX
  8
0
 10
342.43862925
 20
70.77465918
  0
VERTEX
  8
0
 10
342.77501208
 20
70.56254310
  0
VERTEX
  8
0
 10
343.14680364
 20
70.39756392
  0
VERTEX
  8
0
 10
343.55400391
 20
70.27972165
  0
VERTEX
  8
0
 10
343.99661291
 20
70.20901629
  0
VERTEX
  8
0
 10
344.47463062
 20
70.18544783
  0
VERTEX
  8
0
 10
344.99690923
 20
70.20901629
  0
VERTEX
  8
0
 10
345.57230093
 20
70.27972165
  0
VERTEX
  8
0
 10
346.20080570
 20
70.39756392
  0
VERTEX
  8
0
 10
346.88242355
 20
70.56254310
  0
VERTEX
  8
0
 10
347.65256320
 20
70.82179609
  0
VERTEX
  8
0
 10
348.40499849
 20
71.09676138
  0
VERTEX
  8
0
 10
349.13972942
 20
71.38743898
  0
VERTEX
  8
0
 10
349.85675599
 20
71.69382888
  0
VERTEX
  8
0
 10
350.67115654
 20
72.07092414
  0
VERTEX
  8
0
 10
351.41473965
 20
72.44801940
  0
VERTEX
  8
0
 10
353.11435819
 20
73.20220992
  0
VERTEX
  8
0
 10
353.64548898
 20
73.45360677
  0
VERTEX
  8
0
 10
354.10580234
 20
73.70500361
  0
VERTEX
  8
0
 10
354.41488749
 20
73.87889698
  0
VERTEX
  8
0
 10
354.71992770
 20
74.07666588
  0
VERTEX
  8
0
 10
355.32947253
 20
74.48748211
  0
VERTEX
  8
0
 10
355.63977674
 20
74.67235533
  0
VERTEX
  8
0
 10
355.95763523
 20
74.82475589
  0
VERTEX
  8
0
 10
356.28594780
 20
74.93059674
  0
VERTEX
  8
0
 10
356.45493055
 20
74.96165507
  0
VERTEX
  8
0
 10
356.62761425
 20
74.97579083
  0
VERTEX
  8
0
 10
356.85095470
 20
74.95596124
  0
VERTEX
  8
0
 10
357.07216039
 20
74.88729148
  0
VERTEX
  8
0
 10
357.27381862
 20
74.77511317
  0
VERTEX
  8
0
 10
357.43851665
 20
74.62475791
  0
VERTEX
  8
0
 10
357.52277300
 20
74.47943013
  0
VERTEX
  8
0
 10
357.56760484
 20
74.31154375
  0
VERTEX
  8
0
 10
357.58722740
 20
74.13382642
  0
VERTEX
  8
0
 10
357.59585593
 20
73.95900581
  0
VERTEX
  8
0
 10
357.59050453
 20
73.80753635
  0
VERTEX
  8
0
 10
357.56749488
 20
73.65574272
  0
VERTEX
  8
0
 10
357.51113478
 20
73.35377663
  0
VERTEX
  8
0
 10
357.07148806
 20
72.67737525
  0
VERTEX
  8
0
 10
356.84548249
 20
72.34191975
  0
VERTEX
  8
0
 10
356.60340821
 20
72.02227243
  0
VERTEX
  8
0
 10
356.28824168
 20
71.65453505
  0
VERTEX
  8
0
 10
355.95815189
 20
71.29652125
  0
VERTEX
  8
0
 10
355.26776688
 20
70.60149182
  0
VERTEX
  8
0
 10
354.56138185
 20
69.92083915
  0
VERTEX
  8
0
 10
353.86812548
 20
69.23821821
  0
VERTEX
  8
0
 10
351.04804019
 20
66.94646777
  0
VERTEX
  8
0
 10
349.32832300
 20
65.55943698
  0
VERTEX
  8
0
 10
348.63877402
 20
65.01664381
  0
VERTEX
  8
0
 10
348.15713745
 20
64.65471733
  0
VERTEX
  8
0
 10
347.51092832
 20
64.15977980
  0
VERTEX
  8
0
 10
346.84701483
 20
63.68055458
  0
VERTEX
  8
0
 10
346.16539698
 20
63.21704165
  0
VERTEX
  8
0
 10
345.46607477
 20
62.76924103
  0
VERTEX
  8
0
 10
343.02987026
 20
61.20682699
  0
VERTEX
  8
0
 10
361.43223486
 20
61.27240696
  0
VERTEX
  8
0
 10
361.29385271
 20
61.76365366
  0
VERTEX
  8
0
 10
361.29385271
 20
62.01505051
  0
VERTEX
  8
0
 10
361.29385271
 20
62.39214577
  0
VERTEX
  8
0
 10
361.29385271
 20
62.76924103
  0
VERTEX
  8
0
 10
361.57712247
 20
63.52343155
  0
VERTEX
  8
0
 10
361.75416607
 20
64.05764984
  0
VERTEX
  8
0
 10
362.00202710
 20
64.65471733
  0
VERTEX
  8
0
 10
362.08169672
 20
64.90611418
  0
VERTEX
  8
0
 10
362.17907070
 20
65.15751102
  0
VERTEX
  8
0
 10
362.29414904
 20
65.40890786
  0
VERTEX
  8
0
 10
362.42693174
 20
65.66030470
  0
VERTEX
  8
0
 10
362.57741880
 20
65.97455075
  0
VERTEX
  8
0
 10
362.74561021
 20
66.28879680
  0
VERTEX
  8
0
 10
362.93150599
 20
66.60304285
  0
VERTEX
  8
0
 10
363.13510613
 20
66.91728890
  0
VERTEX
  8
0
 10
363.57771512
 20
67.65576712
  0
VERTEX
  8
0
 10
364.05573284
 20
68.36282074
  0
VERTEX
  8
0
 10
364.56915927
 20
69.03844975
  0
VERTEX
  8
0
 10
365.11799442
 20
69.68265415
  0
VERTEX
  8
0
 10
365.69338612
 20
70.34257086
  0
VERTEX
  8
0
 10
366.28648217
 20
70.93963836
  0
VERTEX
  8
0
 10
366.89728258
 20
71.47385664
  0
VERTEX
  8
0
 10
367.20932192
 20
71.71739733
  0
VERTEX
  8
0
 10
367.52578735
 20
71.94522572
  0
VERTEX
  8
0
 10
367.74709185
 20
72.12591720
  0
VERTEX
  8
0
 10
367.98610071
 20
72.29089638
  0
VERTEX
  8
0
 10
368.24281392
 20
72.44016325
  0
VERTEX
  8
0
 10
368.51723150
 20
72.57371782
  0
VERTEX
  8
0
 10
369.04836229
 20
72.79369006
  0
VERTEX
  8
0
 10
369.50867565
 20
72.95081308
  0
VERTEX
  8
0
 10
375.03243590
 20
73.70500361
  0
VERTEX
  8
0
 10
384.66360762
 20
82.12679778
  0
VERTEX
  8
0
 10
384.76983378
 20
82.94383751
  0
VERTEX
  8
0
 10
384.79639032
 20
83.30522047
  0
VERTEX
  8
0
 10
384.80524250
 20
83.63517882
  0
VERTEX
  8
0
 10
385.08851225
 20
85.01786145
  0
VERTEX
  8
0
 10
385.08851225
 20
85.64635355
  0
VERTEX
  8
0
 10
385.08851225
 20
86.52624249
  0
VERTEX
  8
0
 10
385.15047751
 20
86.71479012
  0
VERTEX
  8
0
 10
385.19473841
 20
86.90333775
  0
VERTEX
  8
0
 10
385.22129495
 20
87.09188538
  0
VERTEX
  8
0
 10
385.23014713
 20
87.28043301
  0
VERTEX
  8
0
 10
385.23014713
 20
88.16032196
  0
VERTEX
  8
0
 10
385.23014713
 20
88.41171880
  0
VERTEX
  8
0
 10
385.23014713
 20
88.78881406
  0
VERTEX
  8
0
 10
385.23014713
 20
89.04021090
  0
VERTEX
  8
0
 10
385.23014713
 20
89.41730616
  0
VERTEX
  8
0
 10
385.21465581
 20
90.35218816
  0
VERTEX
  8
0
 10
385.16818187
 20
91.20850865
  0
VERTEX
  8
0
 10
385.09072530
 20
91.98626763
  0
VERTEX
  8
0
 10
384.98228609
 20
92.68546509
  0
VERTEX
  8
0
 10
384.84286426
 20
93.30610104
  0
VERTEX
  8
0
 10
384.67245980
 20
93.84817548
  0
VERTEX
  8
0
 10
384.47107270
 20
94.31168841
  0
VERTEX
  8
0
 10
384.35876067
 20
94.51398430
  0
VERTEX
  8
0
 10
384.23870298
 20
94.69663982
  0
VERTEX
  8
0
 10
384.02182457
 20
95.02463414
  0
VERTEX
  8
0
 10
383.79609399
 20
95.31727577
  0
VERTEX
  8
0
 10
383.56151122
 20
95.57456473
  0
VERTEX
  8
0
 10
383.31807627
 20
95.79650100
  0
VERTEX
  8
0
 10
383.06578915
 20
95.98308459
  0
VERTEX
  8
0
 10
382.80464984
 20
96.13431550
  0
VERTEX
  8
0
 10
382.53465835
 20
96.25019374
  0
VERTEX
  8
0
 10
382.25581469
 20
96.33071929
  0
VERTEX
  8
0
 10
382.17614507
 20
96.38571234
  0
VERTEX
  8
0
 10
382.07877109
 20
96.42499310
  0
VERTEX
  8
0
 10
381.96369275
 20
96.44856155
  0
VERTEX
  8
0
 10
381.83091005
 20
96.45641771
  0
VERTEX
  8
0
 10
381.40600542
 20
96.45641771
  0
VERTEX
  8
0
 10
381.08953999
 20
96.44659752
  0
VERTEX
  8
0
 10
380.77750065
 20
96.41713695
  0
VERTEX
  8
0
 10
380.46988739
 20
96.36803600
  0
VERTEX
  8
0
 10
380.16670023
 20
96.29929468
  0
VERTEX
  8
0
 10
379.86793916
 20
96.21091298
  0
VERTEX
  8
0
 10
379.57360418
 20
96.10289090
  0
VERTEX
  8
0
 10
379.28369529
 20
95.97522844
  0
VERTEX
  8
0
 10
378.99821249
 20
95.82792560
  0
VERTEX
  8
0
 10
378.49363823
 20
95.56081646
  0
VERTEX
  8
0
 10
377.97135962
 20
95.26228271
  0
VERTEX
  8
0
 10
377.43137665
 20
94.93232436
  0
VERTEX
  8
0
 10
376.87368932
 20
94.57094140
  0
VERTEX
  8
0
 10
376.80287188
 20
94.56308525
  0
VERTEX
  8
0
 10
376.73205444
 20
94.53951679
  0
VERTEX
  8
0
 10
376.59041956
 20
94.44524298
  0
VERTEX
  8
0
 10
376.44878468
 20
94.31954456
  0
VERTEX
  8
0
 10
372.65022503
 20
91.48675743
  0
VERTEX
  8
0
 10
372.32508285
 20
91.32159929
  0
VERTEX
  8
0
 10
371.99946758
 20
91.12722270
  0
VERTEX
  8
0
 10
371.34687584
 20
90.67761217
  0
VERTEX
  8
0
 10
370.69256584
 20
90.19152189
  0
VERTEX
  8
0
 10
370.03665359
 20
89.72254788
  0
VERTEX
  8
0
 10
369.70813289
 20
89.51122824
  0
VERTEX
  8
0
 10
369.37925514
 20
89.32428618
  0
VERTEX
  8
0
 10
369.05003485
 20
89.16842121
  0
VERTEX
  8
0
 10
368.72048652
 20
89.05033283
  0
VERTEX
  8
0
 10
368.39062465
 20
88.97672055
  0
VERTEX
  8
0
 10
368.06046375
 20
88.95428386
  0
VERTEX
  8
0
 10
367.89527569
 20
88.96434997
  0
VERTEX
  8
0
 10
367.73001832
 20
88.98972228
  0
VERTEX
  8
0
 10
367.56469344
 20
89.03123825
  0
VERTEX
  8
0
 10
367.39930287
 20
89.08973531
  0
VERTEX
  8
0
 10
367.31049349
 20
89.14390352
  0
VERTEX
  8
0
 10
367.24158809
 20
89.22186985
  0
VERTEX
  8
0
 10
367.18970247
 20
89.31847917
  0
VERTEX
  8
0
 10
367.15195243
 20
89.42857641
  0
VERTEX
  8
0
 10
367.10732235
 20
89.66861420
  0
VERTEX
  8
0
 10
367.08462432
 20
89.90074241
  0
VERTEX
  8
0
 10
367.09193647
 20
90.12255322
  0
VERTEX
  8
0
 10
367.13833252
 20
90.34409799
  0
VERTEX
  8
0
 10
367.20023504
 20
90.56487363
  0
VERTEX
  8
0
 10
367.25406662
 20
90.78437702
  0
VERTEX
  8
0
 10
367.93183579
 20
92.62427372
  0
VERTEX
  8
0
 10
368.64709436
 20
93.57668955
  0
VERTEX
  8
0
 10
369.01246191
 20
94.04928994
  0
VERTEX
  8
0
 10
369.39630132
 20
94.50048418
  0
VERTEX
  8
0
 10
369.79159664
 20
94.91450797
  0
VERTEX
  8
0
 10
370.20681379
 20
95.31532475
  0
VERTEX
  8
0
 10
371.06665931
 20
96.07932244
  0
VERTEX
  8
0
 10
372.74988323
 20
97.51154518
  0
VERTEX
  8
0
 10
374.58235728
 20
99.04927228
  0
VERTEX
  8
0
 10
376.48674009
 20
100.61920670
  0
VERTEX
  8
0
 10
378.38569029
 20
102.14805143
  0
VERTEX
  8
0
 10
380.20186653
 20
103.56250944
  0
VERTEX
  8
0
 10
381.05474524
 20
104.20393811
  0
VERTEX
  8
0
 10
381.85792744
 20
104.78928371
  0
VERTEX
  8
0
 10
382.60174548
 20
105.30938412
  0
VERTEX
  8
0
 10
383.27653168
 20
105.75507721
  0
VERTEX
  8
0
 10
383.87261836
 20
106.11720085
  0
VERTEX
  8
0
 10
384.38033786
 20
106.38659292
  0
VERTEX
  8
0
 10
385.30096457
 20
106.82850143
  0
VERTEX
  8
0
 10
386.15077384
 20
107.21148881
  0
VERTEX
  8
0
 10
386.92976567
 20
107.53555505
  0
VERTEX
  8
0
 10
387.63794006
 20
107.80070015
  0
VERTEX
  8
0
 10
388.27529701
 20
108.00692412
  0
VERTEX
  8
0
 10
388.84183652
 20
108.15422696
  0
VERTEX
  8
0
 10
389.33755860
 20
108.24260866
  0
VERTEX
  8
0
 10
389.76246323
 20
108.27206923
  0
VERTEX
  8
0
 10
390.36441146
 20
108.24064462
  0
VERTEX
  8
0
 10
391.03717714
 20
108.14637081
  0
VERTEX
  8
0
 10
391.39126433
 20
108.07566545
  0
VERTEX
  8
0
 10
391.74535153
 20
107.98924778
  0
VERTEX
  8
0
 10
392.09943872
 20
107.88711782
  0
VERTEX
  8
0
 10
392.45352592
 20
107.76927555
  0
VERTEX
  8
0
 10
392.90941318
 20
107.55519542
  0
VERTEX
  8
0
 10
393.35644827
 20
107.29005032
  0
VERTEX
  8
0
 10
393.79463117
 20
106.97384023
  0
VERTEX
  8
0
 10
394.22396190
 20
106.60656516
  0
VERTEX
  8
0
 10
394.64444044
 20
106.18822510
  0
VERTEX
  8
0
 10
395.05606681
 20
105.71882006
  0
VERTEX
  8
0
 10
395.45884099
 20
105.19835004
  0
VERTEX
  8
0
 10
395.85276300
 20
104.62681503
  0
VERTEX
  8
0
 10
396.04087182
 20
104.31747908
  0
VERTEX
  8
0
 10
396.21570237
 20
103.98653871
  0
VERTEX
  8
0
 10
396.37725465
 20
103.63399392
  0
VERTEX
  8
0
 10
396.52552867
 20
103.25984471
  0
VERTEX
  8
0
 10
396.66052441
 20
102.86409109
  0
VERTEX
  8
0
 10
396.78224188
 20
102.44673306
  0
VERTEX
  8
0
 10
396.89068109
 20
102.00777060
  0
VERTEX
  8
0
 10
396.98584202
 20
101.54720373
  0
VERTEX
  8
0
 10
397.06772469
 20
101.06503245
  0
VERTEX
  8
0
 10
397.13632908
 20
100.56125675
  0
VERTEX
  8
0
 10
397.19165520
 20
100.03587663
  0
VERTEX
  8
0
 10
397.23370306
 20
99.48889210
  0
VERTEX
  8
0
 10
397.27796396
 20
98.33010979
  0
VERTEX
  8
0
 10
397.26911178
 20
97.08490981
  0
VERTEX
  8
0
 10
397.26911178
 20
95.45083034
  0
VERTEX
  8
0
 10
397.26025960
 20
95.05802278
  0
VERTEX
  8
0
 10
397.23370306
 20
94.63379061
  0
VERTEX
  8
0
 10
397.12747690
 20
93.69105246
  0
VERTEX
  8
0
 10
411.71586936
 20
103.24413241
  0
VERTEX
  8
0
 10
412.28240887
 20
103.49552925
  0
VERTEX
  8
0
 10
412.84894838
 20
103.99832293
  0
VERTEX
  8
0
 10
413.45089661
 20
104.24971977
  0
VERTEX
  8
0
 10
414.12366229
 20
104.50111661
  0
VERTEX
  8
0
 10
414.53971474
 20
104.66609579
  0
VERTEX
  8
0
 10
414.93806284
 20
104.78393806
  0
VERTEX
  8
0
 10
415.31870657
 20
104.85464342
  0
VERTEX
  8
0
 10
415.68164595
 20
104.87821188
  0
VERTEX
  8
0
 10
415.88524608
 20
104.85464342
  0
VERTEX
  8
0
 10
416.07114186
 20
104.78393806
  0
VERTEX
  8
0
 10
416.23933328
 20
104.66609579
  0
VERTEX
  8
0
 10
416.38982034
 20
104.50111661
  0
VERTEX
  8
0
 10
416.57571611
 20
104.36756204
  0
VERTEX
  8
0
 10
416.70849881
 20
104.21829517
  0
VERTEX
  8
0
 10
416.78816843
 20
104.05331599
  0
VERTEX
  8
0
 10
416.81472497
 20
103.87262451
  0
VERTEX
  8
0
 10
416.80587279
 20
103.74692609
  0
VERTEX
  8
0
 10
416.77931625
 20
103.62122767
  0
VERTEX
  8
0
 10
416.73505535
 20
103.49552925
  0
VERTEX
  8
0
 10
416.67309009
 20
103.36983083
  0
VERTEX
  8
0
 10
416.67309009
 20
102.99273557
  0
VERTEX
  8
0
 10
416.51375086
 20
102.67063337
  0
VERTEX
  8
0
 10
416.31900290
 20
102.33281886
  0
VERTEX
  8
0
 10
416.08884622
 20
101.97929205
  0
VERTEX
  8
0
 10
415.82328082
 20
101.61005294
  0
VERTEX
  8
0
 10
415.60197633
 20
101.30366304
  0
VERTEX
  8
0
 10
415.36296747
 20
101.01298545
  0
VERTEX
  8
0
 10
415.10625425
 20
100.73802015
  0
VERTEX
  8
0
 10
414.83183668
 20
100.47876716
  0
VERTEX
  8
0
 10
414.40693204
 20
100.00739808
  0
VERTEX
  8
0
 10
413.98202741
 20
99.59887822
  0
VERTEX
  8
0
 10
413.59253149
 20
99.34748138
  0
VERTEX
  8
0
 10
413.27385302
 20
99.09608454
  0
VERTEX
  8
0
 10
396.84420714
 20
85.89775039
  0
VERTEX
  8
0
 10
395.71112812
 20
72.95081308
  0
VERTEX
  8
0
 10
395.71112812
 20
72.44801940
  0
VERTEX
  8
0
 10
395.71112812
 20
71.94522572
  0
VERTEX
  8
0
 10
395.71998030
 20
71.57795065
  0
VERTEX
  8
0
 10
395.74653684
 20
71.23031595
  0
VERTEX
  8
0
 10
395.79079774
 20
70.90232164
  0
VERTEX
  8
0
 10
395.85276300
 20
70.59396770
  0
VERTEX
  8
0
 10
395.93243261
 20
70.30525414
  0
VERTEX
  8
0
 10
396.02980659
 20
70.03618096
  0
VERTEX
  8
0
 10
396.14488493
 20
69.78674816
  0
VERTEX
  8
0
 10
396.27766763
 20
69.55695573
  0
VERTEX
  8
0
 10
396.46577645
 20
69.35073176
  0
VERTEX
  8
0
 10
396.67601573
 20
69.17200432
  0
VERTEX
  8
0
 10
396.90838545
 20
69.02077341
  0
VERTEX
  8
0
 10
397.16288562
 20
68.89703902
  0
VERTEX
  8
0
 10
397.43951624
 20
68.80080117
  0
VERTEX
  8
0
 10
397.73827731
 20
68.73205985
  0
VERTEX
  8
0
 10
398.05916883
 20
68.69081505
  0
VERTEX
  8
0
 10
398.40219080
 20
68.67706679
  0
VERTEX
  8
0
 10
398.71201710
 20
68.70063524
  0
VERTEX
  8
0
 10
399.07495648
 20
68.77134060
  0
VERTEX
  8
0
 10
399.49100893
 20
68.88918287
  0
VERTEX
  8
0
 10
399.96017446
 20
69.05416205
  0
VERTEX
  8
0
 10
400.95161861
 20
69.46268192
  0
VERTEX
  8
0
 10
401.94306276
 20
69.93405099
  0
VERTEX
  8
0
 10
402.22633252
 20
70.15402323
  0
VERTEX
  8
0
 10
402.50960227
 20
70.31114625
  0
VERTEX
  8
0
 10
402.89909819
 20
70.53111849
  0
VERTEX
  8
0
 10
403.21777666
 20
70.68824152
  0
VERTEX
  8
0
 10
404.13840337
 20
71.28530901
  0
VERTEX
  8
0
 10
404.91739520
 20
71.81952730
  0
VERTEX
  8
0
 10
405.62556959
 20
72.25947177
  0
VERTEX
  8
0
 10
405.87343063
 20
72.43230710
  0
VERTEX
  8
0
 10
406.05047423
 20
72.57371782
  0
VERTEX
  8
0
 10
406.33374398
 20
72.82511466
  0
VERTEX
  8
0
 10
406.51078758
 20
72.95081308
  0
VERTEX
  8
0
 10
406.75864862
 20
73.07651150
  0
VERTEX
  8
0
 10
407.60845789
 20
73.57930519
  0
VERTEX
  8
0
 10
408.06877124
 20
73.83070203
  0
VERTEX
  8
0
 10
408.59990204
 20
74.08209887
  0
VERTEX
  8
0
 10
408.88317179
 20
74.17637268
  0
VERTEX
  8
0
 10
409.02480667
 20
74.19994114
  0
VERTEX
  8
0
 10
409.16644155
 20
74.20779729
  0
VERTEX
  8
0
 10
409.55593746
 20
74.30207110
  0
VERTEX
  8
0
 10
409.87461594
 20
74.33349571
  0
VERTEX
  8
0
 10
410.14018134
 20
74.31778341
  0
VERTEX
  8
0
 10
410.37033801
 20
74.27064650
  0
VERTEX
  8
0
 10
410.56508597
 20
74.19208499
  0
VERTEX
  8
0
 10
410.72442521
 20
74.08209887
  0
VERTEX
  8
0
 10
410.91032099
 20
73.94854430
  0
VERTEX
  8
0
 10
411.04310368
 20
73.79927742
  0
VERTEX
  8
0
 10
411.12277330
 20
73.63429825
  0
VERTEX
  8
0
 10
411.14932984
 20
73.45360677
  0
VERTEX
  8
0
 10
411.25555600
 20
73.32790835
  0
VERTEX
  8
0
 10
411.28211254
 20
73.26505914
  0
VERTEX
  8
0
 10
411.29096472
 20
73.20220992
  0
VERTEX
  8
0
 10
411.29096472
 20
72.95081308
  0
VERTEX
  8
0
 10
411.29096472
 20
72.82511466
  0
VERTEX
  8
0
 10
411.29096472
 20
72.69941624
  0
VERTEX
  8
0
 10
411.23563860
 20
72.53443707
  0
VERTEX
  8
0
 10
411.14047766
 20
72.35374559
  0
VERTEX
  8
0
 10
411.00548192
 20
72.15734180
  0
VERTEX
  8
0
 10
410.83065137
 20
71.94522572
  0
VERTEX
  8
0
 10
410.61598600
 20
71.71739733
  0
VERTEX
  8
0
 10
410.36148583
 20
71.47385664
  0
VERTEX
  8
0
 10
409.73298106
 20
70.93963836
  0
VERTEX
  8
0
 10
407.66113198
 20
69.26264272
  0
VERTEX
  8
0
 10
406.32661099
 20
68.18098547
  0
VERTEX
  8
0
 10
405.05903008
 20
67.16868574
  0
VERTEX
  8
0
 10
403.16273976
 20
65.69067477
  0
VERTEX
  8
0
 10
401.24140378
 20
64.21537449
  0
VERTEX
  8
0
 10
397.40666150
 20
61.28405423
  0
VERTEX
  8
0
 10
402.89530169
 20
61.39461670
  0
VERTEX
  8
0
 10
408.42551919
 20
61.49717510
  0
VERTEX
  8
0
 10
413.95521567
 20
61.61760818
  0
VERTEX
  8
0
 10
416.70671280
 20
61.69261484
  0
VERTEX
  8
0
 10
419.44229280
 20
61.78179471
  0
VERTEX
  8
0
 10
422.15188319
 20
61.88699093
  0
VERTEX
  8
0
 10
424.87620120
 20
62.00731792
  0
VERTEX
  8
0
 10
430.34913381
 20
62.27909001
  0
VERTEX
  8
0
 10
435.82131808
 20
62.56856260
  0
VERTEX
  8
0
 10
441.25298148
 20
62.84718733
  0
VERTEX
  8
0
 10
443.08171444
 20
62.97609480
  0
VERTEX
  8
0
 10
444.73366201
 20
63.13879487
  0
VERTEX
  8
0
 10
446.23926593
 20
63.33878422
  0
VERTEX
  8
0
 10
447.62896791
 20
63.57955948
  0
VERTEX
  8
0
 10
448.28986873
 20
63.71633453
  0
VERTEX
  8
0
 10
448.93320971
 20
63.86461732
  0
VERTEX
  8
0
 10
450.18243303
 20
64.19745443
  0
VERTEX
  8
0
 10
451.40707962
 20
64.58156743
  0
VERTEX
  8
0
 10
452.63759121
 20
65.02045302
  0
VERTEX
  8
0
 10
453.90440953
 20
65.51760785
  0
VERTEX
  8
0
 10
455.23797630
 20
66.07652859
  0
VERTEX
  8
0
 10
455.91293739
 20
66.37511607
  0
VERTEX
  8
0
 10
456.56760692
 20
66.68274471
  0
VERTEX
  8
0
 10
457.20197404
 20
66.99923771
  0
VERTEX
  8
0
 10
457.81602791
 20
67.32441830
  0
VERTEX
  8
0
 10
458.40975770
 20
67.65810969
  0
VERTEX
  8
0
 10
458.98315255
 20
68.00013511
  0
VERTEX
  8
0
 10
459.53620164
 20
68.35031778
  0
VERTEX
  8
0
 10
460.06889412
 20
68.70848092
  0
VERTEX
  8
0
 10
460.58121914
 20
69.07444775
  0
VERTEX
  8
0
 10
461.07316586
 20
69.44804149
  0
VERTEX
  8
0
 10
461.54472346
 20
69.82908537
  0
VERTEX
  8
0
 10
461.99588107
 20
70.21740259
  0
VERTEX
  8
0
 10
462.42662787
 20
70.61281639
  0
VERTEX
  8
0
 10
462.83695301
 20
71.01514997
  0
VERTEX
  8
0
 10
463.22684565
 20
71.42422658
  0
VERTEX
  8
0
 10
463.59629495
 20
71.83986942
  0
VERTEX
  8
0
 10
463.94529006
 20
72.26190171
  0
VERTEX
  8
0
 10
464.27382015
 20
72.69014668
  0
VERTEX
  8
0
 10
464.58187438
 20
73.12442755
  0
VERTEX
  8
0
 10
464.86944189
 20
73.56456754
  0
VERTEX
  8
0
 10
465.13651187
 20
74.01038986
  0
VERTEX
  8
0
 10
465.38307345
 20
74.46171775
  0
VERTEX
  8
0
 10
465.60911580
 20
74.91837441
  0
VERTEX
  8
0
 10
465.81462808
 20
75.38018308
  0
VERTEX
  8
0
 10
465.99959945
 20
75.84696696
  0
VERTEX
  8
0
 10
466.16401906
 20
76.31854929
  0
VERTEX
  8
0
 10
466.30787608
 20
76.79475329
  0
VERTEX
  8
0
 10
466.43115966
 20
77.27540216
  0
VERTEX
  8
0
 10
466.53385897
 20
77.76031914
  0
VERTEX
  8
0
 10
466.61596316
 20
78.24932745
  0
VERTEX
  8
0
 10
466.67746138
 20
78.74225030
  0
VERTEX
  8
0
 10
466.71834281
 20
79.23891092
  0
VERTEX
  8
0
 10
466.73859659
 20
79.73913252
  0
VERTEX
  8
0
 10
466.73821189
 20
80.24273835
  0
VERTEX
  8
0
 10
466.71717786
 20
80.74955159
  0
VERTEX
  8
0
 10
466.67548367
 20
81.25939548
  0
VERTEX
  8
0
 10
466.61311847
 20
81.77209323
  0
VERTEX
  8
0
 10
466.53007142
 20
82.28746809
  0
VERTEX
  8
0
 10
466.42633168
 20
82.80534325
  0
VERTEX
  8
0
 10
466.30188841
 20
83.32554195
  0
VERTEX
  8
0
 10
466.15673077
 20
83.84788740
  0
VERTEX
  8
0
 10
465.99084791
 20
84.37220282
  0
VERTEX
  8
0
 10
465.80422900
 20
84.89831144
  0
VERTEX
  8
0
 10
465.59686319
 20
85.42603648
  0
VERTEX
  8
0
 10
465.36873965
 20
85.95520115
  0
VERTEX
  8
0
 10
465.11984752
 20
86.48562868
  0
VERTEX
  8
0
 10
464.85017598
 20
87.01714228
  0
VERTEX
  8
0
 10
464.55971418
 20
87.54956519
  0
VERTEX
  8
0
 10
464.24845127
 20
88.08272061
  0
VERTEX
  8
0
 10
463.91637642
 20
88.61643177
  0
VERTEX
  8
0
 10
463.56347878
 20
89.15052190
  0
VERTEX
  8
0
 10
463.18974752
 20
89.68481420
  0
VERTEX
  8
0
 10
462.79517179
 20
90.21913191
  0
VERTEX
  8
0
 10
462.37974076
 20
90.75329824
  0
VERTEX
  8
0
 10
461.94344357
 20
91.28713641
  0
VERTEX
  8
0
 10
461.48626939
 20
91.82046965
  0
VERTEX
  8
0
 10
461.00820738
 20
92.35312117
  0
VERTEX
  8
0
 10
460.50924670
 20
92.88491420
  0
VERTEX
  8
0
 10
459.98937650
 20
93.41567195
  0
VERTEX
  8
0
 10
459.44858595
 20
93.94521766
  0
VERTEX
  8
0
 10
458.88686420
 20
94.47337452
  0
VERTEX
  8
0
 10
458.30420041
 20
94.99996578
  0
VERTEX
  8
0
 10
457.70058374
 20
95.52481466
  0
VERTEX
  8
0
 10
457.07600335
 20
96.04774435
  0
VERTEX
  8
0
 10
456.28087431
 20
96.68716172
  0
VERTEX
  8
0
 10
455.46508341
 20
97.31518777
  0
VERTEX
  8
0
 10
454.62753501
 20
97.93227715
  0
VERTEX
  8
0
 10
453.76713350
 20
98.53888450
  0
VERTEX
  8
0
 10
452.88278325
 20
99.13546449
  0
VERTEX
  8
0
 10
451.97338863
 20
99.72247175
  0
VERTEX
  8
0
 10
451.03785403
 20
100.30036093
  0
VERTEX
  8
0
 10
450.07508382
 20
100.86958670
  0
VERTEX
  8
0
 10
449.08398238
 20
101.43060370
  0
VERTEX
  8
0
 10
448.06345408
 20
101.98386657
  0
VERTEX
  8
0
 10
447.01240330
 20
102.52982996
  0
VERTEX
  8
0
 10
445.92973441
 20
103.06894854
  0
VERTEX
  8
0
 10
444.81435180
 20
103.60167694
  0
VERTEX
  8
0
 10
443.66515984
 20
104.12846983
  0
VERTEX
  8
0
 10
442.48106291
 20
104.64978184
  0
VERTEX
  8
0
 10
441.26096539
 20
105.16606763
  0
VERTEX
  8
0
 10
440.00377164
 20
105.67778185
  0
VERTEX
  8
0
 10
438.70838605
 20
106.18537915
  0
VERTEX
  8
0
 10
437.37371299
 20
106.68931417
  0
VERTEX
  8
0
 10
435.99865685
 20
107.19004158
  0
VERTEX
  8
0
 10
434.58212199
 20
107.68801601
  0
VERTEX
  8
0
 10
433.12301280
 20
108.18369212
  0
VERTEX
  8
0
 10
431.62023365
 20
108.67752457
  0
VERTEX
  8
0
 10
430.07268891
 20
109.16996799
  0
VERTEX
  8
0
 10
426.83892020
 20
110.15250637
  0
VERTEX
  8
0
 10
423.41294169
 20
111.13494448
  0
VERTEX
  8
0
 10
419.78598837
 20
112.12091949
  0
VERTEX
  8
0
 10
415.94929528
 20
113.11406864
  0
VERTEX
  8
0
 10
412.79911073
 20
113.89514700
  0
VERTEX
  8
0
 10
409.59807527
 20
114.65561506
  0
VERTEX
  8
0
 10
406.31348096
 20
115.40127523
  0
VERTEX
  8
0
 10
402.91261983
 20
116.13792991
  0
VERTEX
  8
0
 10
399.36278392
 20
116.87138150
  0
VERTEX
  8
0
 10
395.63126529
 20
117.60743241
  0
VERTEX
  8
0
 10
391.68535598
 20
118.35188502
  0
VERTEX
  8
0
 10
387.49234803
 20
119.11054177
  0
VERTEX
  8
0
 10
383.01953348
 20
119.88920504
  0
VERTEX
  8
0
 10
378.23420438
 20
120.69367724
  0
VERTEX
  8
0
 10
373.10365277
 20
121.52976076
  0
VERTEX
  8
0
 10
367.59517071
 20
122.40325802
  0
VERTEX
  8
0
 10
361.67605022
 20
123.31997142
  0
VERTEX
  8
0
 10
355.31358336
 20
124.28570335
  0
VERTEX
  8
0
 10
341.12777869
 20
126.38743245
  0
VERTEX
  8
0
 10
329.25929832
 20
128.13808792
  0
VERTEX
  8
0
 10
317.60063980
 20
129.88434580
  0
VERTEX
  8
0
 10
307.18376649
 20
131.47042935
  0
VERTEX
  8
0
 10
299.04064172
 20
132.74056185
  0
VERTEX
  8
0
 10
297.70356709
 20
132.94001367
  0
VERTEX
  8
0
 10
297.11458825
 20
133.00997150
  0
VERTEX
  8
0
 10
296.55692984
 20
133.05722051
  0
VERTEX
  8
0
 10
296.01430294
 20
133.07961317
  0
VERTEX
  8
0
 10
295.47041862
 20
133.07500192
  0
VERTEX
  8
0
 10
294.90898798
 20
133.04123916
  0
VERTEX
  8
0
 10
294.31372208
 20
132.97617739
  0
VERTEX
  8
0
 10
293.66833201
 20
132.87766901
  0
VERTEX
  8
0
 10
292.95652886
 20
132.74356646
  0
VERTEX
  8
0
 10
292.16202370
 20
132.57172221
  0
VERTEX
  8
0
 10
291.26852761
 20
132.35998870
  0
VERTEX
  8
0
 10
289.11940698
 20
131.80826360
  0
VERTEX
  8
0
 10
286.37885562
 20
131.07121073
  0
VERTEX
  8
0
 10
281.13155129
 20
129.66687590
  0
VERTEX
  8
0
 10
276.27137607
 20
128.40397201
  0
VERTEX
  8
0
 10
271.87130770
 20
127.29954802
  0
VERTEX
  8
0
 10
268.00432396
 20
126.37065291
  0
VERTEX
  8
0
 10
264.74340261
 20
125.63433565
  0
VERTEX
  8
0
 10
263.36302087
 20
125.34372152
  0
VERTEX
  8
0
 10
262.16152139
 20
125.10764522
  0
VERTEX
  8
0
 10
261.14802638
 20
124.92823787
  0
VERTEX
  8
0
 10
260.33165807
 20
124.80763059
  0
VERTEX
  8
0
 10
259.72153867
 20
124.74795451
  0
VERTEX
  8
0
 10
259.49667301
 20
124.74163163
  0
VERTEX
  8
0
 10
259.32679041
 20
124.75134073
  0
VERTEX
  8
0
 10
259.12314864
 20
124.79489585
  0
VERTEX
  8
0
 10
258.91356315
 20
124.87654067
  0
VERTEX
  8
0
 10
258.69638070
 20
124.99846804
  0
VERTEX
  8
0
 10
258.46994800
 20
125.16287075
  0
VERTEX
  8
0
 10
258.23261180
 20
125.37194163
  0
VERTEX
  8
0
 10
257.98271883
 20
125.62787351
  0
VERTEX
  8
0
 10
257.71861584
 20
125.93285918
  0
VERTEX
  8
0
 10
257.43864956
 20
126.28909148
  0
VERTEX
  8
0
 10
257.14116672
 20
126.69876322
  0
VERTEX
  8
0
 10
256.82451406
 20
127.16406723
  0
VERTEX
  8
0
 10
256.12708624
 20
128.27034329
  0
VERTEX
  8
0
 10
255.33313998
 20
129.62546220
  0
VERTEX
  8
0
 10
254.42944920
 20
131.24696653
  0
VERTEX
  8
0
 10
253.00167048
 20
133.82688355
  0
VERTEX
  8
0
 10
251.66738919
 20
136.18348088
  0
VERTEX
  8
0
 10
250.57598756
 20
138.05629618
  0
VERTEX
  8
0
 10
250.16804857
 20
138.72989107
  0
VERTEX
  8
0
 10
249.87684783
 20
139.18486705
  0
VERTEX
  8
0
 10
248.77814550
 20
140.80820740
  0
VERTEX
  8
0
 10
245.62230140
 20
135.16651059
  0
VERTEX
  8
0
 10
244.35762566
 20
132.93883847
  0
VERTEX
  8
0
 10
243.24710470
 20
131.04392124
  0
VERTEX
  8
0
 10
242.41064080
 20
129.68230769
  0
VERTEX
  8
0
 10
242.13264971
 20
129.26416132
  0
VERTEX
  8
0
 10
241.96813626
 20
129.05454666
  0
VERTEX
  8
0
 10
241.86922479
 20
129.02777874
  0
VERTEX
  8
0
 10
241.66343840
 20
129.02828381
  0
VERTEX
  8
0
 10
240.95699627
 20
129.10530345
  0
VERTEX
  8
0
 10
239.90032064
 20
129.27398685
  0
VERTEX
  8
0
 10
238.54492232
 20
129.52271529
  0
VERTEX
  8
0
 10
236.94231208
 20
129.83987002
  0
VERTEX
  8
0
 10
235.14400072
 20
130.21383233
  0
VERTEX
  8
0
 10
231.16631778
 20
131.08570467
  0
VERTEX
  8
0
 10
227.02395982
 20
132.04538248
  0
VERTEX
  8
0
 10
223.12901315
 20
132.99991584
  0
VERTEX
  8
0
 10
221.40309602
 20
133.44620655
  0
VERTEX
  8
0
 10
219.89356408
 20
133.85635493
  0
VERTEX
  8
0
 10
218.65192812
 20
134.21874227
  0
VERTEX
  8
0
 10
217.72969892
 20
134.52174986
  0
VERTEX
  8
0
 10
217.24670784
 20
134.67545210
  0
VERTEX
  8
0
 10
216.76232343
 20
134.78536814
  0
VERTEX
  8
0
 10
216.26617277
 20
134.85150754
  0
VERTEX
  8
0
 10
215.74788291
 20
134.87387986
  0
VERTEX
  8
0
 10
215.19708094
 20
134.85249471
  0
VERTEX
  8
0
 10
214.60339390
 20
134.78736164
  0
VERTEX
  8
0
 10
213.95644888
 20
134.67849025
  0
VERTEX
  8
0
 10
213.24587294
 20
134.52589012
  0
VERTEX
  8
0
 10
212.13990212
 20
134.29081669
  0
VERTEX
  8
0
 10
210.56887274
 20
134.00951560
  0
VERTEX
  8
0
 10
208.27403226
 20
133.64442163
  0
VERTEX
  8
0
 10
204.99662815
 20
133.15796954
  0
VERTEX
  8
0
 10
200.47790787
 20
132.51259408
  0
VERTEX
  8
0
 10
194.45911889
 20
131.67073003
  0
VERTEX
  8
0
 10
176.88632468
 20
129.24727522
  0
VERTEX
  8
0
 10
166.30955574
 20
127.78458908
  0
VERTEX
  8
0
 10
156.59490368
 20
126.41884188
  0
VERTEX
  8
0
 10
147.67984553
 20
125.13884512
  0
VERTEX
  8
0
 10
139.50185835
 20
123.93341034
  0
VERTEX
  8
0
 10
131.99841918
 20
122.79134904
  0
VERTEX
  8
0
 10
125.10700506
 20
121.70147276
  0
VERTEX
  8
0
 10
118.76509303
 20
120.65259297
  0
VERTEX
  8
0
 10
112.91016014
 20
119.63352123
  0
VERTEX
  8
0
 10
107.47968342
 20
118.63306905
  0
VERTEX
  8
0
 10
104.90407770
 20
118.13632889
  0
VERTEX
  8
0
 10
102.41113992
 20
117.64004794
  0
VERTEX
  8
0
 10
99.99305471
 20
117.14282763
  0
VERTEX
  8
0
 10
97.64200669
 20
116.64326941
  0
VERTEX
  8
0
 10
95.35018050
 20
116.13997472
  0
VERTEX
  8
0
 10
93.10976076
 20
115.63154500
  0
VERTEX
  8
0
 10
90.91293211
 20
115.11658169
  0
VERTEX
  8
0
 10
88.75187918
 20
114.59368621
  0
VERTEX
  8
0
 10
86.61878660
 20
114.06146002
  0
VERTEX
  8
0
 10
84.50583899
 20
113.51850456
  0
VERTEX
  8
0
 10
80.30911724
 20
112.39481158
  0
VERTEX
  8
0
 10
76.09919096
 20
111.21141878
  0
VERTEX
  8
0
 10
74.10078351
 20
110.62701679
  0
VERTEX
  8
0
 10
72.15399607
 20
110.03646687
  0
VERTEX
  8
0
 10
70.25853862
 20
109.43960457
  0
VERTEX
  8
0
 10
68.41412116
 20
108.83626533
  0
VERTEX
  8
0
 10
66.62045366
 20
108.22628469
  0
VERTEX
  8
0
 10
64.87724611
 20
107.60949812
  0
VERTEX
  8
0
 10
63.18420852
 20
106.98574116
  0
VERTEX
  8
0
 10
61.54105086
 20
106.35484927
  0
VERTEX
  8
0
 10
59.94748312
 20
105.71665799
  0
VERTEX
  8
0
 10
58.40321529
 20
105.07100277
  0
VERTEX
  8
0
 10
56.90795736
 20
104.41771916
  0
VERTEX
  8
0
 10
55.46141932
 20
103.75664265
  0
VERTEX
  8
0
 10
54.06331115
 20
103.08760871
  0
VERTEX
  8
0
 10
52.71334285
 20
102.41045287
  0
VERTEX
  8
0
 10
51.41122441
 20
101.72501062
  0
VERTEX
  8
0
 10
50.15666580
 20
101.03111746
  0
VERTEX
  8
0
 10
48.94937703
 20
100.32860890
  0
VERTEX
  8
0
 10
47.78906807
 20
99.61732042
  0
VERTEX
  8
0
 10
46.67544892
 20
98.89708755
  0
VERTEX
  8
0
 10
45.60822957
 20
98.16774577
  0
VERTEX
  8
0
 10
44.58712000
 20
97.42913058
  0
VERTEX
  8
0
 10
43.61183020
 20
96.68107749
  0
VERTEX
  8
0
 10
42.68207016
 20
95.92342199
  0
VERTEX
  8
0
 10
41.79754987
 20
95.15599959
  0
VERTEX
  8
0
 10
40.95797932
 20
94.37864579
  0
VERTEX
  8
0
 10
40.16306850
 20
93.59119608
  0
VERTEX
  8
0
 10
39.41252739
 20
92.79348597
  0
VERTEX
  8
0
 10
38.70606598
 20
91.98535096
  0
VERTEX
  8
0
 10
38.04339426
 20
91.16662655
  0
VERTEX
  8
0
 10
37.42422223
 20
90.33714824
  0
VERTEX
  8
0
 10
36.84825986
 20
89.49675153
  0
VERTEX
  8
0
 10
36.31521714
 20
88.64527192
  0
VERTEX
  8
0
 10
35.91506586
 20
87.94235849
  0
VERTEX
  8
0
 10
35.55245561
 20
87.23768540
  0
VERTEX
  8
0
 10
35.22721288
 20
86.53194979
  0
VERTEX
  8
0
 10
34.93916417
 20
85.82584876
  0
VERTEX
  8
0
 10
34.68813596
 20
85.12007946
  0
VERTEX
  8
0
 10
34.47395476
 20
84.41533899
  0
VERTEX
  8
0
 10
34.29644706
 20
83.71232450
  0
VERTEX
  8
0
 10
34.15543935
 20
83.01173309
  0
VERTEX
  8
0
 10
34.05075813
 20
82.31426191
  0
VERTEX
  8
0
 10
33.98222989
 20
81.62060807
  0
VERTEX
  8
0
 10
33.94968112
 20
80.93146870
  0
VERTEX
  8
0
 10
33.95293833
 20
80.24754092
  0
VERTEX
  8
0
 10
33.99182800
 20
79.56952186
  0
VERTEX
  8
0
 10
34.06617663
 20
78.89810864
  0
VERTEX
  8
0
 10
34.17581071
 20
78.23399839
  0
VERTEX
  8
0
 10
34.32055674
 20
77.57788824
  0
VERTEX
  8
0
 10
34.50024121
 20
76.93047530
  0
VERTEX
  8
0
 10
34.71469062
 20
76.29245671
  0
VERTEX
  8
0
 10
34.96373146
 20
75.66452958
  0
VERTEX
  8
0
 10
35.24719022
 20
75.04739106
  0
VERTEX
  8
0
 10
35.56489341
 20
74.44173824
  0
VERTEX
  8
0
 10
35.91666750
 20
73.84826827
  0
VERTEX
  8
0
 10
36.30233901
 20
73.26767827
  0
VERTEX
  8
0
 10
36.72173442
 20
72.70066537
  0
VERTEX
  8
0
 10
37.17468022
 20
72.14792668
  0
VERTEX
  8
0
 10
37.66100292
 20
71.61015934
  0
VERTEX
  8
0
 10
38.18052900
 20
71.08806046
  0
VERTEX
  8
0
 10
38.73308496
 20
70.58232718
  0
VERTEX
  8
0
 10
39.31849730
 20
70.09365662
  0
VERTEX
  8
0
 10
39.93659250
 20
69.62274590
  0
VERTEX
  8
0
 10
40.58719707
 20
69.17029215
  0
VERTEX
  8
0
 10
41.27013750
 20
68.73699249
  0
VERTEX
  8
0
 10
42.15082434
 20
68.21576537
  0
VERTEX
  8
0
 10
43.01991193
 20
67.72694479
  0
VERTEX
  8
0
 10
43.88198287
 20
67.26892464
  0
VERTEX
  8
0
 10
44.74161978
 20
66.84009876
  0
VERTEX
  8
0
 10
45.60340526
 20
66.43886102
  0
VERTEX
  8
0
 10
46.47192193
 20
66.06360528
  0
VERTEX
  8
0
 10
47.35175240
 20
65.71272538
  0
VERTEX
  8
0
 10
48.24747928
 20
65.38461520
  0
VERTEX
  8
0
 10
49.16368518
 20
65.07766860
  0
VERTEX
  8
0
 10
50.10495272
 20
64.79027942
  0
VERTEX
  8
0
 10
51.07586451
 20
64.52084153
  0
VERTEX
  8
0
 10
52.08100315
 20
64.26774880
  0
VERTEX
  8
0
 10
53.12495126
 20
64.02939509
  0
VERTEX
  8
0
 10
54.21229146
 20
63.80417424
  0
VERTEX
  8
0
 10
55.34760634
 20
63.59048012
  0
VERTEX
  8
0
 10
56.53547853
 20
63.38670659
  0
VERTEX
  8
0
 10
58.31984245
 20
63.11615894
  0
VERTEX
  8
0
 10
59.17567902
 20
63.00792684
  0
VERTEX
  8
0
 10
60.03394130
 20
62.91738765
  0
VERTEX
  8
0
 10
60.91462127
 20
62.84429013
  0
VERTEX
  8
0
 10
61.83771091
 20
62.78838311
  0
VERTEX
  8
0
 10
62.82320219
 20
62.74941539
  0
VERTEX
  8
0
 10
63.89108710
 20
62.72713576
  0
SEQEND
  0
POLYLINE
  8
По_умолчанию
 62
256
 66
   1
 39
0.000000
 70
    1
  0
VERTEX
  8
0
 10
91.85860570
 20
61.18664648
  0
VERTEX
  8
0
 10
92.46962780
 20
61.36640938
  0
VERTEX
  8
0
 10
93.08697514
 20
61.56442234
  0
VERTEX
  8
0
 10
94.34059705
 20
62.01505051
  0
VERTEX
  8
0
 10
95.43826735
 20
62.47070728
  0
VERTEX
  8
0
 10
96.53593766
 20
62.95778866
  0
VERTEX
  8
0
 10
97.63360797
 20
63.47629464
  0
VERTEX
  8
0
 10
98.73127827
 20
64.02622523
  0
VERTEX
  8
0
 10
99.82894858
 20
64.60758043
  0
VERTEX
  8
0
 10
100.92661888
 20
65.22036023
  0
VERTEX
  8
0
 10
102.02428919
 20
65.86456463
  0
VERTEX
  8
0
 10
103.12195950
 20
66.54019364
  0
VERTEX
  8
0
 10
104.07578188
 20
67.11565672
  0
VERTEX
  8
0
 10
105.02517817
 20
67.71076018
  0
VERTEX
  8
0
 10
105.97014838
 20
68.32550402
  0
VERTEX
  8
0
 10
106.91069249
 20
68.95988824
  0
VERTEX
  8
0
 10
107.84681051
 20
69.61391283
  0
VERTEX
  8
0
 10
108.77850245
 20
70.28757780
  0
VERTEX
  8
0
 10
109.70576829
 20
70.98088315
  0
VERTEX
  8
0
 10
110.62860804
 20
71.69382888
  0
VERTEX
  8
0
 10
112.51412236
 20
73.19435377
  0
VERTEX
  8
0
 10
114.34652359
 20
74.67916637
  0
VERTEX
  8
0
 10
116.12581175
 20
76.14826665
  0
VERTEX
  8
0
 10
117.85198683
 20
77.60165464
  0
VERTEX
  8
0
 10
119.51619665
 20
79.10217953
  0
VERTEX
  8
0
 10
121.10958903
 20
80.58699213
  0
VERTEX
  8
0
 10
122.63216397
 20
82.05609241
  0
VERTEX
  8
0
 10
124.08392147
 20
83.50948040
  0
VERTEX
  8
0
 10
125.50912243
 20
84.92358763
  0
VERTEX
  8
0
 10
126.81039288
 20
86.27484565
  0
VERTEX
  8
0
 10
127.98773280
 20
87.56325446
  0
VERTEX
  8
0
 10
129.04114221
 20
88.78881406
  0
VERTEX
  8
0
 10
130.31585611
 20
89.38588156
  0
VERTEX
  8
0
 10
131.59057002
 20
89.92009984
  0
VERTEX
  8
0
 10
132.97151008
 20
90.54859195
  0
VERTEX
  8
0
 10
134.28163270
 20
91.17708405
  0
VERTEX
  8
0
 10
136.83106051
 20
92.43406825
  0
VERTEX
  8
0
 10
137.53038272
 20
92.75617045
  0
VERTEX
  8
0
 10
138.21200057
 20
93.09398496
  0
VERTEX
  8
0
 10
138.87591407
 20
93.44751177
  0
VERTEX
  8
0
 10
139.52212320
 20
93.81675088
  0
VERTEX
  8
0
 10
116.00587974
 20
61.19432854
  0
VERTEX
  8
0
 10
91.85860570
 20
61.18664648
  0
SEQEND
  0
POLYLINE
  8
По_умолчанию
 62
256
 66
   1
 39
0.000000
 70
    1
  0
VERTEX
  8
0
 10
274.88224813
 20
61.24487248
  0
VERTEX
  8
0
 10
304.59797663
 20
61.25432606
  0
VERTEX
  8
0
 10
304.18294152
 20
61.59786600
  0
VERTEX
  8
0
 10
303.77796323
 20
61.98714288
  0
VERTEX
  8
0
 10
303.38304133
 20
62.42215544
  0
VERTEX
  8
0
 10
302.99817539
 20
62.90290243
  0
VERTEX
  8
0
 10
302.62336497
 20
63.42938258
  0
VERTEX
  8
0
 10
302.25860964
 20
64.00159464
  0
VERTEX
  8
0
 10
301.90390897
 20
64.61953735
  0
VERTEX
  8
0
 10
301.55926252
 20
65.28320944
  0
VERTEX
  8
0
 10
301.26769385
 20
65.94901826
  0
VERTEX
  8
0
 10
300.99493605
 20
66.62661131
  0
VERTEX
  8
0
 10
300.74098914
 20
67.31598858
  0
VERTEX
  8
0
 10
300.50585311
 20
68.01715008
  0
VERTEX
  8
0
 10
300.28952797
 20
68.73009581
  0
VERTEX
  8
0
 10
300.09201371
 20
69.45482577
  0
VERTEX
  8
0
 10
299.91331032
 20
70.19133995
  0
VERTEX
  8
0
 10
299.75341782
 20
70.93963836
  0
VERTEX
  8
0
 10
299.61233621
 20
71.69972099
  0
VERTEX
  8
0
 10
299.49006547
 20
72.47158786
  0
VERTEX
  8
0
 10
299.38660562
 20
73.25523895
  0
VERTEX
  8
0
 10
299.30195665
 20
74.05067426
  0
VERTEX
  8
0
 10
299.23611856
 20
74.85789381
  0
VERTEX
  8
0
 10
299.18909136
 20
75.67689758
  0
VERTEX
  8
0
 10
299.16087503
 20
76.50768557
  0
VERTEX
  8
0
 10
299.15146959
 20
77.35025780
  0
VERTEX
  8
0
 10
298.91000826
 20
77.20023732
  0
VERTEX
  8
0
 10
298.24424020
 20
76.73820894
  0
VERTEX
  8
0
 10
297.77971737
 20
76.38458227
  0
VERTEX
  8
0
 10
297.24208931
 20
75.94622220
  0
VERTEX
  8
0
 10
296.64234652
 20
75.42088493
  0
VERTEX
  8
0
 10
295.99147947
 20
74.80632666
  0
VERTEX
  8
0
 10
293.34000600
 20
72.78177826
  0
VERTEX
  8
0
 10
292.00508010
 20
71.77143182
  0
VERTEX
  8
0
 10
290.66615027
 20
70.78760491
  0
VERTEX
  8
0
 10
289.54319262
 20
69.99780652
  0
VERTEX
  8
0
 10
288.40020705
 20
69.21855437
  0
VERTEX
  8
0
 10
286.11878125
 20
67.67147943
  0
VERTEX
  8
0
 10
282.86117905
 20
65.40890786
  0
VERTEX
  8
0
 10
281.17041269
 20
64.37975204
  0
VERTEX
  8
0
 10
279.49735069
 20
63.42915774
  0
VERTEX
  8
0
 10
278.66745883
 20
62.98332115
  0
VERTEX
  8
0
 10
277.84199305
 20
62.55712494
  0
VERTEX
  8
0
 10
277.02095337
 20
62.15056912
  0
VERTEX
  8
0
 10
276.20433977
 20
61.76365366
  0
VERTEX
  8
0
 10
275.54676718
 20
61.49510878
  0
VERTEX
  8
0
 10
274.88224813
 20
61.24487248
  0
SEQEND
  0
POLYLINE
  8
По_умолчанию
 62
256
 66
   1
 39
0.000000
 70
    1
  0
VERTEX
  8
0
 10
312.08915400
 20
61.25670926
  0
VERTEX
  8
0
 10
328.55618132
 20
61.26194797
  0
VERTEX
  8
0
 10
328.52457951
 20
61.34921284
  0
VERTEX
  8
0
 10
328.41354405
 20
61.69643317
  0
VERTEX
  8
0
 10
328.31985892
 20
62.04840632
  0
VERTEX
  8
0
 10
328.24221747
 20
62.40431231
  0
VERTEX
  8
0
 10
328.17931303
 20
62.76333117
  0
VERTEX
  8
0
 10
328.12569175
 20
63.16315257
  0
VERTEX
  8
0
 10
328.08627847
 20
63.56465959
  0
VERTEX
  8
0
 10
328.05529077
 20
64.10929094
  0
VERTEX
  8
0
 10
328.04498475
 20
64.65471733
  0
VERTEX
  8
0
 10
328.05383693
 20
65.31463404
  0
VERTEX
  8
0
 10
328.08039347
 20
66.03739996
  0
VERTEX
  8
0
 10
328.18661963
 20
67.67147943
  0
VERTEX
  8
0
 10
328.33710668
 20
68.55136837
  0
VERTEX
  8
0
 10
328.50529810
 20
69.43125731
  0
VERTEX
  8
0
 10
328.69119388
 20
70.31114625
  0
VERTEX
  8
0
 10
328.89479402
 20
71.19103520
  0
VERTEX
  8
0
 10
328.97446364
 20
71.74882194
  0
VERTEX
  8
0
 10
329.07183761
 20
72.29089638
  0
VERTEX
  8
0
 10
329.18691595
 20
72.81725851
  0
VERTEX
  8
0
 10
329.31969865
 20
73.32790835
  0
VERTEX
  8
0
 10
329.60296841
 20
74.42776952
  0
VERTEX
  8
0
 10
329.88623816
 20
75.46478149
  0
VERTEX
  8
0
 10
329.88623816
 20
76.09327359
  0
VERTEX
  8
0
 10
330.02787304
 20
76.43894425
  0
VERTEX
  8
0
 10
330.16950792
 20
76.72176570
  0
VERTEX
  8
0
 10
329.57641187
 20
76.01471208
  0
VERTEX
  8
0
 10
328.93020274
 20
75.27623386
  0
VERTEX
  8
0
 10
328.23088053
 20
74.50633104
  0
VERTEX
  8
0
 10
327.47844523
 20
73.70500361
  0
VERTEX
  8
0
 10
325.92046157
 20
72.16519796
  0
VERTEX
  8
0
 10
324.36247791
 20
70.56254310
  0
VERTEX
  8
0
 10
322.80449425
 20
69.08558666
  0
VERTEX
  8
0
 10
321.24651059
 20
67.67147943
  0
VERTEX
  8
0
 10
320.45866658
 20
66.98799426
  0
VERTEX
  8
0
 10
319.65311821
 20
66.32022141
  0
VERTEX
  8
0
 10
318.82986548
 20
65.66816085
  0
VERTEX
  8
0
 10
317.98890839
 20
65.03181260
  0
VERTEX
  8
0
 10
317.31614272
 20
64.50937854
  0
VERTEX
  8
0
 10
316.64337705
 20
64.01051293
  0
VERTEX
  8
0
 10
315.97061138
 20
63.53521578
  0
VERTEX
  8
0
 10
315.29784571
 20
63.08348708
  0
VERTEX
  8
0
 10
314.62508004
 20
62.65532683
  0
VERTEX
  8
0
 10
313.95231437
 20
62.25073504
  0
VERTEX
  8
0
 10
313.27954869
 20
61.86971171
  0
VERTEX
  8
0
 10
312.60678302
 20
61.51225682
  0
VERTEX
  8
0
 10
312.08915400
 20
61.25670926
  0
SEQEND
  0
POLYLINE
  8
По_умолчанию
 62
256
 66
   1
 39
0.000000
 70
    1
  0
VERTEX
  8
0
 10
364.55976422
 20
61.27340193
  0
VERTEX
  8
0
 10
382.80039698
 20
61.27340193
  0
VERTEX
  8
0
 10
383.18077552
 20
63.33868644
  0
VERTEX
  8
0
 10
383.36590702
 20
64.37613140
  0
VERTEX
  8
0
 10
383.53052859
 20
65.40890786
  0
VERTEX
  8
0
 10
383.69890801
 20
66.62280724
  0
VERTEX
  8
0
 10
383.85339995
 20
67.84551988
  0
VERTEX
  8
0
 10
384.13321376
 20
70.30642138
  0
VERTEX
  8
0
 10
384.39495474
 20
72.76968532
  0
VERTEX
  8
0
 10
384.66360762
 20
75.21338465
  0
VERTEX
  8
0
 10
383.54823295
 20
73.91319162
  0
VERTEX
  8
0
 10
382.46826700
 20
72.71512855
  0
VERTEX
  8
0
 10
381.42370978
 20
71.61919544
  0
VERTEX
  8
0
 10
380.41456127
 20
70.62539231
  0
VERTEX
  8
0
 10
379.44082148
 20
69.73371914
  0
VERTEX
  8
0
 10
378.50249041
 20
68.94417593
  0
VERTEX
  8
0
 10
377.59956807
 20
68.25676270
  0
VERTEX
  8
0
 10
377.16138516
 20
67.95135481
  0
VERTEX
  8
0
 10
376.73205444
 20
67.67147943
  0
VERTEX
  8
0
 10
375.12980988
 20
66.70517282
  0
VERTEX
  8
0
 10
373.58067840
 20
65.81742772
  0
VERTEX
  8
0
 10
372.08466000
 20
65.00824414
  0
VERTEX
  8
0
 10
370.64175467
 20
64.27762207
  0
VERTEX
  8
0
 10
369.79194540
 20
63.77482839
  0
VERTEX
  8
0
 10
369.33163205
 20
63.61770537
  0
VERTEX
  8
0
 10
368.80050126
 20
63.39773313
  0
VERTEX
  8
0
 10
368.51723150
 20
63.24061010
  0
VERTEX
  8
0
 10
368.23396174
 20
63.02063787
  0
VERTEX
  8
0
 10
367.66742223
 20
62.76924103
  0
VERTEX
  8
0
 10
367.27792632
 20
62.58069340
  0
VERTEX
  8
0
 10
366.67597808
 20
62.26644735
  0
VERTEX
  8
0
 10
366.07402985
 20
61.98362590
  0
VERTEX
  8
0
 10
365.40126418
 20
61.63795524
  0
VERTEX
  8
0
 10
365.33044674
 20
61.63009909
  0
VERTEX
  8
0
 10
365.25962930
 20
61.60653064
  0
VERTEX
  8
0
 10
365.11799442
 20
61.51225682
  0
VERTEX
  8
0
 10
364.97635955
 20
61.51225682
  0
VERTEX
  8
0
 10
364.55976422
 20
61.27340193
  0
SEQEND
  0
ENDSEC
  0
EOF
