  0
SECTION
  2
HEADER
  9
$ACADVER
  1
AC1009
  9
$EXTMIN
 10
-45.49634863
 20
-46.09202604
 30
0.0
  9
$EXTMAX
 10
45.49634870
 20
42.00226311
 30
0.0
  0
ENDSEC
  0
SECTION
  2
TABLES
  0
TABLE
  2
LAYER
 70
1
 0
LAYER
 2
pobeda_orden_002
 70
0
 62
1
 6
CONTINUOUS
 0
ENDTAB
 0
ENDSEC
  0
SECTION
  2
ENTITIES
  0
POLYLINE
  8
pobeda_orden_002
 66
   1
 39
0.000000
 70
    1
  0
VERTEX
  8
0
 10
-27.72305145
 20
-2.68866214
  0
VERTEX
  8
0
 10
-27.17729881
 20
-2.18991567
  0
VERTEX
  8
0
 10
-26.47247604
 20
-2.41314439
  0
VERTEX
  8
0
 10
-25.76765327
 20
-2.63639559
  0
VERTEX
  8
0
 10
-25.60860562
 20
-3.35841574
  0
VERTEX
  8
0
 10
-25.44953548
 20
-4.08041341
  0
VERTEX
  8
0
 10
-25.99526564
 20
-4.57918236
  0
VERTEX
  8
0
 10
-26.54101828
 20
-5.07795130
  0
VERTEX
  8
0
 10
-27.24584105
 20
-4.85470010
  0
VERTEX
  8
0
 10
-27.95066382
 20
-4.63144890
  0
VERTEX
  8
0
 10
-28.10973395
 20
-3.90945123
  0
VERTEX
  8
0
 10
-28.26880409
 20
-3.18743108
  0
VERTEX
  8
0
 10
-27.72305145
 20
-2.68866214
  0
SEQEND
  0
POLYLINE
  8
pobeda_orden_002
 66
   1
 39
0.000000
 70
    1
  0
VERTEX
  8
0
 10
6.71315982
 20
-22.76996275
  0
VERTEX
  8
0
 10
6.68487969
 20
-22.02510268
  0
VERTEX
  8
0
 10
7.23020520
 20
-22.57705986
  0
VERTEX
  8
0
 10
6.71315982
 20
-22.76996275
  0
SEQEND
  0
POLYLINE
  8
pobeda_orden_002
 66
   1
 39
0.000000
 70
    1
  0
VERTEX
  8
0
 10
1.13311618
 20
-24.67451064
  0
VERTEX
  8
0
 10
0.95500529
 20
-22.79448868
  0
VERTEX
  8
0
 10
2.46428323
 20
-22.67255589
  0
VERTEX
  8
0
 10
2.49445170
 20
-22.99078608
  0
VERTEX
  8
0
 10
1.39615740
 20
-23.07951557
  0
VERTEX
  8
0
 10
1.43563269
 20
-23.49623166
  0
VERTEX
  8
0
 10
2.45758412
 20
-23.41366176
  0
VERTEX
  8
0
 10
2.48757275
 20
-23.73013849
  0
VERTEX
  8
0
 10
1.46559884
 20
-23.81268591
  0
VERTEX
  8
0
 10
1.51411119
 20
-24.32438099
  0
VERTEX
  8
0
 10
2.65125133
 20
-24.23252676
  0
VERTEX
  8
0
 10
2.68128493
 20
-24.54943061
  0
VERTEX
  8
0
 10
1.13311618
 20
-24.67451064
  0
SEQEND
  0
POLYLINE
  8
pobeda_orden_002
 66
   1
 39
0.000000
 70
    1
  0
VERTEX
  8
0
 10
-4.02953695
 20
-22.96108970
  0
VERTEX
  8
0
 10
-3.95732201
 20
-22.86302038
  0
VERTEX
  8
0
 10
-3.88669192
 20
-22.79070076
  0
VERTEX
  8
0
 10
-3.81172596
 20
-22.73064482
  0
VERTEX
  8
0
 10
-3.71236754
 20
-22.67927959
  0
VERTEX
  8
0
 10
-3.60586884
 20
-22.65011500
  0
VERTEX
  8
0
 10
-3.49219614
 20
-22.64319741
  0
VERTEX
  8
0
 10
-3.37131570
 20
-22.65857319
  0
VERTEX
  8
0
 10
-3.27354917
 20
-22.68624074
  0
VERTEX
  8
0
 10
-3.18099383
 20
-22.72217188
  0
VERTEX
  8
0
 10
-3.08568185
 20
-22.77403167
  0
VERTEX
  8
0
 10
-2.93780687
 20
-23.02428163
  0
VERTEX
  8
0
 10
-2.93978197
 20
-23.15419912
  0
VERTEX
  8
0
 10
-2.95466986
 20
-23.27641994
  0
VERTEX
  8
0
 10
-2.97964259
 20
-23.40271389
  0
VERTEX
  8
0
 10
-3.02676573
 20
-23.55053793
  0
VERTEX
  8
0
 10
-3.08812939
 20
-23.67423296
  0
VERTEX
  8
0
 10
-3.16370196
 20
-23.77383901
  0
VERTEX
  8
0
 10
-3.25345184
 20
-23.84939613
  0
VERTEX
  8
0
 10
-3.33642076
 20
-23.89507597
  0
VERTEX
  8
0
 10
-3.42402834
 20
-23.93175388
  0
VERTEX
  8
0
 10
-3.52807037
 20
-23.95950432
  0
VERTEX
  8
0
 10
-3.84843619
 20
-23.89120937
  0
VERTEX
  8
0
 10
-3.92920977
 20
-23.82371668
  0
VERTEX
  8
0
 10
-3.99109575
 20
-23.75488361
  0
VERTEX
  8
0
 10
-4.04466615
 20
-23.67982773
  0
VERTEX
  8
0
 10
-4.09036916
 20
-23.57521456
  0
VERTEX
  8
0
 10
-4.11196635
 20
-23.45584030
  0
VERTEX
  8
0
 10
-4.10937761
 20
-23.32175554
  0
VERTEX
  8
0
 10
-4.08252286
 20
-23.17301086
  0
VERTEX
  8
0
 10
-4.02953695
 20
-22.96108970
  0
SEQEND
  0
POLYLINE
  8
pobeda_orden_002
 66
   1
 39
0.000000
 70
    1
  0
VERTEX
  8
0
 10
10.65566161
 20
-22.95401780
  0
VERTEX
  8
0
 10
10.18282866
 20
-23.31147857
  0
VERTEX
  8
0
 10
9.61861428
 20
-23.66888339
  0
VERTEX
  8
0
 10
8.84297706
 20
-24.08819935
  0
VERTEX
  8
0
 10
7.73587558
 20
-24.63139355
  0
VERTEX
  8
0
 10
7.03490320
 20
-24.82055837
  0
VERTEX
  8
0
 10
6.34247657
 20
-24.98611039
  0
VERTEX
  8
0
 10
5.66365662
 20
-25.12962378
  0
VERTEX
  8
0
 10
5.00350432
 20
-25.25267274
  0
VERTEX
  8
0
 10
3.75944642
 20
-25.44367412
  0
VERTEX
  8
0
 10
2.65079049
 20
-25.57170801
  0
VERTEX
  8
0
 10
1.71802412
 20
-25.64936791
  0
VERTEX
  8
0
 10
1.00163492
 20
-25.68924731
  0
VERTEX
  8
0
 10
0.37993843
 20
-25.70603864
  0
VERTEX
  8
0
 10
-0.29745280
 20
-25.69384119
  0
VERTEX
  8
0
 10
-0.97748351
 20
-25.65741886
  0
VERTEX
  8
0
 10
-1.65895378
 20
-25.59702669
  0
VERTEX
  8
0
 10
-2.34066372
 20
-25.51291974
  0
VERTEX
  8
0
 10
-3.02141342
 20
-25.40535303
  0
VERTEX
  8
0
 10
-3.70000298
 20
-25.27458162
  0
VERTEX
  8
0
 10
-4.37523248
 20
-25.12086055
  0
VERTEX
  8
0
 10
-5.04590204
 20
-24.94444485
  0
VERTEX
  8
0
 10
-5.71081174
 20
-24.74558958
  0
VERTEX
  8
0
 10
-6.36876167
 20
-24.52454978
  0
VERTEX
  8
0
 10
-7.01855194
 20
-24.28158049
  0
VERTEX
  8
0
 10
-7.65898264
 20
-24.01693675
  0
VERTEX
  8
0
 10
-8.28885386
 20
-23.73087361
  0
VERTEX
  8
0
 10
-8.90696571
 20
-23.42364610
  0
VERTEX
  8
0
 10
-9.51211826
 20
-23.09550928
  0
VERTEX
  8
0
 10
-10.10311164
 20
-22.74671819
  0
VERTEX
  8
0
 10
-10.10311164
 20
-19.14471032
  0
VERTEX
  8
0
 10
-6.99103799
 20
-21.05953168
  0
VERTEX
  8
0
 10
-6.28741091
 20
-21.24339004
  0
VERTEX
  8
0
 10
-5.59266194
 20
-21.40429798
  0
VERTEX
  8
0
 10
-4.91182979
 20
-21.54378554
  0
VERTEX
  8
0
 10
-4.24995318
 20
-21.66338272
  0
VERTEX
  8
0
 10
-3.00322150
 20
-21.84902612
  0
VERTEX
  8
0
 10
-1.89277668
 20
-21.97346839
  0
VERTEX
  8
0
 10
-0.95892849
 20
-22.04894977
  0
VERTEX
  8
0
 10
-0.24198672
 20
-22.08771048
  0
VERTEX
  8
0
 10
0.37993843
 20
-22.10403078
  0
VERTEX
  8
0
 10
1.05454953
 20
-22.09280703
  0
VERTEX
  8
0
 10
1.72670788
 20
-22.05913650
  0
VERTEX
  8
0
 10
2.39594092
 20
-22.00302025
  0
VERTEX
  8
0
 10
3.06177609
 20
-21.92445935
  0
VERTEX
  8
0
 10
3.72374084
 20
-21.82345487
  0
VERTEX
  8
0
 10
4.38136261
 20
-21.70000788
  0
VERTEX
  8
0
 10
5.03416885
 20
-21.55411944
  0
VERTEX
  8
0
 10
5.68168699
 20
-21.38579061
  0
VERTEX
  8
0
 10
6.32344449
 20
-21.19502248
  0
VERTEX
  8
0
 10
6.95896878
 20
-20.98181610
  0
VERTEX
  8
0
 10
7.58778732
 20
-20.74617254
  0
VERTEX
  8
0
 10
8.20942753
 20
-20.48809287
  0
VERTEX
  8
0
 10
8.82341688
 20
-20.20757815
  0
VERTEX
  8
0
 10
9.42928279
 20
-19.90462946
  0
VERTEX
  8
0
 10
10.02655271
 20
-19.57924787
  0
VERTEX
  8
0
 10
10.61475410
 20
-19.23143443
  0
VERTEX
  8
0
 10
10.65566161
 20
-22.95401780
  0
SEQEND
  0
POLYLINE
  8
pobeda_orden_002
 66
   1
 39
0.000000
 70
    1
  0
VERTEX
  8
0
 10
-16.74979740
 20
-10.43559799
  0
VERTEX
  8
0
 10
-16.74768426
 20
-10.47911972
  0
VERTEX
  8
0
 10
-16.75152838
 20
-10.45155895
  0
VERTEX
  8
0
 10
-16.74979740
 20
-10.43559799
  0
SEQEND
  0
POLYLINE
  8
pobeda_orden_002
 66
   1
 39
0.000000
 70
    1
  0
VERTEX
  8
0
 10
9.20835015
 20
-14.96672697
  0
VERTEX
  8
0
 10
8.56507024
 20
-14.97868083
  0
VERTEX
  8
0
 10
8.44356930
 20
-14.97434776
  0
VERTEX
  8
0
 10
6.87493262
 20
-14.93889644
  0
VERTEX
  8
0
 10
5.29690271
 20
-14.96956018
  0
VERTEX
  8
0
 10
4.48704796
 20
-14.96257936
  0
VERTEX
  8
0
 10
4.29035493
 20
-14.94013417
  0
VERTEX
  8
0
 10
4.18990808
 20
-14.90247213
  0
VERTEX
  8
0
 10
4.15377486
 20
-14.84765804
  0
VERTEX
  8
0
 10
4.15002275
 20
-14.77375664
  0
VERTEX
  8
0
 10
4.18087577
 20
-12.68858007
  0
VERTEX
  8
0
 10
4.33464588
 20
-12.69330092
  0
VERTEX
  8
0
 10
4.83250139
 20
-12.69330092
  0
VERTEX
  8
0
 10
4.83250139
 20
-11.55040583
  0
VERTEX
  8
0
 10
5.39214542
 20
-11.91128103
  0
VERTEX
  8
0
 10
5.95176195
 20
-11.55040583
  0
VERTEX
  8
0
 10
5.95176195
 20
-12.69330092
  0
VERTEX
  8
0
 10
6.65134449
 20
-12.69330092
  0
VERTEX
  8
0
 10
6.65134449
 20
-11.55040583
  0
VERTEX
  8
0
 10
7.21098852
 20
-11.91128103
  0
VERTEX
  8
0
 10
7.77063255
 20
-11.55040583
  0
VERTEX
  8
0
 10
7.77063255
 20
-12.69330092
  0
VERTEX
  8
0
 10
8.47018759
 20
-12.69330092
  0
VERTEX
  8
0
 10
8.47018759
 20
-11.55040583
  0
VERTEX
  8
0
 10
9.02983162
 20
-11.91128103
  0
VERTEX
  8
0
 10
9.58947565
 20
-11.55040583
  0
VERTEX
  8
0
 10
9.58947565
 20
-12.69330092
  0
VERTEX
  8
0
 10
10.28903069
 20
-12.69330092
  0
VERTEX
  8
0
 10
10.28903069
 20
-11.55040583
  0
VERTEX
  8
0
 10
10.84867473
 20
-11.91128103
  0
VERTEX
  8
0
 10
11.40831876
 20
-11.55040583
  0
VERTEX
  8
0
 10
11.40831876
 20
-12.69330092
  0
VERTEX
  8
0
 10
11.59327187
 20
-12.69327844
  0
VERTEX
  8
0
 10
9.20835015
 20
-14.96672697
  0
SEQEND
  0
POLYLINE
  8
pobeda_orden_002
 66
   1
 39
0.000000
 70
    1
  0
VERTEX
  8
0
 10
-0.11548096
 20
5.83621077
  0
VERTEX
  8
0
 10
0.28624082
 20
4.03718510
  0
VERTEX
  8
0
 10
0.68794011
 20
1.32321391
  0
VERTEX
  8
0
 10
-0.11548096
 20
1.32321391
  0
VERTEX
  8
0
 10
-0.91890204
 20
1.32321391
  0
VERTEX
  8
0
 10
-0.51720274
 20
4.03718510
  0
VERTEX
  8
0
 10
-0.11548096
 20
5.83621077
  0
SEQEND
  0
POLYLINE
  8
pobeda_orden_002
 66
   1
 39
0.000000
 70
    1
  0
VERTEX
  8
0
 10
-4.21594305
 20
-6.83327540
  0
VERTEX
  8
0
 10
-3.10789232
 20
-8.28635275
  0
VERTEX
  8
0
 10
2.92015989
 20
-8.26805384
  0
VERTEX
  8
0
 10
3.98498113
 20
-6.83327540
  0
VERTEX
  8
0
 10
3.98498113
 20
-17.26169850
  0
VERTEX
  8
0
 10
-4.21594305
 20
-17.27084796
  0
VERTEX
  8
0
 10
-4.21594305
 20
-6.83327540
  0
SEQEND
  0
POLYLINE
  8
pobeda_orden_002
 66
   1
 39
0.000000
 70
    1
  0
VERTEX
  8
0
 10
12.42853324
 20
-10.17405738
  0
VERTEX
  8
0
 10
11.72131148
 20
-11.48553279
  0
VERTEX
  8
0
 10
6.39344262
 20
-11.36258197
  0
VERTEX
  8
0
 10
6.38091248
 20
-10.02230881
  0
VERTEX
  8
0
 10
6.35334618
 20
-9.22965051
  0
VERTEX
  8
0
 10
6.32577987
 20
-8.85159656
  0
VERTEX
  8
0
 10
6.31324973
 20
-8.75513647
  0
VERTEX
  8
0
 10
7.29315025
 20
-8.75513647
  0
VERTEX
  8
0
 10
7.29315025
 20
-6.32347206
  0
VERTEX
  8
0
 10
7.09295552
 20
-6.32347206
  0
VERTEX
  8
0
 10
7.09295552
 20
-5.67887384
  0
VERTEX
  8
0
 10
7.34719174
 20
-5.67887384
  0
VERTEX
  8
0
 10
8.25028624
 20
-3.51175682
  0
VERTEX
  8
0
 10
9.10388662
 20
-5.67887384
  0
VERTEX
  8
0
 10
9.31922073
 20
-5.67887384
  0
VERTEX
  8
0
 10
9.31922073
 20
-6.32347206
  0
VERTEX
  8
0
 10
9.15496123
 20
-6.32347206
  0
VERTEX
  8
0
 10
9.15496123
 20
-8.75513647
  0
VERTEX
  8
0
 10
11.60471252
 20
-8.75513647
  0
VERTEX
  8
0
 10
13.85245902
 20
-8.73963115
  0
VERTEX
  8
0
 10
12.95081967
 20
-9.39134957
  0
VERTEX
  8
0
 10
12.42853324
 20
-10.17405738
  0
SEQEND
  0
POLYLINE
  8
pobeda_orden_002
 66
   1
 39
0.000000
 70
    1
  0
VERTEX
  8
0
 10
7.05587098
 20
12.49765749
  0
VERTEX
  8
0
 10
7.32711748
 20
12.37689367
  0
VERTEX
  8
0
 10
7.58714635
 20
12.23092951
  0
VERTEX
  8
0
 10
7.66456546
 20
12.16933402
  0
VERTEX
  8
0
 10
7.72864818
 20
12.09863615
  0
VERTEX
  8
0
 10
7.77922590
 20
12.01910775
  0
VERTEX
  8
0
 10
7.81613001
 20
11.93102071
  0
VERTEX
  8
0
 10
7.83514267
 20
11.85263214
  0
VERTEX
  8
0
 10
7.84670313
 20
11.67679175
  0
VERTEX
  8
0
 10
7.73715695
 20
11.43074559
  0
VERTEX
  8
0
 10
7.62763044
 20
11.32833689
  0
VERTEX
  8
0
 10
7.57183731
 20
11.28871547
  0
VERTEX
  8
0
 10
7.42177613
 20
11.22571462
  0
VERTEX
  8
0
 10
7.25455129
 20
11.21019202
  0
VERTEX
  8
0
 10
7.16990478
 20
11.22156702
  0
VERTEX
  8
0
 10
6.92955455
 20
11.28507368
  0
VERTEX
  8
0
 10
6.63223098
 20
11.41745977
  0
VERTEX
  8
0
 10
6.22014581
 20
11.60092096
  0
VERTEX
  8
0
 10
6.69160127
 20
12.65982989
  0
VERTEX
  8
0
 10
7.05587098
 20
12.49765749
  0
SEQEND
  0
POLYLINE
  8
pobeda_orden_002
 66
   1
 39
0.000000
 70
    1
  0
VERTEX
  8
0
 10
4.55676587
 20
9.89345728
  0
VERTEX
  8
0
 10
6.21924660
 20
13.62749156
  0
VERTEX
  8
0
 10
7.42854830
 20
13.08906748
  0
VERTEX
  8
0
 10
7.88674042
 20
12.88508184
  0
VERTEX
  8
0
 10
8.20219431
 20
12.70216860
  0
VERTEX
  8
0
 10
8.29974728
 20
12.63348306
  0
VERTEX
  8
0
 10
8.42966090
 20
12.51078735
  0
VERTEX
  8
0
 10
8.53566890
 20
12.36904807
  0
VERTEX
  8
0
 10
8.61760479
 20
12.20834109
  0
VERTEX
  8
0
 10
8.67530207
 20
12.02874229
  0
VERTEX
  8
0
 10
8.70119087
 20
11.86838235
  0
VERTEX
  8
0
 10
8.71142605
 20
11.70019332
  0
VERTEX
  8
0
 10
8.70018768
 20
11.50200793
  0
VERTEX
  8
0
 10
8.46598861
 20
10.97601542
  0
VERTEX
  8
0
 10
8.36832745
 20
10.85666891
  0
VERTEX
  8
0
 10
8.27792459
 20
10.76417013
  0
VERTEX
  8
0
 10
8.18559265
 20
10.68314294
  0
VERTEX
  8
0
 10
8.06946433
 20
10.60181999
  0
VERTEX
  8
0
 10
7.95064892
 20
10.53683033
  0
VERTEX
  8
0
 10
7.82894620
 20
10.48816133
  0
VERTEX
  8
0
 10
7.70415597
 20
10.45580033
  0
VERTEX
  8
0
 10
7.60092673
 20
10.43977755
  0
VERTEX
  8
0
 10
7.38014836
 20
10.42297919
  0
VERTEX
  8
0
 10
7.03939297
 20
10.49759109
  0
VERTEX
  8
0
 10
6.63323135
 20
10.65929703
  0
VERTEX
  8
0
 10
6.42878486
 20
10.74759377
  0
VERTEX
  8
0
 10
5.93756927
 20
10.96628148
  0
VERTEX
  8
0
 10
5.31050563
 20
9.55787235
  0
VERTEX
  8
0
 10
4.55676587
 20
9.89345728
  0
SEQEND
  0
POLYLINE
  8
pobeda_orden_002
 66
   1
 39
0.000000
 70
    1
  0
VERTEX
  8
0
 10
3.32107238
 20
11.81401110
  0
VERTEX
  8
0
 10
4.07746481
 20
11.45210181
  0
VERTEX
  8
0
 10
3.95463000
 20
11.20219186
  0
VERTEX
  8
0
 10
3.81792032
 20
10.96718315
  0
VERTEX
  8
0
 10
3.64597920
 20
10.72758636
  0
VERTEX
  8
0
 10
3.02123102
 20
10.37813112
  0
VERTEX
  8
0
 10
2.73704890
 20
10.35473833
  0
VERTEX
  8
0
 10
2.47663331
 20
10.35881498
  0
VERTEX
  8
0
 10
2.21263949
 20
10.38222253
  0
VERTEX
  8
0
 10
2.01687648
 20
10.41851612
  0
VERTEX
  8
0
 10
1.83246748
 20
10.47077182
  0
VERTEX
  8
0
 10
1.65942171
 20
10.53897671
  0
VERTEX
  8
0
 10
1.49774839
 20
10.62311790
  0
VERTEX
  8
0
 10
1.34745674
 20
10.72318247
  0
VERTEX
  8
0
 10
1.20855599
 20
10.83915751
  0
VERTEX
  8
0
 10
1.08105534
 20
10.97103012
  0
VERTEX
  8
0
 10
0.96496404
 20
11.11878739
  0
VERTEX
  8
0
 10
0.91738919
 20
11.19204063
  0
VERTEX
  8
0
 10
0.80501436
 20
11.39269780
  0
VERTEX
  8
0
 10
0.67336414
 20
11.69210500
  0
VERTEX
  8
0
 10
0.61453719
 20
11.86988554
  0
VERTEX
  8
0
 10
0.56796311
 20
12.06160839
  0
VERTEX
  8
0
 10
0.75205374
 20
13.37153162
  0
VERTEX
  8
0
 10
0.85105761
 20
13.55002586
  0
VERTEX
  8
0
 10
0.95786906
 20
13.71042781
  0
VERTEX
  8
0
 10
1.16901431
 20
13.96991891
  0
VERTEX
  8
0
 10
1.33368869
 20
14.13593298
  0
VERTEX
  8
0
 10
1.40009144
 20
14.19439809
  0
VERTEX
  8
0
 10
1.55401690
 20
14.30624007
  0
VERTEX
  8
0
 10
1.71575572
 20
14.39922393
  0
VERTEX
  8
0
 10
1.88531715
 20
14.47333705
  0
VERTEX
  8
0
 10
2.06271038
 20
14.52856677
  0
VERTEX
  8
0
 10
2.24794466
 20
14.56490045
  0
VERTEX
  8
0
 10
2.44102918
 20
14.58232544
  0
VERTEX
  8
0
 10
2.64197319
 20
14.58082910
  0
VERTEX
  8
0
 10
2.85078589
 20
14.56039878
  0
VERTEX
  8
0
 10
3.14589235
 20
14.50030350
  0
VERTEX
  8
0
 10
3.42932911
 20
14.41624428
  0
VERTEX
  8
0
 10
3.72740261
 20
14.28823059
  0
VERTEX
  8
0
 10
4.15580842
 20
13.75329095
  0
VERTEX
  8
0
 10
4.22243702
 20
13.54559853
  0
VERTEX
  8
0
 10
4.26898516
 20
13.35009390
  0
VERTEX
  8
0
 10
4.30521206
 20
13.14798817
  0
VERTEX
  8
0
 10
3.46854271
 20
13.06858799
  0
VERTEX
  8
0
 10
3.45017917
 20
13.19945386
  0
VERTEX
  8
0
 10
3.42139850
 20
13.32737376
  0
VERTEX
  8
0
 10
3.37437301
 20
13.46525171
  0
VERTEX
  8
0
 10
3.10416060
 20
13.75117780
  0
VERTEX
  8
0
 10
2.96840107
 20
13.80580442
  0
VERTEX
  8
0
 10
2.84156899
 20
13.84188274
  0
VERTEX
  8
0
 10
2.71116116
 20
13.86789518
  0
VERTEX
  8
0
 10
2.49402107
 20
13.87786200
  0
VERTEX
  8
0
 10
2.29223638
 20
13.84449607
  0
VERTEX
  8
0
 10
2.10597149
 20
13.76768567
  0
VERTEX
  8
0
 10
1.93539077
 20
13.64731912
  0
VERTEX
  8
0
 10
1.80920360
 20
13.51104395
  0
VERTEX
  8
0
 10
1.69243353
 20
13.34656732
  0
VERTEX
  8
0
 10
1.57629151
 20
13.12308007
  0
VERTEX
  8
0
 10
1.43655438
 20
12.12886925
  0
VERTEX
  8
0
 10
1.48386544
 20
11.87267011
  0
VERTEX
  8
0
 10
1.54880381
 20
11.67714862
  0
VERTEX
  8
0
 10
1.63094096
 20
11.50859464
  0
VERTEX
  8
0
 10
1.75911588
 20
11.34497050
  0
VERTEX
  8
0
 10
1.91380131
 20
11.21933866
  0
VERTEX
  8
0
 10
2.09489400
 20
11.13162114
  0
VERTEX
  8
0
 10
2.30229066
 20
11.08173996
  0
VERTEX
  8
0
 10
2.43567151
 20
11.07176155
  0
VERTEX
  8
0
 10
2.56876784
 20
11.07387785
  0
VERTEX
  8
0
 10
2.71624169
 20
11.09369945
  0
VERTEX
  8
0
 10
3.06794495
 20
11.32585282
  0
VERTEX
  8
0
 10
3.32107238
 20
11.81401110
  0
SEQEND
  0
POLYLINE
  8
pobeda_orden_002
 66
   1
 39
0.000000
 70
    1
  0
VERTEX
  8
0
 10
-1.22074414
 20
12.14379613
  0
VERTEX
  8
0
 10
-0.39389866
 20
12.00439620
  0
VERTEX
  8
0
 10
-0.44307698
 20
11.73031438
  0
VERTEX
  8
0
 10
-0.50970593
 20
11.46672837
  0
VERTEX
  8
0
 10
-0.60894457
 20
11.18901564
  0
VERTEX
  8
0
 10
-1.11317622
 20
10.68089491
  0
VERTEX
  8
0
 10
-1.37990419
 20
10.58006825
  0
VERTEX
  8
0
 10
-1.63135685
 20
10.51220324
  0
VERTEX
  8
0
 10
-1.89157679
 20
10.46193744
  0
VERTEX
  8
0
 10
-2.08976082
 20
10.44286902
  0
VERTEX
  8
0
 10
-2.28143076
 20
10.44227355
  0
VERTEX
  8
0
 10
-2.46657424
 20
10.46014104
  0
VERTEX
  8
0
 10
-2.64517886
 20
10.49646145
  0
VERTEX
  8
0
 10
-2.81723225
 20
10.55122480
  0
VERTEX
  8
0
 10
-2.98272203
 20
10.62442105
  0
VERTEX
  8
0
 10
-3.14163581
 20
10.71604021
  0
VERTEX
  8
0
 10
-3.29396122
 20
10.82607226
  0
VERTEX
  8
0
 10
-3.35988240
 20
10.88337227
  0
VERTEX
  8
0
 10
-3.52320902
 20
11.04527702
  0
VERTEX
  8
0
 10
-3.73228573
 20
11.29679361
  0
VERTEX
  8
0
 10
-3.83783807
 20
11.45147105
  0
VERTEX
  8
0
 10
-3.93545717
 20
11.62292911
  0
VERTEX
  8
0
 10
-4.11954780
 20
12.93287481
  0
VERTEX
  8
0
 10
-4.07357937
 20
13.13173768
  0
VERTEX
  8
0
 10
-4.01511834
 20
13.31536264
  0
VERTEX
  8
0
 10
-3.88367676
 20
13.62299551
  0
VERTEX
  8
0
 10
-3.77113966
 20
13.82796677
  0
VERTEX
  8
0
 10
-3.72342360
 20
13.90246978
  0
VERTEX
  8
0
 10
-3.60628644
 20
14.05240679
  0
VERTEX
  8
0
 10
-3.47644276
 20
14.18636984
  0
VERTEX
  8
0
 10
-3.33387966
 20
14.30434944
  0
VERTEX
  8
0
 10
-3.17858423
 20
14.40633612
  0
VERTEX
  8
0
 10
-3.01054356
 20
14.49232038
  0
VERTEX
  8
0
 10
-2.82974474
 20
14.56229274
  0
VERTEX
  8
0
 10
-2.63617487
 20
14.61624372
  0
VERTEX
  8
0
 10
-2.42982103
 20
14.65416384
  0
VERTEX
  8
0
 10
-2.12957222
 20
14.67773998
  0
VERTEX
  8
0
 10
-1.83394134
 20
14.67506624
  0
VERTEX
  8
0
 10
-1.51213293
 20
14.63417891
  0
VERTEX
  8
0
 10
-0.95286967
 20
14.23803223
  0
VERTEX
  8
0
 10
-0.83157300
 20
14.05675057
  0
VERTEX
  8
0
 10
-0.73294273
 20
13.88165027
  0
VERTEX
  8
0
 10
-0.64241764
 20
13.69736012
  0
VERTEX
  8
0
 10
-1.42477474
 20
13.39041501
  0
VERTEX
  8
0
 10
-1.47850531
 20
13.51116197
  0
VERTEX
  8
0
 10
-1.54143556
 20
13.62620246
  0
VERTEX
  8
0
 10
-1.62464650
 20
13.74578255
  0
VERTEX
  8
0
 10
-1.96322130
 20
13.94612639
  0
VERTEX
  8
0
 10
-2.10876711
 20
13.96122538
  0
VERTEX
  8
0
 10
-2.24062457
 20
13.96095211
  0
VERTEX
  8
0
 10
-2.37314836
 20
13.95001547
  0
VERTEX
  8
0
 10
-2.58462343
 20
13.89973211
  0
VERTEX
  8
0
 10
-2.76939620
 20
13.81203180
  0
VERTEX
  8
0
 10
-2.92727699
 20
13.68685132
  0
VERTEX
  8
0
 10
-3.05807613
 20
13.52412744
  0
VERTEX
  8
0
 10
-3.14180938
 20
13.35836101
  0
VERTEX
  8
0
 10
-3.20871758
 20
13.16807531
  0
VERTEX
  8
0
 10
-3.25875717
 20
12.92123005
  0
VERTEX
  8
0
 10
-3.11904252
 20
11.92699675
  0
VERTEX
  8
0
 10
-3.00294546
 20
11.69376643
  0
VERTEX
  8
0
 10
-2.88662500
 20
11.52372384
  0
VERTEX
  8
0
 10
-2.76120216
 20
11.38434639
  0
VERTEX
  8
0
 10
-2.59290424
 20
11.26239217
  0
VERTEX
  8
0
 10
-2.40958601
 20
11.18426388
  0
VERTEX
  8
0
 10
-2.21132545
 20
11.14985823
  0
VERTEX
  8
0
 10
-1.99820054
 20
11.15907197
  0
VERTEX
  8
0
 10
-1.86723632
 20
11.18624495
  0
VERTEX
  8
0
 10
-1.73987947
 20
11.22496575
  0
VERTEX
  8
0
 10
-1.60358252
 20
11.28466903
  0
VERTEX
  8
0
 10
-1.32950351
 20
11.60478756
  0
VERTEX
  8
0
 10
-1.22074414
 20
12.14379613
  0
SEQEND
  0
POLYLINE
  8
pobeda_orden_002
 66
   1
 39
0.000000
 70
    1
  0
VERTEX
  8
0
 10
-5.68210390
 20
11.16379282
  0
VERTEX
  8
0
 10
-4.85062749
 20
11.27221498
  0
VERTEX
  8
0
 10
-4.81751972
 20
10.99573059
  0
VERTEX
  8
0
 10
-4.80417560
 20
10.72418131
  0
VERTEX
  8
0
 10
-4.81789627
 20
10.42958838
  0
VERTEX
  8
0
 10
-5.15152542
 20
9.79625275
  0
VERTEX
  8
0
 10
-5.37712370
 20
9.62185180
  0
VERTEX
  8
0
 10
-5.59775244
 20
9.48343468
  0
VERTEX
  8
0
 10
-5.83191217
 20
9.35928197
  0
VERTEX
  8
0
 10
-6.01585958
 20
9.28309935
  0
VERTEX
  8
0
 10
-6.19897716
 20
9.22648771
  0
VERTEX
  8
0
 10
-6.38125067
 20
9.18944125
  0
VERTEX
  8
0
 10
-6.56266589
 20
9.17195418
  0
VERTEX
  8
0
 10
-6.74320860
 20
9.17402069
  0
VERTEX
  8
0
 10
-6.92286457
 20
9.19563500
  0
VERTEX
  8
0
 10
-7.10161958
 20
9.23679130
  0
VERTEX
  8
0
 10
-7.27945939
 20
9.29748380
  0
VERTEX
  8
0
 10
-7.35925544
 20
9.33300538
  0
VERTEX
  8
0
 10
-7.56278621
 20
9.44008155
  0
VERTEX
  8
0
 10
-7.83626563
 20
9.61947943
  0
VERTEX
  8
0
 10
-7.98242794
 20
9.73653875
  0
VERTEX
  8
0
 10
-8.12590763
 20
9.87196618
  0
VERTEX
  8
0
 10
-8.68494609
 20
11.07083705
  0
VERTEX
  8
0
 10
-8.69912901
 20
11.27445730
  0
VERTEX
  8
0
 10
-8.69691119
 20
11.46715584
  0
VERTEX
  8
0
 10
-8.66116200
 20
11.79978111
  0
VERTEX
  8
0
 10
-8.61347580
 20
12.02869944
  0
VERTEX
  8
0
 10
-8.58962990
 20
12.11389742
  0
VERTEX
  8
0
 10
-8.52144594
 20
12.29153122
  0
VERTEX
  8
0
 10
-8.43643975
 20
12.45760263
  0
VERTEX
  8
0
 10
-8.33459656
 20
12.61210690
  0
VERTEX
  8
0
 10
-8.21590163
 20
12.75503930
  0
VERTEX
  8
0
 10
-8.08034020
 20
12.88639509
  0
VERTEX
  8
0
 10
-7.92789752
 20
13.00616951
  0
VERTEX
  8
0
 10
-7.75855883
 20
13.11435783
  0
VERTEX
  8
0
 10
-7.57230939
 20
13.21095531
  0
VERTEX
  8
0
 10
-7.29207361
 20
13.32128829
  0
VERTEX
  8
0
 10
-7.00857995
 20
13.40516556
  0
VERTEX
  8
0
 10
-6.68888117
 20
13.46014870
  0
VERTEX
  8
0
 10
-6.03823576
 20
13.24483302
  0
VERTEX
  8
0
 10
-5.86923428
 20
13.10693821
  0
VERTEX
  8
0
 10
-5.72371481
 20
12.96832895
  0
VERTEX
  8
0
 10
-5.58325831
 20
12.81856283
  0
VERTEX
  8
0
 10
-6.24170436
 20
12.29627955
  0
VERTEX
  8
0
 10
-6.32838533
 20
12.39602716
  0
VERTEX
  8
0
 10
-6.42219148
 20
12.48763517
  0
VERTEX
  8
0
 10
-6.53671246
 20
12.57766464
  0
VERTEX
  8
0
 10
-6.91907876
 20
12.67028320
  0
VERTEX
  8
0
 10
-7.06268706
 20
12.64216991
  0
VERTEX
  8
0
 10
-7.18870387
 20
12.60335674
  0
VERTEX
  8
0
 10
-7.31223557
 20
12.55415032
  0
VERTEX
  8
0
 10
-7.49977235
 20
12.44423321
  0
VERTEX
  8
0
 10
-7.65083004
 20
12.30634508
  0
VERTEX
  8
0
 10
-7.76521263
 20
12.14047748
  0
VERTEX
  8
0
 10
-7.84272413
 20
11.94662200
  0
VERTEX
  8
0
 10
-7.87433696
 20
11.76361041
  0
VERTEX
  8
0
 10
-7.88268907
 20
11.56207090
  0
VERTEX
  8
0
 10
-7.85837037
 20
11.31137555
  0
VERTEX
  8
0
 10
-7.43405596
 20
10.40144313
  0
VERTEX
  8
0
 10
-7.25484459
 20
10.21235134
  0
VERTEX
  8
0
 10
-7.09389911
 20
10.08374122
  0
VERTEX
  8
0
 10
-6.93321883
 20
9.98710994
  0
VERTEX
  8
0
 10
-6.73660600
 20
9.91969523
  0
VERTEX
  8
0
 10
-6.53845468
 20
9.89858278
  0
VERTEX
  8
0
 10
-6.33880281
 20
9.92365034
  0
VERTEX
  8
0
 10
-6.13768831
 20
9.99477570
  0
VERTEX
  8
0
 10
-6.02038926
 20
10.05905231
  0
VERTEX
  8
0
 10
-5.90991472
 20
10.13331576
  0
VERTEX
  8
0
 10
-5.79702285
 20
10.23025615
  0
VERTEX
  8
0
 10
-5.62851102
 20
10.61651152
  0
VERTEX
  8
0
 10
-5.68210390
 20
11.16379282
  0
SEQEND
  0
POLYLINE
  8
pobeda_orden_002
 66
   1
 39
0.000000
 70
    1
  0
VERTEX
  8
0
 10
23.44722106
 20
-36.41330656
  0
VERTEX
  8
0
 10
22.71227478
 20
-36.49349356
  0
VERTEX
  8
0
 10
22.27534895
 20
-35.89707047
  0
VERTEX
  8
0
 10
21.83842313
 20
-35.30066987
  0
VERTEX
  8
0
 10
22.13646607
 20
-34.62408227
  0
VERTEX
  8
0
 10
22.43450901
 20
-33.94749468
  0
VERTEX
  8
0
 10
23.16947777
 20
-33.86730768
  0
VERTEX
  8
0
 10
23.90444653
 20
-33.78712069
  0
VERTEX
  8
0
 10
24.34137236
 20
-34.38352129
  0
VERTEX
  8
0
 10
24.77829818
 20
-34.97994438
  0
VERTEX
  8
0
 10
24.48025524
 20
-35.65653197
  0
VERTEX
  8
0
 10
24.18221230
 20
-36.33311957
  0
VERTEX
  8
0
 10
23.44722106
 20
-36.41330656
  0
SEQEND
  0
POLYLINE
  8
pobeda_orden_002
 66
   1
 39
0.000000
 70
    1
  0
VERTEX
  8
0
 10
22.47243316
 20
-32.42468364
  0
VERTEX
  8
0
 10
21.73748688
 20
-32.50487063
  0
VERTEX
  8
0
 10
21.30056105
 20
-31.90847003
  0
VERTEX
  8
0
 10
20.86363523
 20
-31.31206943
  0
VERTEX
  8
0
 10
21.16167817
 20
-30.63545935
  0
VERTEX
  8
0
 10
21.45972111
 20
-29.95887175
  0
VERTEX
  8
0
 10
22.19468987
 20
-29.87868476
  0
VERTEX
  8
0
 10
22.92965864
 20
-29.79849777
  0
VERTEX
  8
0
 10
23.36658446
 20
-30.39492085
  0
VERTEX
  8
0
 10
23.80351028
 20
-30.99132145
  0
VERTEX
  8
0
 10
23.50544486
 20
-31.66790905
  0
VERTEX
  8
0
 10
23.20740192
 20
-32.34451913
  0
VERTEX
  8
0
 10
22.47243316
 20
-32.42468364
  0
SEQEND
  0
POLYLINE
  8
pobeda_orden_002
 66
   1
 39
0.000000
 70
    1
  0
VERTEX
  8
0
 10
21.49764526
 20
-28.43606072
  0
VERTEX
  8
0
 10
20.76267650
 20
-28.51624771
  0
VERTEX
  8
0
 10
20.32575067
 20
-27.91982463
  0
VERTEX
  8
0
 10
19.88882485
 20
-27.32342403
  0
VERTEX
  8
0
 10
20.18686779
 20
-26.64683643
  0
VERTEX
  8
0
 10
20.48493321
 20
-25.97022635
  0
VERTEX
  8
0
 10
21.21987949
 20
-25.89006184
  0
VERTEX
  8
0
 10
21.95484826
 20
-25.80987484
  0
VERTEX
  8
0
 10
22.39177408
 20
-26.40627545
  0
VERTEX
  8
0
 10
22.82869991
 20
-27.00267605
  0
VERTEX
  8
0
 10
22.53065697
 20
-27.67928613
  0
VERTEX
  8
0
 10
22.23261403
 20
-28.35587372
  0
VERTEX
  8
0
 10
21.49764526
 20
-28.43606072
  0
SEQEND
  0
POLYLINE
  8
pobeda_orden_002
 66
   1
 39
0.000000
 70
    1
  0
VERTEX
  8
0
 10
20.52285736
 20
-24.44743779
  0
VERTEX
  8
0
 10
19.78788860
 20
-24.52762479
  0
VERTEX
  8
0
 10
19.35096278
 20
-23.93122419
  0
VERTEX
  8
0
 10
18.91403695
 20
-23.33480110
  0
VERTEX
  8
0
 10
19.21207989
 20
-22.65821351
  0
VERTEX
  8
0
 10
19.51012283
 20
-21.98162591
  0
VERTEX
  8
0
 10
20.24509160
 20
-21.90143891
  0
VERTEX
  8
0
 10
20.98006036
 20
-21.82125192
  0
VERTEX
  8
0
 10
21.41698618
 20
-22.41767500
  0
VERTEX
  8
0
 10
21.85391201
 20
-23.01407561
  0
VERTEX
  8
0
 10
21.55586907
 20
-23.69066320
  0
VERTEX
  8
0
 10
21.25782613
 20
-24.36727328
  0
VERTEX
  8
0
 10
20.52285736
 20
-24.44743779
  0
SEQEND
  0
POLYLINE
  8
pobeda_orden_002
 66
   1
 39
0.000000
 70
    1
  0
VERTEX
  8
0
 10
19.54806947
 20
-20.45881487
  0
VERTEX
  8
0
 10
18.81310070
 20
-20.53900186
  0
VERTEX
  8
0
 10
18.37617488
 20
-19.94260126
  0
VERTEX
  8
0
 10
17.93924905
 20
-19.34617818
  0
VERTEX
  8
0
 10
18.23729199
 20
-18.66959058
  0
VERTEX
  8
0
 10
18.53535741
 20
-17.99300299
  0
VERTEX
  8
0
 10
19.27030370
 20
-17.91281599
  0
VERTEX
  8
0
 10
20.00527246
 20
-17.83262900
  0
VERTEX
  8
0
 10
20.44219829
 20
-18.42905208
  0
VERTEX
  8
0
 10
20.87912411
 20
-19.02545268
  0
VERTEX
  8
0
 10
20.58108117
 20
-19.70204028
  0
VERTEX
  8
0
 10
20.28303823
 20
-20.37865036
  0
VERTEX
  8
0
 10
19.54806947
 20
-20.45881487
  0
SEQEND
  0
POLYLINE
  8
pobeda_orden_002
 66
   1
 39
0.000000
 70
    1
  0
VERTEX
  8
0
 10
21.66330211
 20
-38.17847700
  0
VERTEX
  8
0
 10
20.92833334
 20
-38.25866400
  0
VERTEX
  8
0
 10
20.19336458
 20
-38.33885099
  0
VERTEX
  8
0
 10
19.75643875
 20
-37.74242791
  0
VERTEX
  8
0
 10
19.31951293
 20
-37.14602730
  0
VERTEX
  8
0
 10
19.61755587
 20
-36.46943971
  0
VERTEX
  8
0
 10
19.91562129
 20
-35.79282963
  0
VERTEX
  8
0
 10
20.65056757
 20
-35.71266512
  0
VERTEX
  8
0
 10
21.38553634
 20
-35.63247812
  0
VERTEX
  8
0
 10
21.82246216
 20
-36.22887873
  0
VERTEX
  8
0
 10
22.25938799
 20
-36.82527933
  0
VERTEX
  8
0
 10
21.96134505
 20
-37.50188940
  0
VERTEX
  8
0
 10
21.66330211
 20
-38.17847700
  0
SEQEND
  0
POLYLINE
  8
pobeda_orden_002
 66
   1
 39
0.000000
 70
    1
  0
VERTEX
  8
0
 10
18.15420505
 20
-36.04647411
  0
VERTEX
  8
0
 10
17.41923629
 20
-36.12666110
  0
VERTEX
  8
0
 10
16.68426752
 20
-36.20684810
  0
VERTEX
  8
0
 10
16.24734170
 20
-35.61042501
  0
VERTEX
  8
0
 10
15.81041587
 20
-35.01402441
  0
VERTEX
  8
0
 10
16.10845881
 20
-34.33743681
  0
VERTEX
  8
0
 10
16.40650175
 20
-33.66084922
  0
VERTEX
  8
0
 10
17.14147052
 20
-33.58066222
  0
VERTEX
  8
0
 10
17.87643928
 20
-33.50047523
  0
VERTEX
  8
0
 10
18.31336511
 20
-34.09685335
  0
VERTEX
  8
0
 10
18.75029093
 20
-34.69329891
  0
VERTEX
  8
0
 10
18.45224799
 20
-35.36988651
  0
VERTEX
  8
0
 10
18.15420505
 20
-36.04647411
  0
SEQEND
  0
POLYLINE
  8
pobeda_orden_002
 66
   1
 39
0.000000
 70
    1
  0
VERTEX
  8
0
 10
14.64506303
 20
-33.91447121
  0
VERTEX
  8
0
 10
13.91009427
 20
-33.99465821
  0
VERTEX
  8
0
 10
13.17512551
 20
-34.07484520
  0
VERTEX
  8
0
 10
12.73819968
 20
-33.47844460
  0
VERTEX
  8
0
 10
12.30127386
 20
-32.88199904
  0
VERTEX
  8
0
 10
12.59931680
 20
-32.20543392
  0
VERTEX
  8
0
 10
12.89735974
 20
-31.52884632
  0
VERTEX
  8
0
 10
13.63232850
 20
-31.44865933
  0
VERTEX
  8
0
 10
14.36729726
 20
-31.36847234
  0
VERTEX
  8
0
 10
14.80422309
 20
-31.96487294
  0
VERTEX
  8
0
 10
15.24114891
 20
-32.56129602
  0
VERTEX
  8
0
 10
14.94310597
 20
-33.23786114
  0
VERTEX
  8
0
 10
14.64506303
 20
-33.91447121
  0
SEQEND
  0
POLYLINE
  8
pobeda_orden_002
 66
   1
 39
0.000000
 70
    1
  0
VERTEX
  8
0
 10
11.13596598
 20
-31.78249080
  0
VERTEX
  8
0
 10
10.40099721
 20
-31.86265531
  0
VERTEX
  8
0
 10
9.66602845
 20
-31.94284231
  0
VERTEX
  8
0
 10
9.22910263
 20
-31.34644171
  0
VERTEX
  8
0
 10
8.79217680
 20
-30.75004110
  0
VERTEX
  8
0
 10
9.09021974
 20
-30.07343103
  0
VERTEX
  8
0
 10
9.38826268
 20
-29.39684343
  0
VERTEX
  8
0
 10
10.12323145
 20
-29.31665644
  0
VERTEX
  8
0
 10
10.85820021
 20
-29.23646944
  0
VERTEX
  8
0
 10
11.29512603
 20
-29.83289252
  0
VERTEX
  8
0
 10
11.73205186
 20
-30.42929313
  0
VERTEX
  8
0
 10
11.43400892
 20
-31.10588072
  0
VERTEX
  8
0
 10
11.13596598
 20
-31.78249080
  0
SEQEND
  0
POLYLINE
  8
pobeda_orden_002
 66
   1
 39
0.000000
 70
    1
  0
VERTEX
  8
0
 10
7.62684644
 20
-29.65051039
  0
VERTEX
  8
0
 10
6.89187768
 20
-29.73067490
  0
VERTEX
  8
0
 10
6.15690891
 20
-29.81086190
  0
VERTEX
  8
0
 10
5.71998309
 20
-29.21446129
  0
VERTEX
  8
0
 10
5.28305727
 20
-28.61803821
  0
VERTEX
  8
0
 10
5.58110021
 20
-27.94145061
  0
VERTEX
  8
0
 10
5.87914315
 20
-27.26486302
  0
VERTEX
  8
0
 10
6.61411191
 20
-27.18467602
  0
VERTEX
  8
0
 10
7.34908067
 20
-27.10448903
  0
VERTEX
  8
0
 10
7.78600650
 20
-27.70091211
  0
VERTEX
  8
0
 10
8.22293232
 20
-28.29731271
  0
VERTEX
  8
0
 10
7.92488938
 20
-28.97390031
  0
VERTEX
  8
0
 10
7.62684644
 20
-29.65051039
  0
SEQEND
  0
POLYLINE
  8
pobeda_orden_002
 66
   1
 39
0.000000
 70
    1
  0
VERTEX
  8
0
 10
25.17242164
 20
-40.31047990
  0
VERTEX
  8
0
 10
24.43745288
 20
-40.39066689
  0
VERTEX
  8
0
 10
23.70248411
 20
-40.47085388
  0
VERTEX
  8
0
 10
23.26553581
 20
-39.87445328
  0
VERTEX
  8
0
 10
22.82863247
 20
-39.27803020
  0
VERTEX
  8
0
 10
23.12667541
 20
-38.60144260
  0
VERTEX
  8
0
 10
23.42471835
 20
-37.92483252
  0
VERTEX
  8
0
 10
24.15968711
 20
-37.84466801
  0
VERTEX
  8
0
 10
24.89465587
 20
-37.76448102
  0
VERTEX
  8
0
 10
25.33158170
 20
-38.36090410
  0
VERTEX
  8
0
 10
25.76850752
 20
-38.95730470
  0
VERTEX
  8
0
 10
25.47046458
 20
-39.63389230
  0
VERTEX
  8
0
 10
25.17242164
 20
-40.31047990
  0
SEQEND
  0
POLYLINE
  8
pobeda_orden_002
 66
   1
 39
0.000000
 70
    1
  0
VERTEX
  8
0
 10
-24.22492475
 20
-36.33311957
  0
VERTEX
  8
0
 10
-24.52296769
 20
-35.65653197
  0
VERTEX
  8
0
 10
-24.82101063
 20
-34.97994438
  0
VERTEX
  8
0
 10
-24.38408480
 20
-34.38352129
  0
VERTEX
  8
0
 10
-23.94715898
 20
-33.78712069
  0
VERTEX
  8
0
 10
-23.21219021
 20
-33.86730768
  0
VERTEX
  8
0
 10
-22.47722145
 20
-33.94749468
  0
VERTEX
  8
0
 10
-22.17917851
 20
-34.62408227
  0
VERTEX
  8
0
 10
-21.88113557
 20
-35.30066987
  0
VERTEX
  8
0
 10
-22.31806140
 20
-35.89707047
  0
VERTEX
  8
0
 10
-22.75498722
 20
-36.49349356
  0
VERTEX
  8
0
 10
-23.48995598
 20
-36.41330656
  0
VERTEX
  8
0
 10
-24.22492475
 20
-36.33311957
  0
SEQEND
  0
POLYLINE
  8
pobeda_orden_002
 66
   1
 39
0.000000
 70
    1
  0
VERTEX
  8
0
 10
-23.25011437
 20
-32.34451913
  0
VERTEX
  8
0
 10
-23.54815731
 20
-31.66790905
  0
VERTEX
  8
0
 10
-23.84622273
 20
-30.99132145
  0
VERTEX
  8
0
 10
-23.40929690
 20
-30.39492085
  0
VERTEX
  8
0
 10
-22.97237108
 20
-29.79849777
  0
VERTEX
  8
0
 10
-22.23740232
 20
-29.87868476
  0
VERTEX
  8
0
 10
-21.50243355
 20
-29.95887175
  0
VERTEX
  8
0
 10
-21.20439061
 20
-30.63545935
  0
VERTEX
  8
0
 10
-20.90634767
 20
-31.31206943
  0
VERTEX
  8
0
 10
-21.34327350
 20
-31.90847003
  0
VERTEX
  8
0
 10
-21.78019932
 20
-32.50487063
  0
VERTEX
  8
0
 10
-22.51514561
 20
-32.42468364
  0
VERTEX
  8
0
 10
-23.25011437
 20
-32.34451913
  0
SEQEND
  0
POLYLINE
  8
pobeda_orden_002
 66
   1
 39
0.000000
 70
    1
  0
VERTEX
  8
0
 10
-22.27532647
 20
-28.35587372
  0
VERTEX
  8
0
 10
-22.57336941
 20
-27.67928613
  0
VERTEX
  8
0
 10
-22.87141235
 20
-27.00267605
  0
VERTEX
  8
0
 10
-22.43448653
 20
-26.40627545
  0
VERTEX
  8
0
 10
-21.99756070
 20
-25.80987484
  0
VERTEX
  8
0
 10
-21.26259194
 20
-25.89006184
  0
VERTEX
  8
0
 10
-20.52764565
 20
-25.97022635
  0
VERTEX
  8
0
 10
-20.22958023
 20
-26.64683643
  0
VERTEX
  8
0
 10
-19.93153729
 20
-27.32342403
  0
VERTEX
  8
0
 10
-20.36846312
 20
-27.91982463
  0
VERTEX
  8
0
 10
-20.80538894
 20
-28.51624771
  0
VERTEX
  8
0
 10
-21.54035771
 20
-28.43606072
  0
VERTEX
  8
0
 10
-22.27532647
 20
-28.35587372
  0
SEQEND
  0
POLYLINE
  8
pobeda_orden_002
 66
   1
 39
0.000000
 70
    1
  0
VERTEX
  8
0
 10
-21.30053857
 20
-24.36727328
  0
VERTEX
  8
0
 10
-21.59858151
 20
-23.69066320
  0
VERTEX
  8
0
 10
-21.89662445
 20
-23.01407561
  0
VERTEX
  8
0
 10
-21.45969863
 20
-22.41767500
  0
VERTEX
  8
0
 10
-21.02277280
 20
-21.82125192
  0
VERTEX
  8
0
 10
-20.28780404
 20
-21.90143891
  0
VERTEX
  8
0
 10
-19.55283528
 20
-21.98162591
  0
VERTEX
  8
0
 10
-19.25479234
 20
-22.65821351
  0
VERTEX
  8
0
 10
-18.95674940
 20
-23.33480110
  0
VERTEX
  8
0
 10
-19.39367522
 20
-23.93122419
  0
VERTEX
  8
0
 10
-19.83060105
 20
-24.52762479
  0
VERTEX
  8
0
 10
-20.56556981
 20
-24.44743779
  0
VERTEX
  8
0
 10
-21.30053857
 20
-24.36727328
  0
SEQEND
  0
POLYLINE
  8
pobeda_orden_002
 66
   1
 39
0.000000
 70
    1
  0
VERTEX
  8
0
 10
-20.32575067
 20
-20.37865036
  0
VERTEX
  8
0
 10
-20.62379361
 20
-19.70204028
  0
VERTEX
  8
0
 10
-20.92183655
 20
-19.02545268
  0
VERTEX
  8
0
 10
-20.48491073
 20
-18.42905208
  0
VERTEX
  8
0
 10
-20.04798491
 20
-17.83262900
  0
VERTEX
  8
0
 10
-19.31301614
 20
-17.91281599
  0
VERTEX
  8
0
 10
-18.57806986
 20
-17.99300299
  0
VERTEX
  8
0
 10
-18.28000444
 20
-18.66959058
  0
VERTEX
  8
0
 10
-17.98196150
 20
-19.34617818
  0
VERTEX
  8
0
 10
-18.41888732
 20
-19.94260126
  0
VERTEX
  8
0
 10
-18.85581315
 20
-20.53900186
  0
VERTEX
  8
0
 10
-19.59078191
 20
-20.45881487
  0
VERTEX
  8
0
 10
-20.32575067
 20
-20.37865036
  0
SEQEND
  0
POLYLINE
  8
pobeda_orden_002
 66
   1
 39
0.000000
 70
    1
  0
VERTEX
  8
0
 10
-22.00405749
 20
-37.50188940
  0
VERTEX
  8
0
 10
-22.30210043
 20
-36.82527933
  0
VERTEX
  8
0
 10
-21.86517461
 20
-36.22887873
  0
VERTEX
  8
0
 10
-21.42824878
 20
-35.63247812
  0
VERTEX
  8
0
 10
-20.69328002
 20
-35.71266512
  0
VERTEX
  8
0
 10
-19.95833373
 20
-35.79282963
  0
VERTEX
  8
0
 10
-19.66026831
 20
-36.46943971
  0
VERTEX
  8
0
 10
-19.36222537
 20
-37.14602730
  0
VERTEX
  8
0
 10
-19.79915120
 20
-37.74242791
  0
VERTEX
  8
0
 10
-20.23607702
 20
-38.33885099
  0
VERTEX
  8
0
 10
-20.97104579
 20
-38.25866400
  0
VERTEX
  8
0
 10
-21.70601455
 20
-38.17847700
  0
VERTEX
  8
0
 10
-22.00405749
 20
-37.50188940
  0
SEQEND
  0
POLYLINE
  8
pobeda_orden_002
 66
   1
 39
0.000000
 70
    1
  0
VERTEX
  8
0
 10
-18.49496043
 20
-35.36988651
  0
VERTEX
  8
0
 10
-18.79300337
 20
-34.69329891
  0
VERTEX
  8
0
 10
-18.35607755
 20
-34.09685335
  0
VERTEX
  8
0
 10
-17.91915173
 20
-33.50047523
  0
VERTEX
  8
0
 10
-17.18418296
 20
-33.58066222
  0
VERTEX
  8
0
 10
-16.44921420
 20
-33.66084922
  0
VERTEX
  8
0
 10
-16.15117126
 20
-34.33743681
  0
VERTEX
  8
0
 10
-15.85312832
 20
-35.01402441
  0
VERTEX
  8
0
 10
-16.29005414
 20
-35.61042501
  0
VERTEX
  8
0
 10
-16.72697997
 20
-36.20684810
  0
VERTEX
  8
0
 10
-17.46194873
 20
-36.12666110
  0
VERTEX
  8
0
 10
-18.19691749
 20
-36.04647411
  0
VERTEX
  8
0
 10
-18.49496043
 20
-35.36988651
  0
SEQEND
  0
POLYLINE
  8
pobeda_orden_002
 66
   1
 39
0.000000
 70
    1
  0
VERTEX
  8
0
 10
-14.98581842
 20
-33.23786114
  0
VERTEX
  8
0
 10
-15.28386136
 20
-32.56129602
  0
VERTEX
  8
0
 10
-14.84693553
 20
-31.96487294
  0
VERTEX
  8
0
 10
-14.41000971
 20
-31.36847234
  0
VERTEX
  8
0
 10
-13.67504095
 20
-31.44865933
  0
VERTEX
  8
0
 10
-12.94007218
 20
-31.52884632
  0
VERTEX
  8
0
 10
-12.64202924
 20
-32.20543392
  0
VERTEX
  8
0
 10
-12.34398630
 20
-32.88199904
  0
VERTEX
  8
0
 10
-12.78091213
 20
-33.47844460
  0
VERTEX
  8
0
 10
-13.21783795
 20
-34.07484520
  0
VERTEX
  8
0
 10
-13.95280671
 20
-33.99465821
  0
VERTEX
  8
0
 10
-14.68777548
 20
-33.91447121
  0
VERTEX
  8
0
 10
-14.98581842
 20
-33.23786114
  0
SEQEND
  0
POLYLINE
  8
pobeda_orden_002
 66
   1
 39
0.000000
 70
    1
  0
VERTEX
  8
0
 10
-11.47672136
 20
-31.10588072
  0
VERTEX
  8
0
 10
-11.77476430
 20
-30.42929313
  0
VERTEX
  8
0
 10
-11.33783848
 20
-29.83289252
  0
VERTEX
  8
0
 10
-10.90091265
 20
-29.23646944
  0
VERTEX
  8
0
 10
-10.16594389
 20
-29.31665644
  0
VERTEX
  8
0
 10
-9.43097513
 20
-29.39684343
  0
VERTEX
  8
0
 10
-9.13293219
 20
-30.07343103
  0
VERTEX
  8
0
 10
-8.83488925
 20
-30.75004110
  0
VERTEX
  8
0
 10
-9.27181507
 20
-31.34644171
  0
VERTEX
  8
0
 10
-9.70874089
 20
-31.94284231
  0
VERTEX
  8
0
 10
-10.44368718
 20
-31.86265531
  0
VERTEX
  8
0
 10
-11.17867842
 20
-31.78249080
  0
VERTEX
  8
0
 10
-11.47672136
 20
-31.10588072
  0
SEQEND
  0
POLYLINE
  8
pobeda_orden_002
 66
   1
 39
0.000000
 70
    1
  0
VERTEX
  8
0
 10
-7.96760183
 20
-28.97390031
  0
VERTEX
  8
0
 10
-8.26564477
 20
-28.29731271
  0
VERTEX
  8
0
 10
-7.82871894
 20
-27.70091211
  0
VERTEX
  8
0
 10
-7.39179312
 20
-27.10448903
  0
VERTEX
  8
0
 10
-6.65682435
 20
-27.18467602
  0
VERTEX
  8
0
 10
-5.92185559
 20
-27.26486302
  0
VERTEX
  8
0
 10
-5.62381265
 20
-27.94145061
  0
VERTEX
  8
0
 10
-5.32576971
 20
-28.61803821
  0
VERTEX
  8
0
 10
-5.76269553
 20
-29.21446129
  0
VERTEX
  8
0
 10
-6.19962136
 20
-29.81086190
  0
VERTEX
  8
0
 10
-6.93459012
 20
-29.73067490
  0
VERTEX
  8
0
 10
-7.66955889
 20
-29.65051039
  0
VERTEX
  8
0
 10
-7.96760183
 20
-28.97390031
  0
SEQEND
  0
POLYLINE
  8
pobeda_orden_002
 66
   1
 39
0.000000
 70
    1
  0
VERTEX
  8
0
 10
-25.51317703
 20
-39.63389230
  0
VERTEX
  8
0
 10
-25.81121997
 20
-38.95730470
  0
VERTEX
  8
0
 10
-25.37429414
 20
-38.36090410
  0
VERTEX
  8
0
 10
-24.93736832
 20
-37.76448102
  0
VERTEX
  8
0
 10
-24.20239955
 20
-37.84466801
  0
VERTEX
  8
0
 10
-23.46743079
 20
-37.92483252
  0
VERTEX
  8
0
 10
-23.16938785
 20
-38.60144260
  0
VERTEX
  8
0
 10
-22.87134491
 20
-39.27803020
  0
VERTEX
  8
0
 10
-23.30827073
 20
-39.87445328
  0
VERTEX
  8
0
 10
-23.74519656
 20
-40.47085388
  0
VERTEX
  8
0
 10
-24.48016532
 20
-40.39066689
  0
VERTEX
  8
0
 10
-25.21513409
 20
-40.31047990
  0
VERTEX
  8
0
 10
-25.51317703
 20
-39.63389230
  0
SEQEND
  0
POLYLINE
  8
pobeda_orden_002
 66
   1
 39
0.000000
 70
    1
  0
VERTEX
  8
0
 10
-36.58415265
 20
7.77660607
  0
VERTEX
  8
0
 10
-36.03842249
 20
8.27537501
  0
VERTEX
  8
0
 10
-35.49266986
 20
8.77412148
  0
VERTEX
  8
0
 10
-34.78786957
 20
8.55087028
  0
VERTEX
  8
0
 10
-34.08304680
 20
8.32764156
  0
VERTEX
  8
0
 10
-33.92397666
 20
7.60562141
  0
VERTEX
  8
0
 10
-33.76490653
 20
6.88360126
  0
VERTEX
  8
0
 10
-34.31065916
 20
6.38483231
  0
VERTEX
  8
0
 10
-34.85641180
 20
5.88606336
  0
VERTEX
  8
0
 10
-35.56123457
 20
6.10931457
  0
VERTEX
  8
0
 10
-36.26601238
 20
6.33256577
  0
VERTEX
  8
0
 10
-36.42510499
 20
7.05458592
  0
VERTEX
  8
0
 10
-36.58415265
 20
7.77660607
  0
SEQEND
  0
POLYLINE
  8
pobeda_orden_002
 66
   1
 39
0.000000
 70
    1
  0
VERTEX
  8
0
 10
-32.49326714
 20
8.12853413
  0
VERTEX
  8
0
 10
-31.94753699
 20
8.62730307
  0
VERTEX
  8
0
 10
-31.40180683
 20
9.12607202
  0
VERTEX
  8
0
 10
-30.69696158
 20
8.90282082
  0
VERTEX
  8
0
 10
-29.99213881
 20
8.67956962
  0
VERTEX
  8
0
 10
-29.83309115
 20
7.95754947
  0
VERTEX
  8
0
 10
-29.67399854
 20
7.23555180
  0
VERTEX
  8
0
 10
-30.21977366
 20
6.73678285
  0
VERTEX
  8
0
 10
-30.76552629
 20
6.23801391
  0
VERTEX
  8
0
 10
-31.47032658
 20
6.46126511
  0
VERTEX
  8
0
 10
-32.17514935
 20
6.68451631
  0
VERTEX
  8
0
 10
-32.33421949
 20
7.40653646
  0
VERTEX
  8
0
 10
-32.49326714
 20
8.12853413
  0
SEQEND
  0
POLYLINE
  8
pobeda_orden_002
 66
   1
 39
0.000000
 70
    1
  0
VERTEX
  8
0
 10
-28.40238163
 20
8.48050715
  0
VERTEX
  8
0
 10
-27.85662900
 20
8.97925362
  0
VERTEX
  8
0
 10
-27.31087636
 20
9.47802256
  0
VERTEX
  8
0
 10
-26.60605359
 20
9.25477136
  0
VERTEX
  8
0
 10
-25.90125330
 20
9.03152016
  0
VERTEX
  8
0
 10
-25.74218317
 20
8.30952249
  0
VERTEX
  8
0
 10
-25.58311303
 20
7.58750234
  0
VERTEX
  8
0
 10
-26.12886567
 20
7.08873339
  0
VERTEX
  8
0
 10
-26.67459582
 20
6.58996445
  0
VERTEX
  8
0
 10
-27.37941860
 20
6.81321565
  0
VERTEX
  8
0
 10
-28.08424137
 20
7.03646685
  0
VERTEX
  8
0
 10
-28.24331150
 20
7.75848700
  0
VERTEX
  8
0
 10
-28.40238163
 20
8.48050715
  0
SEQEND
  0
POLYLINE
  8
pobeda_orden_002
 66
   1
 39
0.000000
 70
    1
  0
VERTEX
  8
0
 10
-24.31149613
 20
8.83243521
  0
VERTEX
  8
0
 10
-23.76574349
 20
9.33120416
  0
VERTEX
  8
0
 10
-23.21999086
 20
9.82997310
  0
VERTEX
  8
0
 10
-22.51516809
 20
9.60672190
  0
VERTEX
  8
0
 10
-21.81036780
 20
9.38347070
  0
VERTEX
  8
0
 10
-21.65129766
 20
8.66145055
  0
VERTEX
  8
0
 10
-21.49222753
 20
7.93945288
  0
VERTEX
  8
0
 10
-22.03795768
 20
7.44068393
  0
VERTEX
  8
0
 10
-22.58371032
 20
6.94191499
  0
VERTEX
  8
0
 10
-23.28853309
 20
7.16516619
  0
VERTEX
  8
0
 10
-23.99335586
 20
7.38841739
  0
VERTEX
  8
0
 10
-24.15242599
 20
8.11041506
  0
VERTEX
  8
0
 10
-24.31149613
 20
8.83243521
  0
SEQEND
  0
POLYLINE
  8
pobeda_orden_002
 66
   1
 39
0.000000
 70
    1
  0
VERTEX
  8
0
 10
-20.22058814
 20
9.18440823
  0
VERTEX
  8
0
 10
-19.67483551
 20
9.68317718
  0
VERTEX
  8
0
 10
-19.12910535
 20
10.18192364
  0
VERTEX
  8
0
 10
-18.42428258
 20
9.95869492
  0
VERTEX
  8
0
 10
-17.71945981
 20
9.73544372
  0
VERTEX
  8
0
 10
-17.56038967
 20
9.01342357
  0
VERTEX
  8
0
 10
-17.40131954
 20
8.29140342
  0
VERTEX
  8
0
 10
-17.94707218
 20
7.79263447
  0
VERTEX
  8
0
 10
-18.49282481
 20
7.29386553
  0
VERTEX
  8
0
 10
-19.19764758
 20
7.51711673
  0
VERTEX
  8
0
 10
-19.90244787
 20
7.74036793
  0
VERTEX
  8
0
 10
-20.06151801
 20
8.46238808
  0
VERTEX
  8
0
 10
-20.22058814
 20
9.18440823
  0
SEQEND
  0
POLYLINE
  8
pobeda_orden_002
 66
   1
 39
0.000000
 70
    1
  0
VERTEX
  8
0
 10
-36.98133342
 20
5.29860990
  0
VERTEX
  8
0
 10
-36.43558078
 20
5.79735636
  0
VERTEX
  8
0
 10
-35.73075801
 20
5.57410516
  0
VERTEX
  8
0
 10
-35.02593524
 20
5.35087644
  0
VERTEX
  8
0
 10
-34.86688759
 20
4.62885629
  0
VERTEX
  8
0
 10
-34.70779497
 20
3.90683614
  0
VERTEX
  8
0
 10
-35.25357009
 20
3.40806719
  0
VERTEX
  8
0
 10
-35.79932273
 20
2.90929825
  0
VERTEX
  8
0
 10
-36.50410054
 20
3.13254945
  0
VERTEX
  8
0
 10
-37.20894579
 20
3.35580065
  0
VERTEX
  8
0
 10
-37.36801592
 20
4.07782080
  0
VERTEX
  8
0
 10
-37.52706357
 20
4.79984095
  0
VERTEX
  8
0
 10
-36.98133342
 20
5.29860990
  0
SEQEND
  0
POLYLINE
  8
pobeda_orden_002
 66
   1
 39
0.000000
 70
    1
  0
VERTEX
  8
0
 10
-33.83909130
 20
2.65558633
  0
VERTEX
  8
0
 10
-33.29333866
 20
3.15435527
  0
VERTEX
  8
0
 10
-32.58853837
 20
2.93110407
  0
VERTEX
  8
0
 10
-31.88371560
 20
2.70785287
  0
VERTEX
  8
0
 10
-31.72464547
 20
1.98583272
  0
VERTEX
  8
0
 10
-31.56557533
 20
1.26381257
  0
VERTEX
  8
0
 10
-32.11132797
 20
0.76504362
  0
VERTEX
  8
0
 10
-32.65708060
 20
0.26629716
  0
VERTEX
  8
0
 10
-33.36190338
 20
0.48952588
  0
VERTEX
  8
0
 10
-34.06668119
 20
0.71277708
  0
VERTEX
  8
0
 10
-34.22577380
 20
1.43479723
  0
VERTEX
  8
0
 10
-34.38484393
 20
2.15681738
  0
VERTEX
  8
0
 10
-33.83909130
 20
2.65558633
  0
SEQEND
  0
POLYLINE
  8
pobeda_orden_002
 66
   1
 39
0.000000
 70
    1
  0
VERTEX
  8
0
 10
-30.69684918
 20
0.01254028
  0
VERTEX
  8
0
 10
-30.15109654
 20
0.51128675
  0
VERTEX
  8
0
 10
-29.44627377
 20
0.28805802
  0
VERTEX
  8
0
 10
-28.74145100
 20
0.06480682
  0
VERTEX
  8
0
 10
-28.58240335
 20
-0.65721333
  0
VERTEX
  8
0
 10
-28.42333321
 20
-1.37921100
  0
VERTEX
  8
0
 10
-28.96906337
 20
-1.87797994
  0
VERTEX
  8
0
 10
-29.51481600
 20
-2.37674889
  0
VERTEX
  8
0
 10
-30.21963877
 20
-2.15349769
  0
VERTEX
  8
0
 10
-30.92446155
 20
-1.93024649
  0
VERTEX
  8
0
 10
-31.08353168
 20
-1.20824882
  0
VERTEX
  8
0
 10
-31.24260181
 20
-0.48622867
  0
VERTEX
  8
0
 10
-30.69684918
 20
0.01254028
  0
SEQEND
  0
POLYLINE
  8
pobeda_orden_002
 66
   1
 39
0.000000
 70
    1
  0
VERTEX
  8
0
 10
-24.51680810
 20
-5.45523707
  0
VERTEX
  8
0
 10
-23.97105547
 20
-4.95644564
  0
VERTEX
  8
0
 10
-23.26623270
 20
-5.17969684
  0
VERTEX
  8
0
 10
-22.56143241
 20
-5.40294804
  0
VERTEX
  8
0
 10
-22.40236227
 20
-6.12496819
  0
VERTEX
  8
0
 10
-22.24329214
 20
-6.84696586
  0
VERTEX
  8
0
 10
-22.78904477
 20
-7.34573481
  0
VERTEX
  8
0
 10
-23.33479741
 20
-7.84450376
  0
VERTEX
  8
0
 10
-24.03959770
 20
-7.62125256
  0
VERTEX
  8
0
 10
-24.74442047
 20
-7.39800135
  0
VERTEX
  8
0
 10
-24.90349060
 20
-6.67600368
  0
VERTEX
  8
0
 10
-25.06256074
 20
-5.95398354
  0
VERTEX
  8
0
 10
-24.51680810
 20
-5.45523707
  0
SEQEND
  0
POLYLINE
  8
pobeda_orden_002
 66
   1
 39
0.000000
 70
    1
  0
VERTEX
  8
0
 10
-40.12359802
 20
7.94163346
  0
VERTEX
  8
0
 10
-39.57784538
 20
8.44040241
  0
VERTEX
  8
0
 10
-38.87304509
 20
8.21715121
  0
VERTEX
  8
0
 10
-38.16822232
 20
7.99390001
  0
VERTEX
  8
0
 10
-38.00915219
 20
7.27187986
  0
VERTEX
  8
0
 10
-37.85008205
 20
6.54985971
  0
VERTEX
  8
0
 10
-38.39583469
 20
6.05109076
  0
VERTEX
  8
0
 10
-38.94158733
 20
5.55234429
  0
VERTEX
  8
0
 10
-39.64638762
 20
5.77557302
  0
VERTEX
  8
0
 10
-40.35121039
 20
5.99882422
  0
VERTEX
  8
0
 10
-40.51028052
 20
6.72084437
  0
VERTEX
  8
0
 10
-40.66935066
 20
7.44286452
  0
VERTEX
  8
0
 10
-40.12359802
 20
7.94163346
  0
SEQEND
  0
POLYLINE
  8
pobeda_orden_002
 66
   1
 39
0.000000
 70
    1
  0
VERTEX
  8
0
 10
36.09367891
 20
7.02850885
  0
VERTEX
  8
0
 10
35.92408802
 20
6.30889408
  0
VERTEX
  8
0
 10
35.21607306
 20
6.09596131
  0
VERTEX
  8
0
 10
34.50808058
 20
5.88302853
  0
VERTEX
  8
0
 10
33.96967898
 20
6.38973300
  0
VERTEX
  8
0
 10
33.43127738
 20
6.89641499
  0
VERTEX
  8
0
 10
33.60086826
 20
7.61602976
  0
VERTEX
  8
0
 10
33.77045914
 20
8.33564452
  0
VERTEX
  8
0
 10
34.47847411
 20
8.54855482
  0
VERTEX
  8
0
 10
35.18648907
 20
8.76148759
  0
VERTEX
  8
0
 10
35.72489067
 20
8.25480560
  0
VERTEX
  8
0
 10
36.26329227
 20
7.74812361
  0
VERTEX
  8
0
 10
36.09367891
 20
7.02850885
  0
SEQEND
  0
POLYLINE
  8
pobeda_orden_002
 66
   1
 39
0.000000
 70
    1
  0
VERTEX
  8
0
 10
31.95304464
 20
7.52318639
  0
VERTEX
  8
0
 10
31.78345376
 20
6.80357163
  0
VERTEX
  8
0
 10
31.07543880
 20
6.59063885
  0
VERTEX
  8
0
 10
30.36744631
 20
6.37770608
  0
VERTEX
  8
0
 10
29.82902223
 20
6.88438807
  0
VERTEX
  8
0
 10
29.29064311
 20
7.39107006
  0
VERTEX
  8
0
 10
29.46023400
 20
8.11068482
  0
VERTEX
  8
0
 10
29.62982488
 20
8.83029959
  0
VERTEX
  8
0
 10
30.33783984
 20
9.04323236
  0
VERTEX
  8
0
 10
31.04585481
 20
9.25616514
  0
VERTEX
  8
0
 10
31.58425641
 20
8.74948315
  0
VERTEX
  8
0
 10
32.12265801
 20
8.24280116
  0
VERTEX
  8
0
 10
31.95304464
 20
7.52318639
  0
SEQEND
  0
POLYLINE
  8
pobeda_orden_002
 66
   1
 39
0.000000
 70
    1
  0
VERTEX
  8
0
 10
27.79408899
 20
7.94457837
  0
VERTEX
  8
0
 10
27.62449810
 20
7.22496361
  0
VERTEX
  8
0
 10
26.91648314
 20
7.01203084
  0
VERTEX
  8
0
 10
26.20849066
 20
6.79909806
  0
VERTEX
  8
0
 10
25.67008906
 20
7.30580253
  0
VERTEX
  8
0
 10
25.13168746
 20
7.81248452
  0
VERTEX
  8
0
 10
25.30127834
 20
8.53209928
  0
VERTEX
  8
0
 10
25.47089171
 20
9.25171405
  0
VERTEX
  8
0
 10
26.17888419
 20
9.46462434
  0
VERTEX
  8
0
 10
26.88689915
 20
9.67755712
  0
VERTEX
  8
0
 10
27.42530075
 20
9.17087513
  0
VERTEX
  8
0
 10
27.96370235
 20
8.66419314
  0
VERTEX
  8
0
 10
27.79408899
 20
7.94457837
  0
SEQEND
  0
POLYLINE
  8
pobeda_orden_002
 66
   1
 39
0.000000
 70
    1
  0
VERTEX
  8
0
 10
23.76338307
 20
8.36597036
  0
VERTEX
  8
0
 10
23.59379218
 20
7.64635559
  0
VERTEX
  8
0
 10
22.88577722
 20
7.43342282
  0
VERTEX
  8
0
 10
22.17778474
 20
7.22049004
  0
VERTEX
  8
0
 10
21.63938314
 20
7.72717203
  0
VERTEX
  8
0
 10
21.10098154
 20
8.23385402
  0
VERTEX
  8
0
 10
21.27057242
 20
8.95346879
  0
VERTEX
  8
0
 10
21.44018579
 20
9.67308355
  0
VERTEX
  8
0
 10
22.14817827
 20
9.88601633
  0
VERTEX
  8
0
 10
22.85619323
 20
10.09894910
  0
VERTEX
  8
0
 10
23.39459483
 20
9.59226711
  0
VERTEX
  8
0
 10
23.93299643
 20
9.08558512
  0
VERTEX
  8
0
 10
23.76338307
 20
8.36597036
  0
SEQEND
  0
POLYLINE
  8
pobeda_orden_002
 66
   1
 39
0.000000
 70
    1
  0
VERTEX
  8
0
 10
19.71435576
 20
8.67743400
  0
VERTEX
  8
0
 10
19.54476487
 20
7.95781923
  0
VERTEX
  8
0
 10
18.83674991
 20
7.74490894
  0
VERTEX
  8
0
 10
18.12875743
 20
7.53197616
  0
VERTEX
  8
0
 10
17.59035583
 20
8.03865815
  0
VERTEX
  8
0
 10
17.05195423
 20
8.54534014
  0
VERTEX
  8
0
 10
17.22154511
 20
9.26495491
  0
VERTEX
  8
0
 10
17.39113599
 20
9.98456967
  0
VERTEX
  8
0
 10
18.09915096
 20
10.19750245
  0
VERTEX
  8
0
 10
18.80714344
 20
10.41041274
  0
VERTEX
  8
0
 10
19.34554504
 20
9.90373075
  0
VERTEX
  8
0
 10
19.88396912
 20
9.39704876
  0
VERTEX
  8
0
 10
19.71435576
 20
8.67743400
  0
SEQEND
  0
POLYLINE
  8
pobeda_orden_002
 66
   1
 39
0.000000
 70
    1
  0
VERTEX
  8
0
 10
37.09121680
 20
4.26836326
  0
VERTEX
  8
0
 10
36.92160344
 20
3.54874850
  0
VERTEX
  8
0
 10
36.75199007
 20
2.82913373
  0
VERTEX
  8
0
 10
36.04399759
 20
2.61622344
  0
VERTEX
  8
0
 10
35.33600511
 20
2.40329066
  0
VERTEX
  8
0
 10
34.79760351
 20
2.90997265
  0
VERTEX
  8
0
 10
34.25920191
 20
3.41665464
  0
VERTEX
  8
0
 10
34.42879279
 20
4.13626941
  0
VERTEX
  8
0
 10
34.59838368
 20
4.85588417
  0
VERTEX
  8
0
 10
35.30639864
 20
5.06881695
  0
VERTEX
  8
0
 10
36.01439112
 20
5.28172724
  0
VERTEX
  8
0
 10
36.55279272
 20
4.77504525
  0
VERTEX
  8
0
 10
37.09121680
 20
4.26836326
  0
SEQEND
  0
POLYLINE
  8
pobeda_orden_002
 66
   1
 39
0.000000
 70
    1
  0
VERTEX
  8
0
 10
33.91069084
 20
1.67153657
  0
VERTEX
  8
0
 10
33.74107748
 20
0.95192181
  0
VERTEX
  8
0
 10
33.57146411
 20
0.23230704
  0
VERTEX
  8
0
 10
32.86347163
 20
0.01937427
  0
VERTEX
  8
0
 10
32.15547915
 20
-0.19353603
  0
VERTEX
  8
0
 10
31.61707755
 20
0.31314596
  0
VERTEX
  8
0
 10
31.07867595
 20
0.81982795
  0
VERTEX
  8
0
 10
31.24826683
 20
1.53944272
  0
VERTEX
  8
0
 10
31.41788020
 20
2.25905748
  0
VERTEX
  8
0
 10
32.12587268
 20
2.47199026
  0
VERTEX
  8
0
 10
32.83388764
 20
2.68490055
  0
VERTEX
  8
0
 10
33.37226676
 20
2.17821856
  0
VERTEX
  8
0
 10
33.91069084
 20
1.67153657
  0
SEQEND
  0
POLYLINE
  8
pobeda_orden_002
 66
   1
 39
0.000000
 70
    1
  0
VERTEX
  8
0
 10
30.73014240
 20
-0.92531260
  0
VERTEX
  8
0
 10
30.56055152
 20
-1.64490488
  0
VERTEX
  8
0
 10
30.39093816
 20
-2.36451964
  0
VERTEX
  8
0
 10
29.68294567
 20
-2.57745242
  0
VERTEX
  8
0
 10
28.97495319
 20
-2.79038519
  0
VERTEX
  8
0
 10
28.43655159
 20
-2.28370320
  0
VERTEX
  8
0
 10
27.89814999
 20
-1.77699873
  0
VERTEX
  8
0
 10
28.06774087
 20
-1.05740645
  0
VERTEX
  8
0
 10
28.23733176
 20
-0.33781417
  0
VERTEX
  8
0
 10
28.94534672
 20
-0.12488139
  0
VERTEX
  8
0
 10
29.65333920
 20
0.08805138
  0
VERTEX
  8
0
 10
30.19174080
 20
-0.41863061
  0
VERTEX
  8
0
 10
30.73014240
 20
-0.92531260
  0
SEQEND
  0
POLYLINE
  8
pobeda_orden_002
 66
   1
 39
0.000000
 70
    1
  0
VERTEX
  8
0
 10
27.54963893
 20
-3.52211680
  0
VERTEX
  8
0
 10
27.38002556
 20
-4.24173157
  0
VERTEX
  8
0
 10
27.21043468
 20
-4.96134633
  0
VERTEX
  8
0
 10
26.50241971
 20
-5.17427911
  0
VERTEX
  8
0
 10
25.79442723
 20
-5.38721188
  0
VERTEX
  8
0
 10
25.25602563
 20
-4.88052989
  0
VERTEX
  8
0
 10
24.71762403
 20
-4.37382542
  0
VERTEX
  8
0
 10
24.88721492
 20
-3.65423314
  0
VERTEX
  8
0
 10
25.05682828
 20
-2.93461837
  0
VERTEX
  8
0
 10
25.76482076
 20
-2.72168560
  0
VERTEX
  8
0
 10
26.47283573
 20
-2.50875282
  0
VERTEX
  8
0
 10
27.01123733
 20
-3.01543481
  0
VERTEX
  8
0
 10
27.54963893
 20
-3.52211680
  0
SEQEND
  0
POLYLINE
  8
pobeda_orden_002
 66
   1
 39
0.000000
 70
    1
  0
VERTEX
  8
0
 10
24.36911297
 20
-6.11896597
  0
VERTEX
  8
0
 10
24.19952208
 20
-6.83858074
  0
VERTEX
  8
0
 10
24.02990872
 20
-7.55819550
  0
VERTEX
  8
0
 10
23.32191624
 20
-7.77112827
  0
VERTEX
  8
0
 10
22.61390127
 20
-7.98406105
  0
VERTEX
  8
0
 10
22.07549967
 20
-7.47737906
  0
VERTEX
  8
0
 10
21.53709807
 20
-6.97069707
  0
VERTEX
  8
0
 10
21.70671144
 20
-6.25108231
  0
VERTEX
  8
0
 10
21.87630232
 20
-5.53146754
  0
VERTEX
  8
0
 10
22.58429480
 20
-5.31853477
  0
VERTEX
  8
0
 10
23.29228729
 20
-5.10560199
  0
VERTEX
  8
0
 10
23.83071137
 20
-5.61228398
  0
VERTEX
  8
0
 10
24.36911297
 20
-6.11896597
  0
SEQEND
  0
POLYLINE
  8
pobeda_orden_002
 66
   1
 39
0.000000
 70
    1
  0
VERTEX
  8
0
 10
40.27174276
 20
6.86521243
  0
VERTEX
  8
0
 10
40.10215188
 20
6.14559766
  0
VERTEX
  8
0
 10
39.93251603
 20
5.42598290
  0
VERTEX
  8
0
 10
39.22454603
 20
5.21305013
  0
VERTEX
  8
0
 10
38.51653107
 20
5.00011735
  0
VERTEX
  8
0
 10
37.97812947
 20
5.50679934
  0
VERTEX
  8
0
 10
37.43972787
 20
6.01348133
  0
VERTEX
  8
0
 10
37.60934123
 20
6.73309609
  0
VERTEX
  8
0
 10
37.77893211
 20
7.45271086
  0
VERTEX
  8
0
 10
38.48694708
 20
7.66564363
  0
VERTEX
  8
0
 10
39.19493956
 20
7.87857641
  0
VERTEX
  8
0
 10
39.73331868
 20
7.37189442
  0
VERTEX
  8
0
 10
40.27174276
 20
6.86521243
  0
SEQEND
  0
POLYLINE
  8
pobeda_orden_002
 66
   1
 39
0.000000
 70
    1
  0
VERTEX
  8
0
 10
-0.95624171
 20
33.11938292
  0
VERTEX
  8
0
 10
-0.31595969
 20
32.74971796
  0
VERTEX
  8
0
 10
-0.31595969
 20
32.01038803
  0
VERTEX
  8
0
 10
-0.31595969
 20
31.27105810
  0
VERTEX
  8
0
 10
-0.95624171
 20
30.90139313
  0
VERTEX
  8
0
 10
-1.59652372
 20
30.53172817
  0
VERTEX
  8
0
 10
-2.23678326
 20
30.90139313
  0
VERTEX
  8
0
 10
-2.87706528
 20
31.27105810
  0
VERTEX
  8
0
 10
-2.87706528
 20
32.01038803
  0
VERTEX
  8
0
 10
-2.87706528
 20
32.74971796
  0
VERTEX
  8
0
 10
-2.23678326
 20
33.11938292
  0
VERTEX
  8
0
 10
-1.59652372
 20
33.48904789
  0
VERTEX
  8
0
 10
-0.95624171
 20
33.11938292
  0
SEQEND
  0
POLYLINE
  8
pobeda_orden_002
 66
   1
 39
0.000000
 70
    1
  0
VERTEX
  8
0
 10
-2.52702556
 20
29.32573107
  0
VERTEX
  8
0
 10
-1.88676602
 20
28.95606610
  0
VERTEX
  8
0
 10
-1.88676602
 20
28.21673617
  0
VERTEX
  8
0
 10
-1.88676602
 20
27.47740624
  0
VERTEX
  8
0
 10
-2.52702556
 20
27.10774128
  0
VERTEX
  8
0
 10
-3.16733006
 20
26.73807631
  0
VERTEX
  8
0
 10
-3.80758960
 20
27.10774128
  0
VERTEX
  8
0
 10
-4.44784914
 20
27.47740624
  0
VERTEX
  8
0
 10
-4.44784914
 20
28.21673617
  0
VERTEX
  8
0
 10
-4.44784914
 20
28.95606610
  0
VERTEX
  8
0
 10
-3.80758960
 20
29.32573107
  0
VERTEX
  8
0
 10
-3.16733006
 20
29.69539603
  0
VERTEX
  8
0
 10
-2.52702556
 20
29.32573107
  0
SEQEND
  0
POLYLINE
  8
pobeda_orden_002
 66
   1
 39
0.000000
 70
    1
  0
VERTEX
  8
0
 10
-4.09787686
 20
25.53205673
  0
VERTEX
  8
0
 10
-3.45759484
 20
25.16239177
  0
VERTEX
  8
0
 10
-3.45759484
 20
24.42306184
  0
VERTEX
  8
0
 10
-3.45759484
 20
23.68373191
  0
VERTEX
  8
0
 10
-4.09787686
 20
23.31406694
  0
VERTEX
  8
0
 10
-4.73815888
 20
22.94440198
  0
VERTEX
  8
0
 10
-5.37841842
 20
23.31406694
  0
VERTEX
  8
0
 10
-6.01870044
 20
23.68373191
  0
VERTEX
  8
0
 10
-6.01870044
 20
24.42306184
  0
VERTEX
  8
0
 10
-6.01870044
 20
25.16239177
  0
VERTEX
  8
0
 10
-5.37841842
 20
25.53205673
  0
VERTEX
  8
0
 10
-4.73815888
 20
25.90172169
  0
VERTEX
  8
0
 10
-4.09787686
 20
25.53205673
  0
SEQEND
  0
POLYLINE
  8
pobeda_orden_002
 66
   1
 39
0.000000
 70
    1
  0
VERTEX
  8
0
 10
-5.66868320
 20
21.73840487
  0
VERTEX
  8
0
 10
-5.02837870
 20
21.36871743
  0
VERTEX
  8
0
 10
-5.02837870
 20
20.62940998
  0
VERTEX
  8
0
 10
-5.02837870
 20
19.89008005
  0
VERTEX
  8
0
 10
-5.66868320
 20
19.52041509
  0
VERTEX
  8
0
 10
-6.30896522
 20
19.15075012
  0
VERTEX
  8
0
 10
-6.94922475
 20
19.52041509
  0
VERTEX
  8
0
 10
-7.58950677
 20
19.89008005
  0
VERTEX
  8
0
 10
-7.58950677
 20
20.62940998
  0
VERTEX
  8
0
 10
-7.58950677
 20
21.36871743
  0
VERTEX
  8
0
 10
-6.94922475
 20
21.73840487
  0
VERTEX
  8
0
 10
-6.30896522
 20
22.10806984
  0
VERTEX
  8
0
 10
-5.66868320
 20
21.73840487
  0
SEQEND
  0
POLYLINE
  8
pobeda_orden_002
 66
   1
 39
0.000000
 70
    1
  0
VERTEX
  8
0
 10
-7.23951201
 20
17.94475302
  0
VERTEX
  8
0
 10
-6.59922999
 20
17.57508805
  0
VERTEX
  8
0
 10
-6.59922999
 20
16.83575813
  0
VERTEX
  8
0
 10
-6.59922999
 20
16.09642820
  0
VERTEX
  8
0
 10
-7.23951201
 20
15.72676323
  0
VERTEX
  8
0
 10
-7.87979403
 20
15.35709827
  0
VERTEX
  8
0
 10
-8.52005357
 20
15.72676323
  0
VERTEX
  8
0
 10
-9.16031311
 20
16.09642820
  0
VERTEX
  8
0
 10
-9.16031311
 20
16.83575813
  0
VERTEX
  8
0
 10
-9.16031311
 20
17.57508805
  0
VERTEX
  8
0
 10
-8.52005357
 20
17.94475302
  0
VERTEX
  8
0
 10
-7.87979403
 20
18.31441798
  0
VERTEX
  8
0
 10
-7.23951201
 20
17.94475302
  0
SEQEND
  0
POLYLINE
  8
pobeda_orden_002
 66
   1
 39
0.000000
 70
    1
  0
VERTEX
  8
0
 10
1.52602571
 20
33.48907037
  0
VERTEX
  8
0
 10
2.16628525
 20
33.11940540
  0
VERTEX
  8
0
 10
2.80656727
 20
32.74974044
  0
VERTEX
  8
0
 10
2.80656727
 20
32.01041051
  0
VERTEX
  8
0
 10
2.80656727
 20
31.27108058
  0
VERTEX
  8
0
 10
2.16628525
 20
30.90141561
  0
VERTEX
  8
0
 10
1.52602571
 20
30.53175065
  0
VERTEX
  8
0
 10
0.88574369
 20
30.90141561
  0
VERTEX
  8
0
 10
0.24546167
 20
31.27108058
  0
VERTEX
  8
0
 10
0.24546167
 20
32.01041051
  0
VERTEX
  8
0
 10
0.24546167
 20
32.74974044
  0
VERTEX
  8
0
 10
0.88574369
 20
33.11940540
  0
VERTEX
  8
0
 10
1.52602571
 20
33.48907037
  0
SEQEND
  0
POLYLINE
  8
pobeda_orden_002
 66
   1
 39
0.000000
 70
    1
  0
VERTEX
  8
0
 10
3.09683205
 20
29.69541851
  0
VERTEX
  8
0
 10
3.73709159
 20
29.32575355
  0
VERTEX
  8
0
 10
4.37737361
 20
28.95608858
  0
VERTEX
  8
0
 10
4.37737361
 20
28.21675865
  0
VERTEX
  8
0
 10
4.37737361
 20
27.47740624
  0
VERTEX
  8
0
 10
3.73709159
 20
27.10776376
  0
VERTEX
  8
0
 10
3.09683205
 20
26.73809879
  0
VERTEX
  8
0
 10
2.45655003
 20
27.10776376
  0
VERTEX
  8
0
 10
1.81626801
 20
27.47740624
  0
VERTEX
  8
0
 10
1.81626801
 20
28.21675865
  0
VERTEX
  8
0
 10
1.81626801
 20
28.95608858
  0
VERTEX
  8
0
 10
2.45655003
 20
29.32575355
  0
VERTEX
  8
0
 10
3.09683205
 20
29.69541851
  0
SEQEND
  0
POLYLINE
  8
pobeda_orden_002
 66
   1
 39
0.000000
 70
    1
  0
VERTEX
  8
0
 10
4.66766087
 20
25.90174417
  0
VERTEX
  8
0
 10
5.30792040
 20
25.53207921
  0
VERTEX
  8
0
 10
5.94820242
 20
25.16241425
  0
VERTEX
  8
0
 10
5.94820242
 20
24.42308432
  0
VERTEX
  8
0
 10
5.94820242
 20
23.68375439
  0
VERTEX
  8
0
 10
5.30792040
 20
23.31408942
  0
VERTEX
  8
0
 10
4.66766087
 20
22.94442446
  0
VERTEX
  8
0
 10
4.02737885
 20
23.31408942
  0
VERTEX
  8
0
 10
3.38709683
 20
23.68375439
  0
VERTEX
  8
0
 10
3.38709683
 20
24.42308432
  0
VERTEX
  8
0
 10
3.38709683
 20
25.16241425
  0
VERTEX
  8
0
 10
4.02737885
 20
25.53207921
  0
VERTEX
  8
0
 10
4.66766087
 20
25.90174417
  0
SEQEND
  0
POLYLINE
  8
pobeda_orden_002
 66
   1
 39
0.000000
 70
    1
  0
VERTEX
  8
0
 10
6.23846720
 20
22.10809232
  0
VERTEX
  8
0
 10
6.87872674
 20
21.73842735
  0
VERTEX
  8
0
 10
7.51900876
 20
21.36876239
  0
VERTEX
  8
0
 10
7.51900876
 20
20.62943246
  0
VERTEX
  8
0
 10
7.51900876
 20
19.89010253
  0
VERTEX
  8
0
 10
6.87872674
 20
19.52043757
  0
VERTEX
  8
0
 10
6.23846720
 20
19.15077260
  0
VERTEX
  8
0
 10
5.59818518
 20
19.52043757
  0
VERTEX
  8
0
 10
4.95790316
 20
19.89010253
  0
VERTEX
  8
0
 10
4.95790316
 20
20.62943246
  0
VERTEX
  8
0
 10
4.95790316
 20
21.36876239
  0
VERTEX
  8
0
 10
5.59818518
 20
21.73842735
  0
VERTEX
  8
0
 10
6.23846720
 20
22.10809232
  0
SEQEND
  0
POLYLINE
  8
pobeda_orden_002
 66
   1
 39
0.000000
 70
    1
  0
VERTEX
  8
0
 10
7.80929602
 20
18.31444046
  0
VERTEX
  8
0
 10
8.44955556
 20
17.94477550
  0
VERTEX
  8
0
 10
9.08983758
 20
17.57511053
  0
VERTEX
  8
0
 10
9.08983758
 20
16.83578061
  0
VERTEX
  8
0
 10
9.08983758
 20
16.09645068
  0
VERTEX
  8
0
 10
8.44955556
 20
15.72678571
  0
VERTEX
  8
0
 10
7.80929602
 20
15.35712075
  0
VERTEX
  8
0
 10
7.16901400
 20
15.72678571
  0
VERTEX
  8
0
 10
6.52873198
 20
16.09645068
  0
VERTEX
  8
0
 10
6.52873198
 20
16.83578061
  0
VERTEX
  8
0
 10
6.52873198
 20
17.57511053
  0
VERTEX
  8
0
 10
7.16901400
 20
17.94477550
  0
VERTEX
  8
0
 10
7.80929602
 20
18.31444046
  0
SEQEND
  0
POLYLINE
  8
pobeda_orden_002
 66
   1
 39
0.000000
 70
    1
  0
VERTEX
  8
0
 10
-0.04475815
 20
37.28274470
  0
VERTEX
  8
0
 10
0.59545643
 20
36.91307974
  0
VERTEX
  8
0
 10
1.23576093
 20
36.54341477
  0
VERTEX
  8
0
 10
1.23576093
 20
35.80408484
  0
VERTEX
  8
0
 10
1.23576093
 20
35.06475491
  0
VERTEX
  8
0
 10
0.59545643
 20
34.69508995
  0
VERTEX
  8
0
 10
-0.04475815
 20
34.32540250
  0
VERTEX
  8
0
 10
-0.68506264
 20
34.69508995
  0
VERTEX
  8
0
 10
-1.32534466
 20
35.06475491
  0
VERTEX
  8
0
 10
-1.32534466
 20
35.80408484
  0
VERTEX
  8
0
 10
-1.32534466
 20
36.54341477
  0
VERTEX
  8
0
 10
-0.68506264
 20
36.91307974
  0
VERTEX
  8
0
 10
-0.04475815
 20
37.28274470
  0
SEQEND
  0
POLYLINE
  8
pobeda_orden_002
 66
   1
 39
0.000000
 70
    1
  0
VERTEX
  8
0
 10
5.79338105
 20
-25.65709917
  0
VERTEX
  8
0
 10
10.30071289
 20
-24.17144796
  0
VERTEX
  8
0
 10
11.05581174
 20
-23.64771401
  0
VERTEX
  8
0
 10
11.78023297
 20
-23.10498286
  0
VERTEX
  8
0
 10
12.47148760
 20
-22.55053810
  0
VERTEX
  8
0
 10
13.12708665
 20
-21.99166333
  0
VERTEX
  8
0
 10
13.74454113
 20
-21.43564215
  0
VERTEX
  8
0
 10
14.32136207
 20
-20.88975814
  0
VERTEX
  8
0
 10
14.85506047
 20
-20.36129491
  0
VERTEX
  8
0
 10
15.34314735
 20
-19.85753606
  0
VERTEX
  8
0
 10
16.17253064
 20
-18.95326584
  0
VERTEX
  8
0
 10
16.78960006
 20
-18.23521626
  0
VERTEX
  8
0
 10
17.30714984
 20
-17.59085408
  0
VERTEX
  8
0
 10
21.33891233
 20
-34.99824329
  0
VERTEX
  8
0
 10
5.79338105
 20
-25.65709917
  0
SEQEND
  0
POLYLINE
  8
pobeda_orden_002
 66
   1
 39
0.000000
 70
    1
  0
VERTEX
  8
0
 10
-21.21976709
 20
-35.13946411
  0
VERTEX
  8
0
 10
-17.19106191
 20
-17.74295535
  0
VERTEX
  8
0
 10
-16.67489959
 20
-18.38679873
  0
VERTEX
  8
0
 10
-16.06112062
 20
-19.10361615
  0
VERTEX
  8
0
 10
-15.23814218
 20
-20.00548691
  0
VERTEX
  8
0
 10
-14.75474981
 20
-20.50748670
  0
VERTEX
  8
0
 10
-14.22691356
 20
-21.03375313
  0
VERTEX
  8
0
 10
-13.65725209
 20
-21.57695396
  0
VERTEX
  8
0
 10
-13.04838406
 20
-22.12975695
  0
VERTEX
  8
0
 10
-12.40292812
 20
-22.68482988
  0
VERTEX
  8
0
 10
-11.72350296
 20
-23.23484050
  0
VERTEX
  8
0
 10
-11.01272722
 20
-23.77245660
  0
VERTEX
  8
0
 10
-10.27321957
 20
-24.29034592
  0
VERTEX
  8
0
 10
-5.76588773
 20
-25.77597465
  0
VERTEX
  8
0
 10
-21.21976709
 20
-35.13946411
  0
SEQEND
  0
POLYLINE
  8
pobeda_orden_002
 66
   1
 39
0.000000
 70
    1
  0
VERTEX
  8
0
 10
-34.39925376
 20
5.54033985
  0
VERTEX
  8
0
 10
-17.29878719
 20
7.06315089
  0
VERTEX
  8
0
 10
-17.74689131
 20
6.37765163
  0
VERTEX
  8
0
 10
-18.22880184
 20
5.58350572
  0
VERTEX
  8
0
 10
-18.81308946
 20
4.54418730
  0
VERTEX
  8
0
 10
-19.12732893
 20
3.94565677
  0
VERTEX
  8
0
 10
-19.44760776
 20
3.30151514
  0
VERTEX
  8
0
 10
-19.76740766
 20
2.61698978
  0
VERTEX
  8
0
 10
-20.08021032
 20
1.89730802
  0
VERTEX
  8
0
 10
-20.37949745
 20
1.14769721
  0
VERTEX
  8
0
 10
-20.65875073
 20
0.37338469
  0
VERTEX
  8
0
 10
-20.91145187
 20
-0.42040218
  0
VERTEX
  8
0
 10
-21.13108257
 20
-1.22843607
  0
VERTEX
  8
0
 10
-21.14511024
 20
-5.97428319
  0
VERTEX
  8
0
 10
-34.39925376
 20
5.54033985
  0
SEQEND
  0
POLYLINE
  8
pobeda_orden_002
 66
   1
 39
0.000000
 70
    1
  0
VERTEX
  8
0
 10
34.22188472
 20
5.48069979
  0
VERTEX
  8
0
 10
21.21338271
 20
-5.51984526
  0
VERTEX
  8
0
 10
21.12381619
 20
-4.40927113
  0
VERTEX
  8
0
 10
21.01851925
 20
-3.24767635
  0
VERTEX
  8
0
 10
20.87880096
 20
-1.88331900
  0
VERTEX
  8
0
 10
20.70910211
 20
-0.46728099
  0
VERTEX
  8
0
 10
20.51386351
 20
0.84935574
  0
VERTEX
  8
0
 10
20.40805457
 20
1.42318553
  0
VERTEX
  8
0
 10
20.29752599
 20
1.91550928
  0
VERTEX
  8
0
 10
20.18283289
 20
2.30744175
  0
VERTEX
  8
0
 10
20.06453036
 20
2.58009770
  0
VERTEX
  8
0
 10
17.18281167
 20
7.26866518
  0
VERTEX
  8
0
 10
34.22188472
 20
5.48069979
  0
SEQEND
  0
POLYLINE
  8
pobeda_orden_002
 66
   1
 39
0.000000
 70
    1
  0
VERTEX
  8
0
 10
0.05067045
 20
30.36546436
  0
VERTEX
  8
0
 10
6.55908030
 20
14.94170851
  0
VERTEX
  8
0
 10
5.64539332
 20
15.16587332
  0
VERTEX
  8
0
 10
3.49715162
 20
15.66767675
  0
VERTEX
  8
0
 10
2.23795676
 20
15.94268153
  0
VERTEX
  8
0
 10
1.00358402
 20
16.19108227
  0
VERTEX
  8
0
 10
-0.09481298
 20
16.38087441
  0
VERTEX
  8
0
 10
-0.55828508
 20
16.44379083
  0
VERTEX
  8
0
 10
-0.94608064
 20
16.48005339
  0
VERTEX
  8
0
 10
-6.41241925
 20
14.95659042
  0
VERTEX
  8
0
 10
0.05067045
 20
30.36546436
  0
SEQEND
  0
POLYLINE
  8
pobeda_orden_002
 66
   1
 39
0.000000
 70
    1
  0
VERTEX
  8
0
 10
0.00000000
 20
41.50765736
  0
VERTEX
  8
0
 10
12.64922292
 20
11.60197753
  0
VERTEX
  8
0
 10
44.99998786
 20
8.81325957
  0
VERTEX
  8
0
 10
20.46679166
 20
-12.45818958
  0
VERTEX
  8
0
 10
27.81153365
 20
-44.08736150
  0
VERTEX
  8
0
 10
-0.00002248
 20
-27.32816735
  0
VERTEX
  8
0
 10
-27.81148869
 20
-44.08736150
  0
VERTEX
  8
0
 10
-20.46681414
 20
-12.45812214
  0
VERTEX
  8
0
 10
-44.99998786
 20
8.81325957
  0
VERTEX
  8
0
 10
-12.64915548
 20
11.60202249
  0
VERTEX
  8
0
 10
0.00000000
 20
41.50765736
  0
SEQEND
  0
POLYLINE
  8
pobeda_orden_002
 66
   1
 39
0.000000
 70
    1
  0
VERTEX
  8
0
 10
-3.09770492
 20
-2.83569672
  0
VERTEX
  8
0
 10
2.86163934
 20
-2.83795337
  0
VERTEX
  8
0
 10
2.86348722
 20
-8.16504941
  0
VERTEX
  8
0
 10
-3.09444914
 20
-8.16504941
  0
VERTEX
  8
0
 10
-3.09770492
 20
-2.83569672
  0
SEQEND
  0
POLYLINE
  8
pobeda_orden_002
 66
   1
 39
0.000000
 70
    1
  0
VERTEX
  8
0
 10
-1.47362429
 20
1.23931340
  0
VERTEX
  8
0
 10
1.16645437
 20
1.23931340
  0
VERTEX
  8
0
 10
1.62370233
 20
-2.75598615
  0
VERTEX
  8
0
 10
-1.85466425
 20
-2.75598615
  0
VERTEX
  8
0
 10
-1.47362429
 20
1.23931340
  0
SEQEND
  0
POLYLINE
  8
pobeda_orden_002
 66
   1
 39
0.000000
 70
    1
  0
VERTEX
  8
0
 10
-0.11548096
 20
9.31029673
  0
VERTEX
  8
0
 10
0.36339298
 20
7.51614927
  0
VERTEX
  8
0
 10
2.21772003
 20
7.61512974
  0
VERTEX
  8
0
 10
0.65934526
 20
6.60525020
  0
VERTEX
  8
0
 10
1.32651364
 20
4.87229394
  0
VERTEX
  8
0
 10
-0.11548096
 20
6.04232267
  0
VERTEX
  8
0
 10
-1.55747556
 20
4.87229394
  0
VERTEX
  8
0
 10
-0.89032966
 20
6.60527268
  0
VERTEX
  8
0
 10
-2.44868195
 20
7.61512974
  0
VERTEX
  8
0
 10
-0.59435490
 20
7.51614927
  0
VERTEX
  8
0
 10
-0.11548096
 20
9.31029673
  0
SEQEND
  0
POLYLINE
  8
pobeda_orden_002
 66
   1
 39
0.000000
 70
    1
  0
VERTEX
  8
0
 10
-1.06745142
 20
-0.39475660
  0
VERTEX
  8
0
 10
-0.82482226
 20
0.44103601
  0
VERTEX
  8
0
 10
-0.60010984
 20
-0.39475660
  0
VERTEX
  8
0
 10
-0.60010984
 20
-2.40140971
  0
VERTEX
  8
0
 10
-1.06745142
 20
-2.40140971
  0
VERTEX
  8
0
 10
-1.06745142
 20
-0.39475660
  0
SEQEND
  0
POLYLINE
  8
pobeda_orden_002
 66
   1
 39
0.000000
 70
    1
  0
VERTEX
  8
0
 10
-0.25906221
 20
-0.39475660
  0
VERTEX
  8
0
 10
-0.01643305
 20
0.44103601
  0
VERTEX
  8
0
 10
0.20830185
 20
-0.39475660
  0
VERTEX
  8
0
 10
0.20830185
 20
-2.40140971
  0
VERTEX
  8
0
 10
-0.25906221
 20
-2.40140971
  0
VERTEX
  8
0
 10
-0.25906221
 20
-0.39475660
  0
SEQEND
  0
POLYLINE
  8
pobeda_orden_002
 66
   1
 39
0.000000
 70
    1
  0
VERTEX
  8
0
 10
0.54934947
 20
-0.39475660
  0
VERTEX
  8
0
 10
0.79197864
 20
0.44103601
  0
VERTEX
  8
0
 10
1.01669105
 20
-0.39475660
  0
VERTEX
  8
0
 10
1.01669105
 20
-2.40140971
  0
VERTEX
  8
0
 10
0.54934947
 20
-2.40140971
  0
VERTEX
  8
0
 10
0.54934947
 20
-0.39475660
  0
SEQEND
  0
POLYLINE
  8
pobeda_orden_002
 66
   1
 39
0.000000
 70
    1
  0
VERTEX
  8
0
 10
-5.61927806
 20
-19.60463343
  0
VERTEX
  8
0
 10
6.90423539
 20
-19.60463343
  0
VERTEX
  8
0
 10
6.90262295
 20
-20.94651639
  0
VERTEX
  8
0
 10
-4.05464510
 20
-21.17297741
  0
VERTEX
  8
0
 10
-5.61927806
 20
-21.21035157
  0
VERTEX
  8
0
 10
-5.61927806
 20
-19.60463343
  0
SEQEND
  0
POLYLINE
  8
pobeda_orden_002
 66
   1
 39
0.000000
 70
    1
  0
VERTEX
  8
0
 10
-3.94676473
 20
-18.34511089
  0
VERTEX
  8
0
 10
5.47762369
 20
-18.34511089
  0
VERTEX
  8
0
 10
5.47762369
 20
-19.40865075
  0
VERTEX
  8
0
 10
-3.94676473
 20
-19.40865075
  0
VERTEX
  8
0
 10
-3.94676473
 20
-18.34511089
  0
SEQEND
  0
POLYLINE
  8
pobeda_orden_002
 66
   1
 39
0.000000
 70
    1
  0
VERTEX
  8
0
 10
-2.86715150
 20
-17.36510758
  0
VERTEX
  8
0
 10
4.39801046
 20
-17.36510758
  0
VERTEX
  8
0
 10
4.39801046
 20
-18.22043551
  0
VERTEX
  8
0
 10
-2.86715150
 20
-18.22043551
  0
VERTEX
  8
0
 10
-2.86715150
 20
-17.36510758
  0
SEQEND
  0
POLYLINE
  8
pobeda_orden_002
 66
   1
 39
0.000000
 70
    1
  0
VERTEX
  8
0
 10
-1.92729788
 20
-16.20002450
  0
VERTEX
  8
0
 10
3.45806693
 20
-16.20002450
  0
VERTEX
  8
0
 10
3.45806693
 20
-17.07846211
  0
VERTEX
  8
0
 10
-1.92729788
 20
-17.07846211
  0
VERTEX
  8
0
 10
-1.92729788
 20
-16.20002450
  0
SEQEND
  0
POLYLINE
  8
pobeda_orden_002
 66
   1
 39
0.000000
 70
    1
  0
VERTEX
  8
0
 10
-0.87906706
 20
-14.66464701
  0
VERTEX
  8
0
 10
2.39787662
 20
-14.66464701
  0
VERTEX
  8
0
 10
2.39787662
 20
-16.07478712
  0
VERTEX
  8
0
 10
-0.87906706
 20
-16.07478712
  0
VERTEX
  8
0
 10
-0.87906706
 20
-14.66464701
  0
SEQEND
  0
POLYLINE
  8
pobeda_orden_002
 66
   1
 39
0.000000
 70
    1
  0
VERTEX
  8
0
 10
-0.12530482
 20
-3.21636314
  0
VERTEX
  8
0
 10
-0.01159980
 20
-3.21636314
  0
VERTEX
  8
0
 10
-0.01159980
 20
-5.33885690
  0
VERTEX
  8
0
 10
-0.12530482
 20
-5.33885690
  0
VERTEX
  8
0
 10
-0.12530482
 20
-3.21636314
  0
SEQEND
  0
POLYLINE
  8
pobeda_orden_002
 66
   1
 39
0.000000
 70
    1
  0
VERTEX
  8
0
 10
-0.16637621
 20
-5.36855329
  0
VERTEX
  8
0
 10
-0.10806248
 20
-5.43842185
  0
VERTEX
  8
0
 10
-1.41261293
 20
-6.52713958
  0
VERTEX
  8
0
 10
-1.47092666
 20
-6.45727101
  0
VERTEX
  8
0
 10
-0.16637621
 20
-5.36855329
  0
SEQEND
  0
POLYLINE
  8
pobeda_orden_002
 66
   1
 39
0.000000
 70
    1
  0
VERTEX
  8
0
 10
-6.53005831
 20
-21.35429250
  0
VERTEX
  8
0
 10
-5.02300592
 20
-21.91656811
  0
VERTEX
  8
0
 10
-5.78854780
 20
-23.66633959
  0
VERTEX
  8
0
 10
-6.17104898
 20
-23.52363507
  0
VERTEX
  8
0
 10
-5.53400412
 20
-22.06759032
  0
VERTEX
  8
0
 10
-6.27605415
 20
-21.79074624
  0
VERTEX
  8
0
 10
-6.91312150
 20
-23.24679099
  0
VERTEX
  8
0
 10
-7.29564516
 20
-23.10406398
  0
VERTEX
  8
0
 10
-6.53005831
 20
-21.35429250
  0
SEQEND
  0
POLYLINE
  8
pobeda_orden_002
 66
   1
 39
0.000000
 70
    1
  0
VERTEX
  8
0
 10
-4.49962112
 20
-23.09716255
  0
VERTEX
  8
0
 10
-4.41234442
 20
-22.84344501
  0
VERTEX
  8
0
 10
-4.29082471
 20
-22.64472537
  0
VERTEX
  8
0
 10
-4.13930793
 20
-22.48988151
  0
VERTEX
  8
0
 10
-3.94546087
 20
-22.37473776
  0
VERTEX
  8
0
 10
-3.80723554
 20
-22.33436045
  0
VERTEX
  8
0
 10
-3.74370078
 20
-22.32168441
  0
VERTEX
  8
0
 10
-3.52961870
 20
-22.30973335
  0
VERTEX
  8
0
 10
-3.29616428
 20
-22.34045540
  0
VERTEX
  8
0
 10
-3.12273209
 20
-22.38847599
  0
VERTEX
  8
0
 10
-2.95843495
 20
-22.44973779
  0
VERTEX
  8
0
 10
-2.78907765
 20
-22.53693264
  0
VERTEX
  8
0
 10
-2.52075358
 20
-22.94814108
  0
VERTEX
  8
0
 10
-2.51529158
 20
-23.14090136
  0
VERTEX
  8
0
 10
-2.53220726
 20
-23.31874460
  0
VERTEX
  8
0
 10
-2.56591637
 20
-23.49994090
  0
VERTEX
  8
0
 10
-2.63500058
 20
-23.70709520
  0
VERTEX
  8
0
 10
-2.73082293
 20
-23.88293383
  0
VERTEX
  8
0
 10
-2.85335601
 20
-24.02754321
  0
VERTEX
  8
0
 10
-3.00257243
 20
-24.14100973
  0
VERTEX
  8
0
 10
-3.14273669
 20
-24.21033034
  0
VERTEX
  8
0
 10
-3.29281613
 20
-24.26518176
  0
VERTEX
  8
0
 10
-3.47389301
 20
-24.30522783
  0
VERTEX
  8
0
 10
-4.06220073
 20
-24.17978813
  0
VERTEX
  8
0
 10
-4.20710796
 20
-24.07064449
  0
VERTEX
  8
0
 10
-4.31660672
 20
-23.96089809
  0
VERTEX
  8
0
 10
-4.41001491
 20
-23.84229238
  0
VERTEX
  8
0
 10
-4.49042495
 20
-23.68082389
  0
VERTEX
  8
0
 10
-4.53213035
 20
-23.50279027
  0
VERTEX
  8
0
 10
-4.53517958
 20
-23.30822525
  0
VERTEX
  8
0
 10
-4.49962112
 20
-23.09716255
  0
SEQEND
  0
POLYLINE
  8
pobeda_orden_002
 66
   1
 39
0.000000
 70
    1
  0
VERTEX
  8
0
 10
-1.56138712
 20
-22.71711172
  0
VERTEX
  8
0
 10
-0.03722727
 20
-22.81553018
  0
VERTEX
  8
0
 10
-0.06116872
 20
-23.13155731
  0
VERTEX
  8
0
 10
-1.17376045
 20
-23.05971048
  0
VERTEX
  8
0
 10
-1.20682887
 20
-23.49627662
  0
VERTEX
  8
0
 10
-0.65619802
 20
-23.53181787
  0
VERTEX
  8
0
 10
-0.50384948
 20
-23.54166421
  0
VERTEX
  8
0
 10
-0.34613378
 20
-23.58407598
  0
VERTEX
  8
0
 10
-0.28178973
 20
-23.60755378
  0
VERTEX
  8
0
 10
-0.14808011
 20
-23.68980052
  0
VERTEX
  8
0
 10
-0.03940785
 20
-23.81434945
  0
VERTEX
  8
0
 10
-0.00412512
 20
-23.87670400
  0
VERTEX
  8
0
 10
0.05172702
 20
-24.02197689
  0
VERTEX
  8
0
 10
0.03266378
 20
-24.27357567
  0
VERTEX
  8
0
 10
-0.04499419
 20
-24.41011780
  0
VERTEX
  8
0
 10
-0.08974109
 20
-24.46652351
  0
VERTEX
  8
0
 10
-0.21275855
 20
-24.57381886
  0
VERTEX
  8
0
 10
-0.34781418
 20
-24.63705857
  0
VERTEX
  8
0
 10
-0.41105670
 20
-24.65179155
  0
VERTEX
  8
0
 10
-0.57279636
 20
-24.67271222
  0
VERTEX
  8
0
 10
-0.74178027
 20
-24.66183178
  0
VERTEX
  8
0
 10
-1.70393428
 20
-24.59969642
  0
VERTEX
  8
0
 10
-1.56138712
 20
-22.71711172
  0
SEQEND
  0
POLYLINE
  8
pobeda_orden_002
 66
   1
 39
0.000000
 70
    1
  0
VERTEX
  8
0
 10
-1.26846967
 20
-24.31024093
  0
VERTEX
  8
0
 10
-0.86784943
 20
-24.33611568
  0
VERTEX
  8
0
 10
-0.64954388
 20
-24.34445584
  0
VERTEX
  8
0
 10
-0.54384182
 20
-24.32797783
  0
VERTEX
  8
0
 10
-0.45522473
 20
-24.26629207
  0
VERTEX
  8
0
 10
-0.40663371
 20
-24.20033225
  0
VERTEX
  8
0
 10
-0.38582825
 20
-24.11837213
  0
VERTEX
  8
0
 10
-0.38613736
 20
-24.06654395
  0
VERTEX
  8
0
 10
-0.40812864
 20
-23.96541662
  0
VERTEX
  8
0
 10
-0.53637838
 20
-23.87695690
  0
VERTEX
  8
0
 10
-0.71677101
 20
-23.84797707
  0
VERTEX
  8
0
 10
-0.81212093
 20
-23.83934747
  0
VERTEX
  8
0
 10
-1.23077032
 20
-23.81232623
  0
VERTEX
  8
0
 10
-1.26846967
 20
-24.31024093
  0
SEQEND
  0
POLYLINE
  8
pobeda_orden_002
 66
   1
 39
0.000000
 70
    1
  0
VERTEX
  8
0
 10
3.49010126
 20
-22.51332840
  0
VERTEX
  8
0
 10
4.86038391
 20
-22.19784080
  0
VERTEX
  8
0
 10
5.27179467
 20
-23.72159601
  0
VERTEX
  8
0
 10
5.44633120
 20
-23.68140135
  0
VERTEX
  8
0
 10
5.63718839
 20
-24.38826982
  0
VERTEX
  8
0
 10
5.30427861
 20
-24.46490494
  0
VERTEX
  8
0
 10
5.19644092
 20
-24.06543118
  0
VERTEX
  8
0
 10
3.94804610
 20
-24.35286345
  0
VERTEX
  8
0
 10
4.05588378
 20
-24.75233721
  0
VERTEX
  8
0
 10
3.72299648
 20
-24.82897232
  0
VERTEX
  8
0
 10
3.53213930
 20
-24.12212633
  0
VERTEX
  8
0
 10
3.70020152
 20
-24.08341537
  0
VERTEX
  8
0
 10
3.73967681
 20
-23.90813699
  0
VERTEX
  8
0
 10
3.72938649
 20
-23.63166664
  0
VERTEX
  8
0
 10
3.71501600
 20
-23.50081763
  0
VERTEX
  8
0
 10
3.64964910
 20
-23.14267097
  0
VERTEX
  8
0
 10
3.54236780
 20
-22.70688321
  0
VERTEX
  8
0
 10
3.49010126
 20
-22.51332840
  0
SEQEND
  0
POLYLINE
  8
pobeda_orden_002
 66
   1
 39
0.000000
 70
    1
  0
VERTEX
  8
0
 10
3.95440801
 20
-22.73293780
  0
VERTEX
  8
0
 10
4.04919135
 20
-23.12408614
  0
VERTEX
  8
0
 10
4.10830488
 20
-23.46354540
  0
VERTEX
  8
0
 10
4.13172120
 20
-23.75119334
  0
VERTEX
  8
0
 10
4.11941292
 20
-23.98690772
  0
VERTEX
  8
0
 10
4.87290540
 20
-23.81342776
  0
VERTEX
  8
0
 10
4.54449166
 20
-22.59706727
  0
VERTEX
  8
0
 10
3.95440801
 20
-22.73293780
  0
SEQEND
  0
POLYLINE
  8
pobeda_orden_002
 66
   1
 39
0.000000
 70
    1
  0
VERTEX
  8
0
 10
8.23761191
 20
-23.00634241
  0
VERTEX
  8
0
 10
7.82112062
 20
-23.16172578
  0
VERTEX
  8
0
 10
7.48171405
 20
-22.82582613
  0
VERTEX
  8
0
 10
6.72419761
 20
-23.10844763
  0
VERTEX
  8
0
 10
6.74202444
 20
-23.56434677
  0
VERTEX
  8
0
 10
6.33612134
 20
-23.71577362
  0
VERTEX
  8
0
 10
6.30865049
 20
-21.69061928
  0
VERTEX
  8
0
 10
6.71320478
 20
-21.53968699
  0
VERTEX
  8
0
 10
8.23761191
 20
-23.00634241
  0
SEQEND
  0
POLYLINE
  8
pobeda_orden_002
 66
   1
 39
0.000000
 70
    1
  0
VERTEX
  8
0
 10
-12.12523846
 20
5.44983953
  0
VERTEX
  8
0
 10
-11.98480148
 20
5.51475330
  0
VERTEX
  8
0
 10
-11.79144027
 20
5.67330115
  0
VERTEX
  8
0
 10
-11.63275984
 20
5.83369503
  0
VERTEX
  8
0
 10
-11.50654272
 20
6.01457691
  0
VERTEX
  8
0
 10
-11.59327412
 20
6.16818270
  0
VERTEX
  8
0
 10
-11.48262127
 20
6.05739649
  0
VERTEX
  8
0
 10
-11.40077075
 20
6.06076887
  0
VERTEX
  8
0
 10
-11.30778538
 20
6.09036203
  0
VERTEX
  8
0
 10
-11.11559290
 20
6.19532933
  0
VERTEX
  8
0
 10
-10.89660026
 20
6.35821841
  0
VERTEX
  8
0
 10
-10.74221284
 20
6.57395871
  0
VERTEX
  8
0
 10
-10.70344631
 20
6.66480714
  0
VERTEX
  8
0
 10
-10.69012040
 20
6.74394376
  0
VERTEX
  8
0
 10
-10.70210199
 20
6.81109559
  0
VERTEX
  8
0
 10
-10.73925794
 20
6.86598962
  0
VERTEX
  8
0
 10
-10.80145514
 20
6.90835285
  0
VERTEX
  8
0
 10
-10.88856046
 20
6.93791229
  0
VERTEX
  8
0
 10
-10.72209388
 20
6.93438185
  0
VERTEX
  8
0
 10
-10.55299895
 20
6.94714060
  0
VERTEX
  8
0
 10
-10.36131920
 20
6.98484583
  0
VERTEX
  8
0
 10
-10.11110321
 20
7.35535917
  0
VERTEX
  8
0
 10
-9.95670835
 20
7.67859190
  0
VERTEX
  8
0
 10
-10.01306063
 20
7.71398859
  0
VERTEX
  8
0
 10
-10.08444840
 20
7.73355610
  0
VERTEX
  8
0
 10
-10.24453011
 20
7.73890034
  0
VERTEX
  8
0
 10
-10.43931618
 20
7.71030338
  0
VERTEX
  8
0
 10
-10.19941057
 20
7.80463139
  0
VERTEX
  8
0
 10
-9.99598658
 20
7.93125808
  0
VERTEX
  8
0
 10
-9.91112719
 20
8.01053689
  0
VERTEX
  8
0
 10
-9.83919459
 20
8.10251453
  0
VERTEX
  8
0
 10
-9.78145758
 20
8.20873237
  0
VERTEX
  8
0
 10
-9.73918497
 20
8.33073181
  0
VERTEX
  8
0
 10
-9.74657944
 20
8.37016146
  0
VERTEX
  8
0
 10
-9.77952609
 20
8.45785090
  0
VERTEX
  8
0
 10
-9.85416977
 20
8.54790083
  0
VERTEX
  8
0
 10
-9.91217325
 20
8.57946746
  0
VERTEX
  8
0
 10
-9.98665530
 20
8.59441198
  0
VERTEX
  8
0
 10
-10.27682170
 20
8.43154298
  0
VERTEX
  8
0
 10
-10.02347402
 20
8.59920604
  0
VERTEX
  8
0
 10
-9.95311956
 20
8.68304436
  0
VERTEX
  8
0
 10
-9.90852982
 20
8.76614963
  0
VERTEX
  8
0
 10
-9.88465488
 20
8.84530238
  0
VERTEX
  8
0
 10
-9.87644487
 20
8.91728313
  0
VERTEX
  8
0
 10
-9.88681998
 20
9.02685079
  0
VERTEX
  8
0
 10
-9.89925595
 20
9.06909685
  0
VERTEX
  8
0
 10
-9.97239002
 20
9.10962599
  0
VERTEX
  8
0
 10
-10.05375634
 20
9.12858749
  0
VERTEX
  8
0
 10
-10.14285893
 20
9.12624892
  0
VERTEX
  8
0
 10
-10.23920179
 20
9.10287787
  0
VERTEX
  8
0
 10
-10.34228890
 20
9.05874192
  0
VERTEX
  8
0
 10
-10.45162429
 20
8.99410864
  0
VERTEX
  8
0
 10
-10.68705585
 20
8.80442045
  0
VERTEX
  8
0
 10
-10.52971699
 20
8.97980999
  0
VERTEX
  8
0
 10
-10.39230616
 20
9.15027548
  0
VERTEX
  8
0
 10
-10.26841239
 20
9.33256906
  0
VERTEX
  8
0
 10
-10.43229539
 20
9.39004515
  0
VERTEX
  8
0
 10
-10.54744003
 20
9.41914475
  0
VERTEX
  8
0
 10
-10.84937526
 20
9.42800170
  0
VERTEX
  8
0
 10
-11.04178313
 20
9.26879944
  0
VERTEX
  8
0
 10
-11.19576650
 20
9.09921395
  0
VERTEX
  8
0
 10
-11.33499317
 20
8.90939506
  0
VERTEX
  8
0
 10
-11.24460912
 20
9.11533783
  0
VERTEX
  8
0
 10
-11.22692603
 20
9.19934858
  0
VERTEX
  8
0
 10
-11.23195068
 20
9.26798606
  0
VERTEX
  8
0
 10
-11.26295939
 20
9.31920063
  0
VERTEX
  8
0
 10
-11.32322849
 20
9.35094265
  0
VERTEX
  8
0
 10
-11.41603431
 20
9.36116247
  0
VERTEX
  8
0
 10
-11.54465317
 20
9.34781046
  0
VERTEX
  8
0
 10
-11.75597315
 20
9.24583065
  0
VERTEX
  8
0
 10
-11.94787053
 20
9.12551025
  0
VERTEX
  8
0
 10
-12.13303498
 20
8.96532895
  0
VERTEX
  8
0
 10
-12.17545370
 20
8.73923745
  0
VERTEX
  8
0
 10
-12.17336477
 20
8.92463940
  0
VERTEX
  8
0
 10
-12.22390859
 20
8.95857475
  0
VERTEX
  8
0
 10
-12.29705144
 20
8.96596582
  0
VERTEX
  8
0
 10
-12.47496381
 20
8.92826250
  0
VERTEX
  8
0
 10
-12.70410262
 20
8.83294603
  0
VERTEX
  8
0
 10
-12.92724353
 20
8.64367352
  0
VERTEX
  8
0
 10
-13.00566257
 20
8.55178394
  0
VERTEX
  8
0
 10
-13.06186408
 20
8.46224650
  0
VERTEX
  8
0
 10
-13.09576063
 20
8.37545196
  0
VERTEX
  8
0
 10
-13.10726479
 20
8.29179109
  0
VERTEX
  8
0
 10
-13.09628913
 20
8.21165466
  0
VERTEX
  8
0
 10
-13.06274622
 20
8.13543343
  0
VERTEX
  8
0
 10
-13.15201967
 20
8.21229756
  0
VERTEX
  8
0
 10
-13.25138601
 20
8.27333642
  0
VERTEX
  8
0
 10
-13.37637168
 20
8.31829867
  0
VERTEX
  8
0
 10
-12.12523846
 20
5.44983953
  0
SEQEND
  0
POLYLINE
  8
pobeda_orden_002
 66
   1
 39
0.000000
 70
    1
  0
VERTEX
  8
0
 10
-15.05350062
 20
3.43847807
  0
VERTEX
  8
0
 10
-14.89849654
 20
3.69287011
  0
VERTEX
  8
0
 10
-14.83644302
 20
3.82886327
  0
VERTEX
  8
0
 10
-14.82133902
 20
3.89635093
  0
VERTEX
  8
0
 10
-14.82144470
 20
3.96246760
  0
VERTEX
  8
0
 10
-14.72794942
 20
3.82076536
  0
VERTEX
  8
0
 10
-14.63682695
 20
3.69914469
  0
VERTEX
  8
0
 10
-14.53900717
 20
3.59301735
  0
VERTEX
  8
0
 10
-14.40288977
 20
3.65281606
  0
VERTEX
  8
0
 10
-14.26769060
 20
3.77378549
  0
VERTEX
  8
0
 10
-14.20445258
 20
3.86112089
  0
VERTEX
  8
0
 10
-14.14626480
 20
3.96844297
  0
VERTEX
  8
0
 10
-14.09473414
 20
4.09731640
  0
VERTEX
  8
0
 10
-14.05146751
 20
4.24930584
  0
VERTEX
  8
0
 10
-14.04604790
 20
4.34835236
  0
VERTEX
  8
0
 10
-14.05556451
 20
4.43714757
  0
VERTEX
  8
0
 10
-14.10188280
 20
4.58034106
  0
VERTEX
  8
0
 10
-14.15537509
 20
4.67160026
  0
VERTEX
  8
0
 10
-14.18099414
 20
4.70363911
  0
VERTEX
  8
0
 10
-14.11401158
 20
4.66255267
  0
VERTEX
  8
0
 10
-14.04523431
 20
4.63759384
  0
VERTEX
  8
0
 10
-13.97405837
 20
4.63207361
  0
VERTEX
  8
0
 10
-13.89987979
 20
4.64930294
  0
VERTEX
  8
0
 10
-13.82209462
 20
4.69259281
  0
VERTEX
  8
0
 10
-13.74009890
 20
4.76525418
  0
VERTEX
  8
0
 10
-13.65328867
 20
4.87059804
  0
VERTEX
  8
0
 10
-13.56105996
 20
5.01193535
  0
VERTEX
  8
0
 10
-13.49516591
 20
5.19212247
  0
VERTEX
  8
0
 10
-13.46273183
 20
5.35954838
  0
VERTEX
  8
0
 10
-13.46120696
 20
5.44573377
  0
VERTEX
  8
0
 10
-13.47502503
 20
5.52714433
  0
VERTEX
  8
0
 10
-13.54325200
 20
5.54110659
  0
VERTEX
  8
0
 10
-13.59867317
 20
5.57300619
  0
VERTEX
  8
0
 10
-13.60629620
 20
5.59190033
  0
VERTEX
  8
0
 10
-13.59237532
 20
5.61074021
  0
VERTEX
  8
0
 10
-13.47544526
 20
5.64220572
  0
VERTEX
  8
0
 10
-13.39921281
 20
5.70437957
  0
VERTEX
  8
0
 10
-13.33147023
 20
5.78729119
  0
VERTEX
  8
0
 10
-13.22351908
 20
5.97954026
  0
VERTEX
  8
0
 10
-13.13220360
 20
6.21922945
  0
VERTEX
  8
0
 10
-13.10805590
 20
6.43356324
  0
VERTEX
  8
0
 10
-13.10429491
 20
6.50531059
  0
VERTEX
  8
0
 10
-13.11369116
 20
6.55623216
  0
VERTEX
  8
0
 10
-13.14195618
 20
6.58841836
  0
VERTEX
  8
0
 10
-13.19480148
 20
6.60395962
  0
VERTEX
  8
0
 10
-13.39707898
 20
6.59346906
  0
VERTEX
  8
0
 10
-13.31031889
 20
6.66898345
  0
VERTEX
  8
0
 10
-13.07626731
 20
6.91402551
  0
VERTEX
  8
0
 10
-13.04450061
 20
7.06366200
  0
VERTEX
  8
0
 10
-13.05332835
 20
7.21221001
  0
VERTEX
  8
0
 10
-13.10920266
 20
7.34536444
  0
VERTEX
  8
0
 10
-13.15679858
 20
7.40169871
  0
VERTEX
  8
0
 10
-13.21857569
 20
7.44882017
  0
VERTEX
  8
0
 10
-13.25767736
 20
7.46232369
  0
VERTEX
  8
0
 10
-13.31920986
 20
7.44569428
  0
VERTEX
  8
0
 10
-13.47548526
 20
7.35696709
  0
VERTEX
  8
0
 10
-13.68230267
 20
7.20215229
  0
VERTEX
  8
0
 10
-13.52069664
 20
7.42461660
  0
VERTEX
  8
0
 10
-13.41780588
 20
7.63549491
  0
VERTEX
  8
0
 10
-13.39425136
 20
7.73607746
  0
VERTEX
  8
0
 10
-13.39242281
 20
7.83314928
  0
VERTEX
  8
0
 10
-13.41466928
 20
7.92650564
  0
VERTEX
  8
0
 10
-13.46333983
 20
8.01594179
  0
VERTEX
  8
0
 10
-13.49255771
 20
8.03221825
  0
VERTEX
  8
0
 10
-13.57356643
 20
8.05613537
  0
VERTEX
  8
0
 10
-13.69639868
 20
8.05032479
  0
VERTEX
  8
0
 10
-13.77038382
 20
8.02459398
  0
VERTEX
  8
0
 10
-13.85108710
 20
7.97741811
  0
VERTEX
  8
0
 10
-13.90652752
 20
7.88365160
  0
VERTEX
  8
0
 10
-13.92863323
 20
7.87216769
  0
VERTEX
  8
0
 10
-13.93319971
 20
7.93358600
  0
VERTEX
  8
0
 10
-13.92692254
 20
8.02561325
  0
VERTEX
  8
0
 10
-13.94488308
 20
8.09822686
  0
VERTEX
  8
0
 10
-13.97986876
 20
8.15362855
  0
VERTEX
  8
0
 10
-14.02466702
 20
8.19402002
  0
VERTEX
  8
0
 10
-14.11485107
 20
8.23857919
  0
VERTEX
  8
0
 10
-14.15773474
 20
8.24951809
  0
VERTEX
  8
0
 10
-14.25771600
 20
8.21472736
  0
VERTEX
  8
0
 10
-14.34982601
 20
8.16356331
  0
VERTEX
  8
0
 10
-14.43378320
 20
8.09652020
  0
VERTEX
  8
0
 10
-14.50930597
 20
8.01409228
  0
VERTEX
  8
0
 10
-14.57611276
 20
7.91677380
  0
VERTEX
  8
0
 10
-14.63392197
 20
7.80505901
  0
VERTEX
  8
0
 10
-14.72142139
 20
7.54041750
  0
VERTEX
  8
0
 10
-14.70497167
 20
7.77950913
  0
VERTEX
  8
0
 10
-14.71978416
 20
7.95872060
  0
VERTEX
  8
0
 10
-14.74326734
 20
8.02834394
  0
VERTEX
  8
0
 10
-14.78139900
 20
8.07135089
  0
VERTEX
  8
0
 10
-14.82581224
 20
8.07583265
  0
VERTEX
  8
0
 10
-14.87472924
 20
8.06333503
  0
VERTEX
  8
0
 10
-14.99115857
 20
7.99353213
  0
VERTEX
  8
0
 10
-15.33398684
 20
7.71760904
  0
VERTEX
  8
0
 10
-15.40245843
 20
7.49935928
  0
VERTEX
  8
0
 10
-15.42636925
 20
7.30458316
  0
VERTEX
  8
0
 10
-15.42126959
 20
7.11107522
  0
VERTEX
  8
0
 10
-15.48511196
 20
7.27612785
  0
VERTEX
  8
0
 10
-15.52960644
 20
7.32926360
  0
VERTEX
  8
0
 10
-15.58468177
 20
7.35826972
  0
VERTEX
  8
0
 10
-15.65198694
 20
7.35974426
  0
VERTEX
  8
0
 10
-15.73317095
 20
7.33028528
  0
VERTEX
  8
0
 10
-15.82988278
 20
7.26649083
  0
VERTEX
  8
0
 10
-15.94377143
 20
7.16495897
  0
VERTEX
  8
0
 10
-15.99441556
 20
7.11144204
  0
VERTEX
  8
0
 10
-16.10263385
 20
6.97077174
  0
VERTEX
  8
0
 10
-16.15784232
 20
6.87707307
  0
VERTEX
  8
0
 10
-16.20285512
 20
6.77276884
  0
VERTEX
  8
0
 10
-16.22947588
 20
6.66158665
  0
VERTEX
  8
0
 10
-16.22950820
 20
6.54725410
  0
VERTEX
  8
0
 10
-16.14323992
 20
6.42853325
  0
VERTEX
  8
0
 10
-16.12815244
 20
6.38311039
  0
VERTEX
  8
0
 10
-16.13030774
 20
6.34985091
  0
VERTEX
  8
0
 10
-16.14861458
 20
6.33090854
  0
VERTEX
  8
0
 10
-16.18198171
 20
6.32843705
  0
VERTEX
  8
0
 10
-16.28953189
 20
6.38152166
  0
VERTEX
  8
0
 10
-16.36077912
 20
6.36531034
  0
VERTEX
  8
0
 10
-16.43073508
 20
6.32791367
  0
VERTEX
  8
0
 10
-16.55665332
 20
6.21834808
  0
VERTEX
  8
0
 10
-16.68167568
 20
6.06161449
  0
VERTEX
  8
0
 10
-16.75766971
 20
5.80629216
  0
VERTEX
  8
0
 10
-16.76580073
 20
5.70446520
  0
VERTEX
  8
0
 10
-16.75429159
 20
5.62019686
  0
VERTEX
  8
0
 10
-16.72334517
 20
5.55373901
  0
VERTEX
  8
0
 10
-16.67316435
 20
5.50534352
  0
VERTEX
  8
0
 10
-16.60395199
 20
5.47526225
  0
VERTEX
  8
0
 10
-16.51591098
 20
5.46374707
  0
VERTEX
  8
0
 10
-16.66835495
 20
5.43127854
  0
VERTEX
  8
0
 10
-16.81833194
 20
5.38149367
  0
VERTEX
  8
0
 10
-16.98140962
 20
5.30116466
  0
VERTEX
  8
0
 10
-17.03799054
 20
5.19798869
  0
VERTEX
  8
0
 10
-17.08404361
 20
5.07964093
  0
VERTEX
  8
0
 10
-17.14477994
 20
4.82950675
  0
VERTEX
  8
0
 10
-17.16404612
 20
4.61491556
  0
VERTEX
  8
0
 10
-17.15826150
 20
4.54099655
  0
VERTEX
  8
0
 10
-17.14226966
 20
4.50002082
  0
VERTEX
  8
0
 10
-17.08045422
 20
4.47583761
  0
VERTEX
  8
0
 10
-17.00968854
 20
4.47119203
  0
VERTEX
  8
0
 10
-16.86250245
 20
4.50040160
  0
VERTEX
  8
0
 10
-16.69388322
 20
4.57203847
  0
VERTEX
  8
0
 10
-16.88390884
 20
4.42301876
  0
VERTEX
  8
0
 10
-16.96367085
 20
4.33967612
  0
VERTEX
  8
0
 10
-17.03111321
 20
4.24869793
  0
VERTEX
  8
0
 10
-17.08462158
 20
4.14877393
  0
VERTEX
  8
0
 10
-17.12258163
 20
4.03859383
  0
VERTEX
  8
0
 10
-17.14337901
 20
3.91684737
  0
VERTEX
  8
0
 10
-17.14539939
 20
3.78222428
  0
VERTEX
  8
0
 10
-17.12690398
 20
3.74327796
  0
VERTEX
  8
0
 10
-17.07076267
 20
3.66024220
  0
VERTEX
  8
0
 10
-16.97599283
 20
3.58382187
  0
VERTEX
  8
0
 10
-16.91381514
 20
3.56393774
  0
VERTEX
  8
0
 10
-16.84161182
 20
3.56472179
  0
VERTEX
  8
0
 10
-16.77412396
 20
3.60788464
  0
VERTEX
  8
0
 10
-15.93885416
 20
3.25477202
  0
VERTEX
  8
0
 10
-15.05350062
 20
3.43847807
  0
SEQEND
  0
POLYLINE
  8
pobeda_orden_002
 66
   1
 39
0.000000
 70
    1
  0
VERTEX
  8
0
 10
-14.68655835
 20
5.19507660
  0
VERTEX
  8
0
 10
-14.94980189
 20
5.03162282
  0
VERTEX
  8
0
 10
-15.22298169
 20
5.17785674
  0
VERTEX
  8
0
 10
-15.49616150
 20
5.32409066
  0
VERTEX
  8
0
 10
-15.50609776
 20
5.63380084
  0
VERTEX
  8
0
 10
-15.51603402
 20
5.94351102
  0
VERTEX
  8
0
 10
-15.25281296
 20
6.10696480
  0
VERTEX
  8
0
 10
-14.98956943
 20
6.27041858
  0
VERTEX
  8
0
 10
-14.71638963
 20
6.12418466
  0
VERTEX
  8
0
 10
-14.44320982
 20
5.97792826
  0
VERTEX
  8
0
 10
-14.43327356
 20
5.66824056
  0
VERTEX
  8
0
 10
-14.42331482
 20
5.35853038
  0
VERTEX
  8
0
 10
-14.68655835
 20
5.19507660
  0
SEQEND
  0
POLYLINE
  8
pobeda_orden_002
 66
   1
 39
0.000000
 70
    1
  0
VERTEX
  8
0
 10
-12.52494738
 20
2.61803790
  0
VERTEX
  8
0
 10
-12.78819092
 20
2.45458412
  0
VERTEX
  8
0
 10
-13.06137072
 20
2.60081804
  0
VERTEX
  8
0
 10
-13.33455052
 20
2.74705196
  0
VERTEX
  8
0
 10
-13.34448679
 20
3.05676214
  0
VERTEX
  8
0
 10
-13.35442305
 20
3.36647233
  0
VERTEX
  8
0
 10
-13.09120199
 20
3.52992611
  0
VERTEX
  8
0
 10
-12.82795846
 20
3.69337989
  0
VERTEX
  8
0
 10
-12.55477866
 20
3.54714596
  0
VERTEX
  8
0
 10
-12.28159885
 20
3.40088956
  0
VERTEX
  8
0
 10
-12.27166259
 20
3.09120186
  0
VERTEX
  8
0
 10
-12.26170385
 20
2.78149168
  0
VERTEX
  8
0
 10
-12.52494738
 20
2.61803790
  0
SEQEND
  0
POLYLINE
  8
pobeda_orden_002
 66
   1
 39
0.000000
 70
    1
  0
VERTEX
  8
0
 10
-13.10803720
 20
0.87106026
  0
VERTEX
  8
0
 10
-12.90932423
 20
1.09299433
  0
VERTEX
  8
0
 10
-12.82355727
 20
1.21542311
  0
VERTEX
  8
0
 10
-12.79642325
 20
1.27903490
  0
VERTEX
  8
0
 10
-12.78449442
 20
1.34406665
  0
VERTEX
  8
0
 10
-12.71834928
 20
1.18771540
  0
VERTEX
  8
0
 10
-12.65088263
 20
1.05154219
  0
VERTEX
  8
0
 10
-12.57401084
 20
0.92938471
  0
VERTEX
  8
0
 10
-12.42928370
 20
0.96341241
  0
VERTEX
  8
0
 10
-12.27432682
 20
1.05775639
  0
VERTEX
  8
0
 10
-12.19625049
 20
1.13212443
  0
VERTEX
  8
0
 10
-12.11950262
 20
1.22706447
  0
VERTEX
  8
0
 10
-12.04537852
 20
1.34440750
  0
VERTEX
  8
0
 10
-11.97517348
 20
1.48598450
  0
VERTEX
  8
0
 10
-11.95181864
 20
1.58239060
  0
VERTEX
  8
0
 10
-11.94501626
 20
1.67143487
  0
VERTEX
  8
0
 10
-11.96450086
 20
1.82066660
  0
VERTEX
  8
0
 10
-12.00049134
 20
1.92013696
  0
VERTEX
  8
0
 10
-12.01985171
 20
1.95630324
  0
VERTEX
  8
0
 10
-11.96146519
 20
1.90371262
  0
VERTEX
  8
0
 10
-11.89837883
 20
1.86665365
  0
VERTEX
  8
0
 10
-11.82939617
 20
1.84827211
  0
VERTEX
  8
0
 10
-11.75332078
 20
1.85171376
  0
VERTEX
  8
0
 10
-11.66895619
 20
1.88012435
  0
VERTEX
  8
0
 10
-11.57510597
 20
1.93664966
  0
VERTEX
  8
0
 10
-11.47057368
 20
2.02443544
  0
VERTEX
  8
0
 10
-11.35416286
 20
2.14662746
  0
VERTEX
  8
0
 10
-11.25657651
 20
2.31181320
  0
VERTEX
  8
0
 10
-11.19421380
 20
2.47054032
  0
VERTEX
  8
0
 10
-11.17702929
 20
2.55500889
  0
VERTEX
  8
0
 10
-11.17580049
 20
2.63757468
  0
VERTEX
  8
0
 10
-11.24034703
 20
2.66372057
  0
VERTEX
  8
0
 10
-11.28903716
 20
2.70517368
  0
VERTEX
  8
0
 10
-11.29309430
 20
2.72513962
  0
VERTEX
  8
0
 10
-11.27597718
 20
2.74113138
  0
VERTEX
  8
0
 10
-11.15527337
 20
2.75079101
  0
VERTEX
  8
0
 10
-11.06899883
 20
2.79805280
  0
VERTEX
  8
0
 10
-10.98729825
 20
2.86725114
  0
VERTEX
  8
0
 10
-10.84616199
 20
3.03664332
  0
VERTEX
  8
0
 10
-10.71274982
 20
3.25571094
  0
VERTEX
  8
0
 10
-10.64999823
 20
3.46207062
  0
VERTEX
  8
0
 10
-10.63324255
 20
3.53193532
  0
VERTEX
  8
0
 10
-10.63321454
 20
3.58371653
  0
VERTEX
  8
0
 10
-10.65514988
 20
3.62050925
  0
VERTEX
  8
0
 10
-10.70428426
 20
3.64540843
  0
VERTEX
  8
0
 10
-10.90509291
 20
3.67190607
  0
VERTEX
  8
0
 10
-10.80603866
 20
3.73036966
  0
VERTEX
  8
0
 10
-10.53129993
 20
3.92872384
  0
VERTEX
  8
0
 10
-10.47283099
 20
4.07008007
  0
VERTEX
  8
0
 10
-10.45447667
 20
4.21775390
  0
VERTEX
  8
0
 10
-10.48518475
 20
4.35885335
  0
VERTEX
  8
0
 10
-10.52173339
 20
4.42290894
  0
VERTEX
  8
0
 10
-10.57390305
 20
4.48048644
  0
VERTEX
  8
0
 10
-10.60989418
 20
4.50088067
  0
VERTEX
  8
0
 10
-10.67342552
 20
4.49572743
  0
VERTEX
  8
0
 10
-10.84323879
 20
4.43692296
  0
VERTEX
  8
0
 10
-11.07477749
 20
4.32233283
  0
VERTEX
  8
0
 10
-10.87538343
 20
4.51167086
  0
VERTEX
  8
0
 10
-10.73583266
 20
4.70030212
  0
VERTEX
  8
0
 10
-10.69436622
 20
4.79491818
  0
VERTEX
  8
0
 10
-10.67490185
 20
4.89003611
  0
VERTEX
  8
0
 10
-10.67978664
 20
4.98588210
  0
VERTEX
  8
0
 10
-10.71136767
 20
5.08268235
  0
VERTEX
  8
0
 10
-10.73713540
 20
5.10400442
  0
VERTEX
  8
0
 10
-10.81243854
 20
5.14226512
  0
VERTEX
  8
0
 10
-10.93427695
 20
5.15890613
  0
VERTEX
  8
0
 10
-11.01170936
 20
5.14706978
  0
VERTEX
  8
0
 10
-11.09965054
 20
5.11536915
  0
VERTEX
  8
0
 10
-11.17122991
 20
5.03325830
  0
VERTEX
  8
0
 10
-11.19505644
 20
5.02598925
  0
VERTEX
  8
0
 10
-11.18836898
 20
5.08721293
  0
VERTEX
  8
0
 10
-11.16544836
 20
5.17656092
  0
VERTEX
  8
0
 10
-11.16989381
 20
5.25123056
  0
VERTEX
  8
0
 10
-11.19421253
 20
5.31207417
  0
VERTEX
  8
0
 10
-11.23091171
 20
5.35994405
  0
VERTEX
  8
0
 10
-11.31148023
 20
5.42017191
  0
VERTEX
  8
0
 10
-11.35165695
 20
5.43873264
  0
VERTEX
  8
0
 10
-11.45630017
 20
5.42271877
  0
VERTEX
  8
0
 10
-11.55618341
 20
5.38917251
  0
VERTEX
  8
0
 10
-11.65093985
 20
5.33852861
  0
VERTEX
  8
0
 10
-11.74020266
 20
5.27122184
  0
VERTEX
  8
0
 10
-11.82360501
 20
5.18768692
  0
VERTEX
  8
0
 10
-11.90078008
 20
5.08835863
  0
VERTEX
  8
0
 10
-12.03498104
 20
4.84406092
  0
VERTEX
  8
0
 10
-11.97529312
 20
5.07616596
  0
VERTEX
  8
0
 10
-11.95724308
 20
5.25508034
  0
VERTEX
  8
0
 10
-11.96766315
 20
5.32781473
  0
VERTEX
  8
0
 10
-11.99733106
 20
5.37704315
  0
VERTEX
  8
0
 10
-12.04018695
 20
5.38953294
  0
VERTEX
  8
0
 10
-12.09056151
 20
5.38614656
  0
VERTEX
  8
0
 10
-12.21775006
 20
5.33869866
  0
VERTEX
  8
0
 10
-12.60506903
 20
5.12977572
  0
VERTEX
  8
0
 10
-12.71211699
 20
4.92763209
  0
VERTEX
  8
0
 10
-12.77107631
 20
4.74046033
  0
VERTEX
  8
0
 10
-12.80127883
 20
4.54925590
  0
VERTEX
  8
0
 10
-12.83401667
 20
4.72317097
  0
VERTEX
  8
0
 10
-12.86809777
 20
4.78351701
  0
VERTEX
  8
0
 10
-12.91697444
 20
4.82206203
  0
VERTEX
  8
0
 10
-12.98288725
 20
4.83576099
  0
VERTEX
  8
0
 10
-13.06807679
 20
4.82156887
  0
VERTEX
  8
0
 10
-13.17478364
 20
4.77644064
  0
VERTEX
  8
0
 10
-13.30524839
 20
4.69733126
  0
VERTEX
  8
0
 10
-13.36478645
 20
4.65392492
  0
VERTEX
  8
0
 10
-13.49679844
 20
4.53529877
  0
VERTEX
  8
0
 10
-13.56813738
 20
4.45321241
  0
VERTEX
  8
0
 10
-13.63138107
 20
4.35884207
  0
VERTEX
  8
0
 10
-13.67779160
 20
4.25436142
  0
VERTEX
  8
0
 10
-13.69863105
 20
4.14194411
  0
VERTEX
  8
0
 10
-13.63540978
 20
4.00950572
  0
VERTEX
  8
0
 10
-13.62884089
 20
3.96209562
  0
VERTEX
  8
0
 10
-13.63701317
 20
3.92978382
  0
VERTEX
  8
0
 10
-13.65846166
 20
3.91448950
  0
VERTEX
  8
0
 10
-13.69172135
 20
3.91813185
  0
VERTEX
  8
0
 10
-13.78781442
 20
3.98990328
  0
VERTEX
  8
0
 10
-13.86082215
 20
3.98692917
  0
VERTEX
  8
0
 10
-13.93641576
 20
3.96288850
  0
VERTEX
  8
0
 10
-14.08017128
 20
3.87806885
  0
VERTEX
  8
0
 10
-14.23163012
 20
3.74670587
  0
VERTEX
  8
0
 10
-14.35282181
 20
3.50947781
  0
VERTEX
  8
0
 10
-14.37934880
 20
3.41083115
  0
VERTEX
  8
0
 10
-14.38336808
 20
3.32587552
  0
VERTEX
  8
0
 10
-14.36503331
 20
3.25489551
  0
VERTEX
  8
0
 10
-14.32449813
 20
3.19817568
  0
VERTEX
  8
0
 10
-14.26191619
 20
3.15600064
  0
VERTEX
  8
0
 10
-14.17744115
 20
3.12865495
  0
VERTEX
  8
0
 10
-14.33324833
 20
3.12447232
  0
VERTEX
  8
0
 10
-14.48978116
 20
3.10281357
  0
VERTEX
  8
0
 10
-14.66475473
 20
3.05350500
  0
VERTEX
  8
0
 10
-14.73916800
 20
2.96234939
  0
VERTEX
  8
0
 10
-14.80599040
 20
2.85435937
  0
VERTEX
  8
0
 10
-14.91123500
 20
2.61945602
  0
VERTEX
  8
0
 10
-14.96923344
 20
2.41195483
  0
VERTEX
  8
0
 10
-14.97699814
 20
2.33821751
  0
VERTEX
  8
0
 10
-14.96873064
 20
2.29501568
  0
VERTEX
  8
0
 10
-14.91234869
 20
2.25998638
  0
VERTEX
  8
0
 10
-14.84361027
 20
2.24253955
  0
VERTEX
  8
0
 10
-14.69356628
 20
2.24447454
  0
VERTEX
  8
0
 10
-14.51472562
 20
2.28422760
  0
VERTEX
  8
0
 10
-14.72869828
 20
2.17227980
  0
VERTEX
  8
0
 10
-14.82229600
 20
2.10484509
  0
VERTEX
  8
0
 10
-14.90516943
 20
2.02766026
  0
VERTEX
  8
0
 10
-14.97596963
 20
1.93914312
  0
VERTEX
  8
0
 10
-15.03334771
 20
1.83771149
  0
VERTEX
  8
0
 10
-15.07595473
 20
1.72178318
  0
VERTEX
  8
0
 10
-15.10244178
 20
1.58977601
  0
VERTEX
  8
0
 10
-15.09134319
 20
1.54811406
  0
VERTEX
  8
0
 10
-15.05125134
 20
1.45624771
  0
VERTEX
  8
0
 10
-14.97197210
 20
1.36385619
  0
VERTEX
  8
0
 10
-14.91445154
 20
1.33298825
  0
VERTEX
  8
0
 10
-14.84331134
 20
1.32061873
  0
VERTEX
  8
0
 10
-14.76909521
 20
1.35077846
  0
VERTEX
  8
0
 10
-14.01203839
 20
0.85154992
  0
VERTEX
  8
0
 10
-13.10803720
 20
0.87106026
  0
SEQEND
  0
POLYLINE
  8
pobeda_orden_002
 66
   1
 39
0.000000
 70
    1
  0
VERTEX
  8
0
 10
-17.57778883
 20
0.41138564
  0
VERTEX
  8
0
 10
-17.84103237
 20
0.24793186
  0
VERTEX
  8
0
 10
-18.11421217
 20
0.39416578
  0
VERTEX
  8
0
 10
-18.38739197
 20
0.54039970
  0
VERTEX
  8
0
 10
-18.39732823
 20
0.85010988
  0
VERTEX
  8
0
 10
-18.40726450
 20
1.15982006
  0
VERTEX
  8
0
 10
-18.14404344
 20
1.32327384
  0
VERTEX
  8
0
 10
-17.88079990
 20
1.48672762
  0
VERTEX
  8
0
 10
-17.60762010
 20
1.34049370
  0
VERTEX
  8
0
 10
-17.33444030
 20
1.19423730
  0
VERTEX
  8
0
 10
-17.32450404
 20
0.88454960
  0
VERTEX
  8
0
 10
-17.31454529
 20
0.57483942
  0
VERTEX
  8
0
 10
-17.57778883
 20
0.41138564
  0
SEQEND
  0
POLYLINE
  8
pobeda_orden_002
 66
   1
 39
0.000000
 70
    1
  0
VERTEX
  8
0
 10
-17.45008423
 20
-1.40212360
  0
VERTEX
  8
0
 10
-17.33202389
 20
-1.12862162
  0
VERTEX
  8
0
 10
-17.28951696
 20
-0.98531098
  0
VERTEX
  8
0
 10
-17.28396015
 20
-0.91637742
  0
VERTEX
  8
0
 10
-17.29327383
 20
-0.85091994
  0
VERTEX
  8
0
 10
-17.18095299
 20
-0.97821850
  0
VERTEX
  8
0
 10
-17.07377890
 20
-1.08596173
  0
VERTEX
  8
0
 10
-16.96213074
 20
-1.17742983
  0
VERTEX
  8
0
 10
-16.83566918
 20
-1.09925499
  0
VERTEX
  8
0
 10
-16.71863702
 20
-0.96063360
  0
VERTEX
  8
0
 10
-16.66817987
 20
-0.86534144
  0
VERTEX
  8
0
 10
-16.62550756
 20
-0.75096084
  0
VERTEX
  8
0
 10
-16.59242925
 20
-0.61616620
  0
VERTEX
  8
0
 10
-16.57075411
 20
-0.45963192
  0
VERTEX
  8
0
 10
-16.57918295
 20
-0.36079600
  0
VERTEX
  8
0
 10
-16.60097458
 20
-0.27419184
  0
VERTEX
  8
0
 10
-16.66678598
 20
-0.13884555
  0
VERTEX
  8
0
 10
-16.73246784
 20
-0.05592655
  0
VERTEX
  8
0
 10
-16.76229967
 20
-0.02776833
  0
VERTEX
  8
0
 10
-16.69024734
 20
-0.05912466
  0
VERTEX
  8
0
 10
-16.61866410
 20
-0.07426060
  0
VERTEX
  8
0
 10
-16.54741307
 20
-0.06981333
  0
VERTEX
  8
0
 10
-16.47635733
 20
-0.04242003
  0
VERTEX
  8
0
 10
-16.40535997
 20
0.01128212
  0
VERTEX
  8
0
 10
-16.33428410
 20
0.09465595
  0
VERTEX
  8
0
 10
-16.26299281
 20
0.21106426
  0
VERTEX
  8
0
 10
-16.19134918
 20
0.36386989
  0
VERTEX
  8
0
 10
-16.15119467
 20
0.55147863
  0
VERTEX
  8
0
 10
-16.14239655
 20
0.72179010
  0
VERTEX
  8
0
 10
-16.15289082
 20
0.80734778
  0
VERTEX
  8
0
 10
-16.17791342
 20
0.88604015
  0
VERTEX
  8
0
 10
-16.24742006
 20
0.89036336
  0
VERTEX
  8
0
 10
-16.30674412
 20
0.91423272
  0
VERTEX
  8
0
 10
-16.31692450
 20
0.93188092
  0
VERTEX
  8
0
 10
-16.30576342
 20
0.95247611
  0
VERTEX
  8
0
 10
-16.19435580
 20
0.99992144
  0
VERTEX
  8
0
 10
-16.12752627
 20
1.07210723
  0
VERTEX
  8
0
 10
-16.07199230
 20
1.16364614
  0
VERTEX
  8
0
 10
-15.99187069
 20
1.36905716
  0
VERTEX
  8
0
 10
-15.93483027
 20
1.61912877
  0
VERTEX
  8
0
 10
-15.94077129
 20
1.83473672
  0
VERTEX
  8
0
 10
-15.94704023
 20
1.90630856
  0
VERTEX
  8
0
 10
-15.96343747
 20
1.95542502
  0
VERTEX
  8
0
 10
-15.99591001
 20
1.98336061
  0
VERTEX
  8
0
 10
-16.05040485
 20
1.99138986
  0
VERTEX
  8
0
 10
-16.24924947
 20
1.95282747
  0
VERTEX
  8
0
 10
-16.17385304
 20
2.03969010
  0
VERTEX
  8
0
 10
-15.97621342
 20
2.31494331
  0
VERTEX
  8
0
 10
-15.96559838
 20
2.46754581
  0
VERTEX
  8
0
 10
-15.99503048
 20
2.61341627
  0
VERTEX
  8
0
 10
-16.06890648
 20
2.73749036
  0
VERTEX
  8
0
 10
-16.12388493
 20
2.78664614
  0
VERTEX
  8
0
 10
-16.19162315
 20
2.82470369
  0
VERTEX
  8
0
 10
-16.23222450
 20
2.83262934
  0
VERTEX
  8
0
 10
-16.29084100
 20
2.80759151
  0
VERTEX
  8
0
 10
-16.43323478
 20
2.69796248
  0
VERTEX
  8
0
 10
-16.61647296
 20
2.51585033
  0
VERTEX
  8
0
 10
-16.48742798
 20
2.75865534
  0
VERTEX
  8
0
 10
-16.41491220
 20
2.98180917
  0
VERTEX
  8
0
 10
-16.40559684
 20
3.08469205
  0
VERTEX
  8
0
 10
-16.41730670
 20
3.18107235
  0
VERTEX
  8
0
 10
-16.45233940
 20
3.27042013
  0
VERTEX
  8
0
 10
-16.51299259
 20
3.35220545
  0
VERTEX
  8
0
 10
-16.54419272
 20
3.36425366
  0
VERTEX
  8
0
 10
-16.62774309
 20
3.37665441
  0
VERTEX
  8
0
 10
-16.74856869
 20
3.35379185
  0
VERTEX
  8
0
 10
-16.81824876
 20
3.31800689
  0
VERTEX
  8
0
 10
-16.89159452
 20
3.26005016
  0
VERTEX
  8
0
 10
-16.93343433
 20
3.15947567
  0
VERTEX
  8
0
 10
-16.95372503
 20
3.14502472
  0
VERTEX
  8
0
 10
-16.96680160
 20
3.20520831
  0
VERTEX
  8
0
 10
-16.97340358
 20
3.29721283
  0
VERTEX
  8
0
 10
-17.00130298
 20
3.36661702
  0
VERTEX
  8
0
 10
-17.04366422
 20
3.41660571
  0
VERTEX
  8
0
 10
-17.09365171
 20
3.45036377
  0
VERTEX
  8
0
 10
-17.18916307
 20
3.48192738
  0
VERTEX
  8
0
 10
-17.23315236
 20
3.48678662
  0
VERTEX
  8
0
 10
-17.32731324
 20
3.43840919
  0
VERTEX
  8
0
 10
-17.41139905
 20
3.37491439
  0
VERTEX
  8
0
 10
-17.48519980
 20
3.29683087
  0
VERTEX
  8
0
 10
-17.54850549
 20
3.20468728
  0
VERTEX
  8
0
 10
-17.60110614
 20
3.09901228
  0
VERTEX
  8
0
 10
-17.64279174
 20
2.98033452
  0
VERTEX
  8
0
 10
-17.69257783
 20
2.70608533
  0
VERTEX
  8
0
 10
-17.70959017
 20
2.94513758
  0
VERTEX
  8
0
 10
-17.74921962
 20
3.12053903
  0
VERTEX
  8
0
 10
-17.78217134
 20
3.18621287
  0
VERTEX
  8
0
 10
-17.82592150
 20
3.22348947
  0
VERTEX
  8
0
 10
-17.87052606
 20
3.22174147
  0
VERTEX
  8
0
 10
-17.91722552
 20
3.20255230
  0
VERTEX
  8
0
 10
-18.02279749
 20
3.11721303
  0
VERTEX
  8
0
 10
-18.32385226
 20
2.79622891
  0
VERTEX
  8
0
 10
-18.36125765
 20
2.57056954
  0
VERTEX
  8
0
 10
-18.35780613
 20
2.37436161
  0
VERTEX
  8
0
 10
-18.32580356
 20
2.18345021
  0
VERTEX
  8
0
 10
-18.41201287
 20
2.33800173
  0
VERTEX
  8
0
 10
-18.46347461
 20
2.38442215
  0
VERTEX
  8
0
 10
-18.52205319
 20
2.40547440
  0
VERTEX
  8
0
 10
-18.58890768
 20
2.39756002
  0
VERTEX
  8
0
 10
-18.66519716
 20
2.35708053
  0
VERTEX
  8
0
 10
-18.75208072
 20
2.28043748
  0
VERTEX
  8
0
 10
-18.85071744
 20
2.16403240
  0
VERTEX
  8
0
 10
-18.89341385
 20
2.10398320
  0
VERTEX
  8
0
 10
-18.98098411
 20
1.94961098
  0
VERTEX
  8
0
 10
-19.02260366
 20
1.84913597
  0
VERTEX
  8
0
 10
-19.05264976
 20
1.73957888
  0
VERTEX
  8
0
 10
-19.06352510
 20
1.62577259
  0
VERTEX
  8
0
 10
-19.04763236
 20
1.51255000
  0
VERTEX
  8
0
 10
-18.94566904
 20
1.40700221
  0
VERTEX
  8
0
 10
-18.92440194
 20
1.36412357
  0
VERTEX
  8
0
 10
-18.92190370
 20
1.33088808
  0
VERTEX
  8
0
 10
-18.93739371
 20
1.30958050
  0
VERTEX
  8
0
 10
-18.97009136
 20
1.30248558
  0
VERTEX
  8
0
 10
-19.08398704
 20
1.34007269
  0
VERTEX
  8
0
 10
-19.15228180
 20
1.31409577
  0
VERTEX
  8
0
 10
-19.21634709
 20
1.26731986
  0
VERTEX
  8
0
 10
-19.32577717
 20
1.14128383
  0
VERTEX
  8
0
 10
-19.42775033
 20
0.96866436
  0
VERTEX
  8
0
 10
-19.46744120
 20
0.70524602
  0
VERTEX
  8
0
 10
-19.46131007
 20
0.60327910
  0
VERTEX
  8
0
 10
-19.43817586
 20
0.52143522
  0
VERTEX
  8
0
 10
-19.39827455
 20
0.45993552
  0
VERTEX
  8
0
 10
-19.34184213
 20
0.41900117
  0
VERTEX
  8
0
 10
-19.26911458
 20
0.39885332
  0
VERTEX
  8
0
 10
-19.18032787
 20
0.39971311
  0
VERTEX
  8
0
 10
-19.32676352
 20
0.34632802
  0
VERTEX
  8
0
 10
-19.46834435
 20
0.27613899
  0
VERTEX
  8
0
 10
-19.61864386
 20
0.17387882
  0
VERTEX
  8
0
 10
-19.66030245
 20
0.06382774
  0
VERTEX
  8
0
 10
-19.68942263
 20
-0.05978089
  0
VERTEX
  8
0
 10
-19.71472716
 20
-0.31593649
  0
VERTEX
  8
0
 10
-19.70391635
 20
-0.53111941
  0
VERTEX
  8
0
 10
-19.68789235
 20
-0.60351219
  0
VERTEX
  8
0
 10
-19.66634912
 20
-0.64186109
  0
VERTEX
  8
0
 10
-19.60176789
 20
-0.65719865
  0
VERTEX
  8
0
 10
-19.53104495
 20
-0.65194240
  0
VERTEX
  8
0
 10
-19.38936200
 20
-0.60251683
  0
VERTEX
  8
0
 10
-19.23236428
 20
-0.50809224
  0
VERTEX
  8
0
 10
-19.39978150
 20
-0.68212695
  0
VERTEX
  8
0
 10
-19.46715771
 20
-0.77576680
  0
VERTEX
  8
0
 10
-19.52127083
 20
-0.87525184
  0
VERTEX
  8
0
 10
-19.56033978
 20
-0.98165471
  0
VERTEX
  8
0
 10
-19.58258345
 20
-1.09604806
  0
VERTEX
  8
0
 10
-19.58622073
 20
-1.21950453
  0
VERTEX
  8
0
 10
-19.56947054
 20
-1.35309678
  0
VERTEX
  8
0
 10
-19.54573080
 20
-1.38908735
  0
VERTEX
  8
0
 10
-19.47857115
 20
-1.46349411
  0
VERTEX
  8
0
 10
-19.37408093
 20
-1.52596958
  0
VERTEX
  8
0
 10
-19.30973977
 20
-1.53699950
  0
VERTEX
  8
0
 10
-19.23834947
 20
-1.52616631
  0
VERTEX
  8
0
 10
-19.17753136
 20
-1.47402419
  0
VERTEX
  8
0
 10
-18.30122035
 20
-1.70735483
  0
VERTEX
  8
0
 10
-17.45008423
 20
-1.40212360
  0
SEQEND
  0
POLYLINE
  8
pobeda_orden_002
 66
   1
 39
0.000000
 70
    1
  0
VERTEX
  8
0
 10
-14.92603329
 20
-2.22307078
  0
VERTEX
  8
0
 10
-15.18927683
 20
-2.38652456
  0
VERTEX
  8
0
 10
-15.46245663
 20
-2.24029064
  0
VERTEX
  8
0
 10
-15.73563643
 20
-2.09405672
  0
VERTEX
  8
0
 10
-15.74557270
 20
-1.78434654
  0
VERTEX
  8
0
 10
-15.75550896
 20
-1.47463636
  0
VERTEX
  8
0
 10
-15.49228790
 20
-1.31118258
  0
VERTEX
  8
0
 10
-15.22904436
 20
-1.14772880
  0
VERTEX
  8
0
 10
-14.95586456
 20
-1.29396272
  0
VERTEX
  8
0
 10
-14.68268476
 20
-1.44021912
  0
VERTEX
  8
0
 10
-14.67274850
 20
-1.74990682
  0
VERTEX
  8
0
 10
-14.66278975
 20
-2.05961700
  0
VERTEX
  8
0
 10
-14.92603329
 20
-2.22307078
  0
SEQEND
  0
POLYLINE
  8
pobeda_orden_002
 66
   1
 39
0.000000
 70
    1
  0
VERTEX
  8
0
 10
-15.01040152
 20
-3.90113315
  0
VERTEX
  8
0
 10
-14.87009027
 20
-3.63835124
  0
VERTEX
  8
0
 10
-14.81585770
 20
-3.49905441
  0
VERTEX
  8
0
 10
-14.80460960
 20
-3.43081810
  0
VERTEX
  8
0
 10
-14.80846881
 20
-3.36481407
  0
VERTEX
  8
0
 10
-14.70707935
 20
-3.50097967
  0
VERTEX
  8
0
 10
-14.60919898
 20
-3.61723079
  0
VERTEX
  8
0
 10
-14.50551171
 20
-3.71763335
  0
VERTEX
  8
0
 10
-14.37300887
 20
-3.65020318
  0
VERTEX
  8
0
 10
-14.24489567
 20
-3.52175309
  0
VERTEX
  8
0
 10
-14.18671802
 20
-3.43096829
  0
VERTEX
  8
0
 10
-14.13471718
 20
-3.32051576
  0
VERTEX
  8
0
 10
-14.09058628
 20
-3.18892460
  0
VERTEX
  8
0
 10
-14.05601846
 20
-3.03472389
  0
VERTEX
  8
0
 10
-14.05623084
 20
-2.93552944
  0
VERTEX
  8
0
 10
-14.07077336
 20
-2.84741775
  0
VERTEX
  8
0
 10
-14.12514658
 20
-2.70708489
  0
VERTEX
  8
0
 10
-14.18373374
 20
-2.61900985
  0
VERTEX
  8
0
 10
-14.21113043
 20
-2.58847717
  0
VERTEX
  8
0
 10
-14.14192328
 20
-2.62569448
  0
VERTEX
  8
0
 10
-14.07183993
 20
-2.64670829
  0
VERTEX
  8
0
 10
-14.00046538
 20
-2.64817869
  0
VERTEX
  8
0
 10
-13.92738463
 20
-2.62676574
  0
VERTEX
  8
0
 10
-13.85218265
 20
-2.57912954
  0
VERTEX
  8
0
 10
-13.77444445
 20
-2.50193014
  0
VERTEX
  8
0
 10
-13.69375502
 20
-2.39182765
  0
VERTEX
  8
0
 10
-13.60969934
 20
-2.24548213
  0
VERTEX
  8
0
 10
-13.55414148
 20
-2.06184458
  0
VERTEX
  8
0
 10
-13.53126513
 20
-1.89284731
  0
VERTEX
  8
0
 10
-13.53463580
 20
-1.80671436
  0
VERTEX
  8
0
 10
-13.55305358
 20
-1.72621961
  0
VERTEX
  8
0
 10
-13.62196319
 20
-1.71615338
  0
VERTEX
  8
0
 10
-13.67910603
 20
-1.68745171
  0
VERTEX
  8
0
 10
-13.68778946
 20
-1.66902083
  0
VERTEX
  8
0
 10
-13.67496066
 20
-1.64942100
  0
VERTEX
  8
0
 10
-13.56000561
 20
-1.61136767
  0
VERTEX
  8
0
 10
-13.48742597
 20
-1.54496609
  0
VERTEX
  8
0
 10
-13.42449987
 20
-1.45834219
  0
VERTEX
  8
0
 10
-13.32763756
 20
-1.26027440
  0
VERTEX
  8
0
 10
-13.25007745
 20
-1.01578748
  0
VERTEX
  8
0
 10
-13.23813726
 20
-0.80042844
  0
VERTEX
  8
0
 10
-13.23845570
 20
-0.72858328
  0
VERTEX
  8
0
 10
-13.25072781
 20
-0.67827732
  0
VERTEX
  8
0
 10
-13.28077458
 20
-0.64774774
  0
VERTEX
  8
0
 10
-13.33441698
 20
-0.63523178
  0
VERTEX
  8
0
 10
-13.53577263
 20
-0.65718950
  0
VERTEX
  8
0
 10
-13.45343972
 20
-0.57687120
  0
VERTEX
  8
0
 10
-13.23367764
 20
-0.31893636
  0
VERTEX
  8
0
 10
-13.21045762
 20
-0.16773771
  0
VERTEX
  8
0
 10
-13.22770476
 20
-0.01993048
  0
VERTEX
  8
0
 10
-13.29104865
 20
0.10983698
  0
VERTEX
  8
0
 10
-13.34176611
 20
0.16337818
  0
VERTEX
  8
0
 10
-13.40611884
 20
0.20691631
  0
VERTEX
  8
0
 10
-13.44592409
 20
0.21817809
  0
VERTEX
  8
0
 10
-13.50641323
 20
0.19808206
  0
VERTEX
  8
0
 10
-13.65739918
 20
0.10062563
  0
VERTEX
  8
0
 10
-13.85509358
 20
-0.06568128
  0
VERTEX
  8
0
 10
-13.70637837
 20
0.16559920
  0
VERTEX
  8
0
 10
-13.61562594
 20
0.38197888
  0
VERTEX
  8
0
 10
-13.59781987
 20
0.48373648
  0
VERTEX
  8
0
 10
-13.60150541
 20
0.58075555
  0
VERTEX
  8
0
 10
-13.62901620
 20
0.67269831
  0
VERTEX
  8
0
 10
-13.68268589
 20
0.75922699
  0
VERTEX
  8
0
 10
-13.71278071
 20
0.77381839
  0
VERTEX
  8
0
 10
-13.79501665
 20
0.79309775
  0
VERTEX
  8
0
 10
-13.91732088
 20
0.78032288
  0
VERTEX
  8
0
 10
-13.98972585
 20
0.75043315
  0
VERTEX
  8
0
 10
-14.06762060
 20
0.69875153
  0
VERTEX
  8
0
 10
-14.11764812
 20
0.60198870
  0
VERTEX
  8
0
 10
-14.13906619
 20
0.58926828
  0
VERTEX
  8
0
 10
-14.14711225
 20
0.65032827
  0
VERTEX
  8
0
 10
-14.14606995
 20
0.74256347
  0
VERTEX
  8
0
 10
-14.16812407
 20
0.81404027
  0
VERTEX
  8
0
 10
-14.20619869
 20
0.86736632
  0
VERTEX
  8
0
 10
-14.25321788
 20
0.90514928
  0
VERTEX
  8
0
 10
-14.34578626
 20
0.94451648
  0
VERTEX
  8
0
 10
-14.38922181
 20
0.95300306
  0
VERTEX
  8
0
 10
-14.48706661
 20
0.91259212
  0
VERTEX
  8
0
 10
-14.57612327
 20
0.85628116
  0
VERTEX
  8
0
 10
-14.65613874
 20
0.78457961
  0
VERTEX
  8
0
 10
-14.72685994
 20
0.69799692
  0
VERTEX
  8
0
 10
-14.78803383
 20
0.59704253
  0
VERTEX
  8
0
 10
-14.83940732
 20
0.48222587
  0
VERTEX
  8
0
 10
-14.91174089
 20
0.21304354
  0
VERTEX
  8
0
 10
-14.90889185
 20
0.45268344
  0
VERTEX
  8
0
 10
-14.93385498
 20
0.63076489
  0
VERTEX
  8
0
 10
-14.96125307
 20
0.69894270
  0
VERTEX
  8
0
 10
-15.00176489
 20
0.73971541
  0
VERTEX
  8
0
 10
-15.04636095
 20
0.74166842
  0
VERTEX
  8
0
 10
-15.09448951
 20
0.72641375
  0
VERTEX
  8
0
 10
-15.20676806
 20
0.65011330
  0
VERTEX
  8
0
 10
-15.53337815
 20
0.35517156
  0
VERTEX
  8
0
 10
-15.58934842
 20
0.13338644
  0
VERTEX
  8
0
 10
-15.60216248
 20
-0.06243304
  0
VERTEX
  8
0
 10
-15.58608485
 20
-0.25533933
  0
VERTEX
  8
0
 10
-15.65919493
 20
-0.09417750
  0
VERTEX
  8
0
 10
-15.70663436
 20
-0.04365358
  0
VERTEX
  8
0
 10
-15.76326765
 20
-0.01782109
  0
VERTEX
  8
0
 10
-15.83054797
 20
-0.02017010
  0
VERTEX
  8
0
 10
-15.90992853
 20
-0.05419069
  0
VERTEX
  8
0
 10
-16.00286252
 20
-0.12337295
  0
VERTEX
  8
0
 10
-16.11080312
 20
-0.23120694
  0
VERTEX
  8
0
 10
-16.15832721
 20
-0.28751282
  0
VERTEX
  8
0
 10
-16.25838455
 20
-0.43410020
  0
VERTEX
  8
0
 10
-16.30818433
 20
-0.53078213
  0
VERTEX
  8
0
 10
-16.34720278
 20
-0.63747368
  0
VERTEX
  8
0
 10
-16.36746836
 20
-0.74998790
  0
VERTEX
  8
0
 10
-16.36100952
 20
-0.86413788
  0
VERTEX
  8
0
 10
-16.26814015
 20
-0.97776945
  0
VERTEX
  8
0
 10
-16.25049817
 20
-1.02226247
  0
VERTEX
  8
0
 10
-16.25076172
 20
-1.05559068
  0
VERTEX
  8
0
 10
-16.26796360
 20
-1.07554184
  0
VERTEX
  8
0
 10
-16.30113659
 20
-1.07990373
  0
VERTEX
  8
0
 10
-16.41152712
 20
-1.03301078
  0
VERTEX
  8
0
 10
-16.48173905
 20
-1.05324093
  0
VERTEX
  8
0
 10
-16.54945903
 20
-1.09454895
  0
VERTEX
  8
0
 10
-16.66895371
 20
-1.21108668
  0
VERTEX
  8
0
 10
-16.78487605
 20
-1.37466548
  0
VERTEX
  8
0
 10
-16.84625186
 20
-1.63389046
  0
VERTEX
  8
0
 10
-16.84858866
 20
-1.73601481
  0
VERTEX
  8
0
 10
-16.83231384
 20
-1.81949381
  0
VERTEX
  8
0
 10
-16.79764427
 20
-1.88408752
  0
VERTEX
  8
0
 10
-16.74479678
 20
-1.92955600
  0
VERTEX
  8
0
 10
-16.67398823
 20
-1.95565929
  0
VERTEX
  8
0
 10
-16.58543546
 20
-1.96215747
  0
VERTEX
  8
0
 10
-16.73579018
 20
-2.00322846
  0
VERTEX
  8
0
 10
-16.88269879
 20
-2.06144781
  0
VERTEX
  8
0
 10
-17.04095286
 20
-2.15090581
  0
VERTEX
  8
0
 10
-17.09158482
 20
-2.25712767
  0
VERTEX
  8
0
 10
-17.13084454
 20
-2.37789915
  0
VERTEX
  8
0
 10
-17.17728183
 20
-2.63107812
  0
VERTEX
  8
0
 10
-17.18433376
 20
-2.84641700
  0
VERTEX
  8
0
 10
-17.17436180
 20
-2.91988838
  0
VERTEX
  8
0
 10
-17.15606940
 20
-2.95989010
  0
VERTEX
  8
0
 10
-17.09298069
 20
-2.98052480
  0
VERTEX
  8
0
 10
-17.02206541
 20
-2.98114524
  0
VERTEX
  8
0
 10
-16.87677506
 20
-2.94362646
  0
VERTEX
  8
0
 10
-16.71249490
 20
-2.86253198
  0
VERTEX
  8
0
 10
-16.89375359
 20
-3.02209981
  0
VERTEX
  8
0
 10
-16.96865527
 20
-3.10983642
  0
VERTEX
  8
0
 10
-17.03082366
 20
-3.20449683
  0
VERTEX
  8
0
 10
-17.07857266
 20
-3.30729755
  0
VERTEX
  8
0
 10
-17.11021613
 20
-3.41945507
  0
VERTEX
  8
0
 10
-17.12406795
 20
-3.54218591
  0
VERTEX
  8
0
 10
-17.11844200
 20
-3.67670656
  0
VERTEX
  8
0
 10
-17.09776529
 20
-3.71454001
  0
VERTEX
  8
0
 10
-17.03700027
 20
-3.79425448
  0
VERTEX
  8
0
 10
-16.93804461
 20
-3.86517110
  0
VERTEX
  8
0
 10
-16.87483830
 20
-3.88149309
  0
VERTEX
  8
0
 10
-16.80279596
 20
-3.87661104
  0
VERTEX
  8
0
 10
-16.73786747
 20
-3.82968627
  0
VERTEX
  8
0
 10
-15.88389734
 20
-4.13480784
  0
VERTEX
  8
0
 10
-15.01040152
 20
-3.90113315
  0
SEQEND
  0
POLYLINE
  8
pobeda_orden_002
 66
   1
 39
0.000000
 70
    1
  0
VERTEX
  8
0
 10
-18.80981642
 20
-4.83205557
  0
VERTEX
  8
0
 10
-19.07305996
 20
-4.99550935
  0
VERTEX
  8
0
 10
-19.34623976
 20
-4.84927543
  0
VERTEX
  8
0
 10
-19.61941956
 20
-4.70304151
  0
VERTEX
  8
0
 10
-19.62935582
 20
-4.39333133
  0
VERTEX
  8
0
 10
-19.63929209
 20
-4.08362114
  0
VERTEX
  8
0
 10
-19.37607103
 20
-3.92016736
  0
VERTEX
  8
0
 10
-19.11282749
 20
-3.75671358
  0
VERTEX
  8
0
 10
-18.83964769
 20
-3.90294750
  0
VERTEX
  8
0
 10
-18.56646789
 20
-4.04920391
  0
VERTEX
  8
0
 10
-18.55653163
 20
-4.35889161
  0
VERTEX
  8
0
 10
-18.54657288
 20
-4.66860179
  0
VERTEX
  8
0
 10
-18.80981642
 20
-4.83205557
  0
SEQEND
  0
POLYLINE
  8
pobeda_orden_002
 66
   1
 39
0.000000
 70
    1
  0
VERTEX
  8
0
 10
-17.89753011
 20
-6.38577370
  0
VERTEX
  8
0
 10
-17.88798455
 20
-6.08803144
  0
VERTEX
  8
0
 10
-17.90098942
 20
-5.93911652
  0
VERTEX
  8
0
 10
-17.92109707
 20
-5.87294707
  0
VERTEX
  8
0
 10
-17.95376471
 20
-5.81546445
  0
VERTEX
  8
0
 10
-17.80258851
 20
-5.89270855
  0
VERTEX
  8
0
 10
-17.66337133
 20
-5.95364676
  0
VERTEX
  8
0
 10
-17.52595969
 20
-5.99780293
  0
VERTEX
  8
0
 10
-17.43697323
 20
-5.87870113
  0
VERTEX
  8
0
 10
-17.37892460
 20
-5.70682101
  0
VERTEX
  8
0
 10
-17.36692505
 20
-5.59966444
  0
VERTEX
  8
0
 10
-17.36916764
 20
-5.47760372
  0
VERTEX
  8
0
 10
-17.38782160
 20
-5.34006900
  0
VERTEX
  8
0
 10
-17.42505616
 20
-5.18649042
  0
VERTEX
  8
0
 10
-17.46914021
 20
-5.09762996
  0
VERTEX
  8
0
 10
-17.52117094
 20
-5.02504926
  0
VERTEX
  8
0
 10
-17.63202848
 20
-4.92326338
  0
VERTEX
  8
0
 10
-17.72354083
 20
-4.87020533
  0
VERTEX
  8
0
 10
-17.76162004
 20
-4.85494763
  0
VERTEX
  8
0
 10
-17.68308858
 20
-4.85769874
  0
VERTEX
  8
0
 10
-17.61094144
 20
-4.84553135
  0
VERTEX
  8
0
 10
-17.54628436
 20
-4.81526668
  0
VERTEX
  8
0
 10
-17.49022309
 20
-4.76372596
  0
VERTEX
  8
0
 10
-17.44386339
 20
-4.68773042
  0
VERTEX
  8
0
 10
-17.40831101
 20
-4.58410126
  0
VERTEX
  8
0
 10
-17.38467169
 20
-4.44965972
  0
VERTEX
  8
0
 10
-17.37405118
 20
-4.28122703
  0
VERTEX
  8
0
 10
-17.40548836
 20
-4.09196232
  0
VERTEX
  8
0
 10
-17.45975495
 20
-3.93028813
  0
VERTEX
  8
0
 10
-17.50089153
 20
-3.85453836
  0
VERTEX
  8
0
 10
-17.55302698
 20
-3.79050310
  0
VERTEX
  8
0
 10
-17.61927724
 20
-3.81196857
  0
VERTEX
  8
0
 10
-17.68322163
 20
-3.81151555
  0
VERTEX
  8
0
 10
-17.69916432
 20
-3.79882974
  0
VERTEX
  8
0
 10
-17.69633279
 20
-3.77557648
  0
VERTEX
  8
0
 10
-17.61008337
 20
-3.69058380
  0
VERTEX
  8
0
 10
-17.57437898
 20
-3.59892045
  0
VERTEX
  8
0
 10
-17.55627996
 20
-3.49339405
  0
VERTEX
  8
0
 10
-17.55706201
 20
-3.27291152
  0
VERTEX
  8
0
 10
-17.59569414
 20
-3.01934303
  0
VERTEX
  8
0
 10
-17.68028303
 20
-2.82093233
  0
VERTEX
  8
0
 10
-17.71236012
 20
-2.75664479
  0
VERTEX
  8
0
 10
-17.74562577
 20
-2.71696241
  0
VERTEX
  8
0
 10
-17.78608011
 20
-2.70288016
  0
VERTEX
  8
0
 10
-17.83972324
 20
-2.71539303
  0
VERTEX
  8
0
 10
-18.01057629
 20
-2.82418399
  0
VERTEX
  8
0
 10
-17.97228363
 20
-2.71572473
  0
VERTEX
  8
0
 10
-17.88934426
 20
-2.38717213
  0
VERTEX
  8
0
 10
-17.93542675
 20
-2.24130711
  0
VERTEX
  8
0
 10
-18.01629821
 20
-2.11639014
  0
VERTEX
  8
0
 10
-18.13052516
 20
-2.02804850
  0
VERTEX
  8
0
 10
-18.19969898
 20
-2.00247695
  0
VERTEX
  8
0
 10
-18.27667411
 20
-1.99190945
  0
VERTEX
  8
0
 10
-18.31735354
 20
-1.99942408
  0
VERTEX
  8
0
 10
-18.36270578
 20
-2.04421204
  0
VERTEX
  8
0
 10
-18.45498067
 20
-2.19841923
  0
VERTEX
  8
0
 10
-18.55867585
 20
-2.43503785
  0
VERTEX
  8
0
 10
-18.52765449
 20
-2.16182630
  0
VERTEX
  8
0
 10
-18.54201870
 20
-1.92762588
  0
VERTEX
  8
0
 10
-18.57107856
 20
-1.82849370
  0
VERTEX
  8
0
 10
-18.61731462
 20
-1.74312093
  0
VERTEX
  8
0
 10
-18.68267014
 20
-1.67284311
  0
VERTEX
  8
0
 10
-18.76908840
 20
-1.61899580
  0
VERTEX
  8
0
 10
-18.80253318
 20
-1.61922767
  0
VERTEX
  8
0
 10
-18.88481089
 20
-1.63832799
  0
VERTEX
  8
0
 10
-18.98883655
 20
-1.70390377
  0
VERTEX
  8
0
 10
-19.04054082
 20
-1.76274717
  0
VERTEX
  8
0
 10
-19.08752522
 20
-1.84356207
  0
VERTEX
  8
0
 10
-19.08957071
 20
-1.95247310
  0
VERTEX
  8
0
 10
-19.10314896
 20
-1.97335787
  0
VERTEX
  8
0
 10
-19.13738349
 20
-1.92216160
  0
VERTEX
  8
0
 10
-19.17726291
 20
-1.83898678
  0
VERTEX
  8
0
 10
-19.22866886
 20
-1.78464762
  0
VERTEX
  8
0
 10
-19.28640978
 20
-1.75367454
  0
VERTEX
  8
0
 10
-19.34529407
 20
-1.74059800
  0
VERTEX
  8
0
 10
-19.44572646
 20
-1.74625629
  0
VERTEX
  8
0
 10
-19.48843340
 20
-1.75786604
  0
VERTEX
  8
0
 10
-19.55829565
 20
-1.83740166
  0
VERTEX
  8
0
 10
-19.61324121
 20
-1.92730716
  0
VERTEX
  8
0
 10
-19.65326857
 20
-2.02701372
  0
VERTEX
  8
0
 10
-19.67837623
 20
-2.13595249
  0
VERTEX
  8
0
 10
-19.68856266
 20
-2.25355466
  0
VERTEX
  8
0
 10
-19.68382636
 20
-2.37925139
  0
VERTEX
  8
0
 10
-19.62957949
 20
-2.65265321
  0
VERTEX
  8
0
 10
-19.73306534
 20
-2.43649105
  0
VERTEX
  8
0
 10
-19.83425260
 20
-2.28783945
  0
VERTEX
  8
0
 10
-19.88899105
 20
-2.23882342
  0
VERTEX
  8
0
 10
-19.94336272
 20
-2.22018625
  0
VERTEX
  8
0
 10
-19.98421925
 20
-2.23816862
  0
VERTEX
  8
0
 10
-20.02062922
 20
-2.27314544
  0
VERTEX
  8
0
 10
-20.08755408
 20
-2.39125258
  0
VERTEX
  8
0
 10
-20.24993579
 20
-2.80027208
  0
VERTEX
  8
0
 10
-20.20198813
 20
-3.02392882
  0
VERTEX
  8
0
 10
-20.12682916
 20
-3.20520374
  0
VERTEX
  8
0
 10
-20.02705013
 20
-3.37108162
  0
VERTEX
  8
0
 10
-20.16392711
 20
-3.25890805
  0
VERTEX
  8
0
 10
-20.22882615
 20
-3.23459177
  0
VERTEX
  8
0
 10
-20.29104397
 20
-3.23648626
  0
VERTEX
  8
0
 10
-20.35033940
 20
-3.26836436
  0
VERTEX
  8
0
 10
-20.40647124
 20
-3.33399889
  0
VERTEX
  8
0
 10
-20.45919830
 20
-3.43716267
  0
VERTEX
  8
0
 10
-20.50827941
 20
-3.58162854
  0
VERTEX
  8
0
 10
-20.52598213
 20
-3.65315130
  0
VERTEX
  8
0
 10
-20.55084540
 20
-3.82888162
  0
VERTEX
  8
0
 10
-20.55272246
 20
-3.93761934
  0
VERTEX
  8
0
 10
-20.54050191
 20
-4.05056262
  0
VERTEX
  8
0
 10
-20.50888784
 20
-4.16042933
  0
VERTEX
  8
0
 10
-20.45258434
 20
-4.25993737
  0
VERTEX
  8
0
 10
-20.31902001
 20
-4.32074382
  0
VERTEX
  8
0
 10
-20.28351106
 20
-4.35283717
  0
VERTEX
  8
0
 10
-20.26899966
 20
-4.38284146
  0
VERTEX
  8
0
 10
-20.27559736
 20
-4.40834487
  0
VERTEX
  8
0
 10
-20.30341571
 20
-4.42693554
  0
VERTEX
  8
0
 10
-20.42316058
 20
-4.43373129
  0
VERTEX
  8
0
 10
-20.47717257
 20
-4.48294186
  0
VERTEX
  8
0
 10
-20.51962288
 20
-4.54995171
  0
VERTEX
  8
0
 10
-20.57521391
 20
-4.70733550
  0
VERTEX
  8
0
 10
-20.60678569
 20
-4.90532346
  0
VERTEX
  8
0
 10
-20.54711840
 20
-5.16494703
  0
VERTEX
  8
0
 10
-20.50402389
 20
-5.25756294
  0
VERTEX
  8
0
 10
-20.45248966
 20
-5.32522265
  0
VERTEX
  8
0
 10
-20.39281634
 20
-5.36780694
  0
VERTEX
  8
0
 10
-20.32530457
 20
-5.38519658
  0
VERTEX
  8
0
 10
-20.25025498
 20
-5.37727237
  0
VERTEX
  8
0
 10
-20.16796822
 20
-5.34391509
  0
VERTEX
  8
0
 10
-20.28462763
 20
-5.44727829
  0
VERTEX
  8
0
 10
-20.39060853
 20
-5.56449468
  0
VERTEX
  8
0
 10
-20.49294054
 20
-5.71474527
  0
VERTEX
  8
0
 10
-20.49134245
 20
-5.83240634
  0
VERTEX
  8
0
 10
-20.47310789
 20
-5.95808282
  0
VERTEX
  8
0
 10
-20.40271956
 20
-6.20567420
  0
VERTEX
  8
0
 10
-20.31375596
 20
-6.40190376
  0
VERTEX
  8
0
 10
-20.27230230
 20
-6.46337797
  0
VERTEX
  8
0
 10
-20.23819748
 20
-6.49115584
  0
VERTEX
  8
0
 10
-20.17249066
 20
-6.48174360
  0
VERTEX
  8
0
 10
-20.10862154
 20
-6.45091995
  0
VERTEX
  8
0
 10
-19.99493184
 20
-6.35298325
  0
VERTEX
  8
0
 10
-19.88349495
 20
-6.20756624
  0
VERTEX
  8
0
 10
-19.97543316
 20
-6.43086867
  0
VERTEX
  8
0
 10
-20.00377911
 20
-6.54269211
  0
VERTEX
  8
0
 10
-20.01764248
 20
-6.65509010
  0
VERTEX
  8
0
 10
-20.01497290
 20
-6.76840748
  0
VERTEX
  8
0
 10
-19.99372000
 20
-6.88298903
  0
VERTEX
  8
0
 10
-19.95183342
 20
-6.99917959
  0
VERTEX
  8
0
 10
-19.88726280
 20
-7.11732396
  0
VERTEX
  8
0
 10
-19.85197926
 20
-7.14210234
  0
VERTEX
  8
0
 10
-19.76221343
 20
-7.18669920
  0
VERTEX
  8
0
 10
-19.64209249
 20
-7.20650705
  0
VERTEX
  8
0
 10
-19.57818860
 20
-7.19317527
  0
VERTEX
  8
0
 10
-19.51574362
 20
-7.15691844
  0
VERTEX
  8
0
 10
-19.47828205
 20
-7.08610690
  0
VERTEX
  8
0
 10
-18.57745229
 20
-6.98184806
  0
VERTEX
  8
0
 10
-17.89753011
 20
-6.38577370
  0
SEQEND
  0
POLYLINE
  8
pobeda_orden_002
 66
   1
 39
0.000000
 70
    1
  0
VERTEX
  8
0
 10
-13.82648770
 20
-8.61266646
  0
VERTEX
  8
0
 10
-13.88589139
 20
-8.32075419
  0
VERTEX
  8
0
 10
-13.93290138
 20
-8.17885691
  0
VERTEX
  8
0
 10
-13.96773246
 20
-8.11911153
  0
VERTEX
  8
0
 10
-14.01278056
 20
-8.07071633
  0
VERTEX
  8
0
 10
-13.84786177
 20
-8.11099894
  0
VERTEX
  8
0
 10
-13.69834130
 20
-8.13817460
  0
VERTEX
  8
0
 10
-13.55444943
 20
-8.14943750
  0
VERTEX
  8
0
 10
-13.49534138
 20
-8.01301877
  0
VERTEX
  8
0
 10
-13.47851298
 20
-7.83238316
  0
VERTEX
  8
0
 10
-13.49155910
 20
-7.72534897
  0
VERTEX
  8
0
 10
-13.52190166
 20
-7.60709848
  0
VERTEX
  8
0
 10
-13.57178285
 20
-7.47757769
  0
VERTEX
  8
0
 10
-13.64344484
 20
-7.33673256
  0
VERTEX
  8
0
 10
-13.70684051
 20
-7.26043987
  0
VERTEX
  8
0
 10
-13.77421260
 20
-7.20182113
  0
VERTEX
  8
0
 10
-13.90556241
 20
-7.12835695
  0
VERTEX
  8
0
 10
-14.00684697
 20
-7.09784294
  0
VERTEX
  8
0
 10
-14.04741900
 20
-7.09178206
  0
VERTEX
  8
0
 10
-13.97037139
 20
-7.07634106
  0
VERTEX
  8
0
 10
-13.90297769
 20
-7.04785694
  0
VERTEX
  8
0
 10
-13.84704719
 20
-7.00349177
  0
VERTEX
  8
0
 10
-13.80438919
 20
-6.94040765
  0
VERTEX
  8
0
 10
-13.77681298
 20
-6.85576666
  0
VERTEX
  8
0
 10
-13.76612785
 20
-6.74673088
  0
VERTEX
  8
0
 10
-13.77414308
 20
-6.61046239
  0
VERTEX
  8
0
 10
-13.80266798
 20
-6.44412328
  0
VERTEX
  8
0
 10
-13.87692209
 20
-6.26721723
  0
VERTEX
  8
0
 10
-13.96702436
 20
-6.12242432
  0
VERTEX
  8
0
 10
-14.02452733
 20
-6.05820863
  0
VERTEX
  8
0
 10
-14.09002980
 20
-6.00792896
  0
VERTEX
  8
0
 10
-14.14954055
 20
-6.04409986
  0
VERTEX
  8
0
 10
-14.21186442
 20
-6.05841159
  0
VERTEX
  8
0
 10
-14.23030375
 20
-6.04974613
  0
VERTEX
  8
0
 10
-14.23291334
 20
-6.02646692
  0
VERTEX
  8
0
 10
-14.16859923
 20
-5.92386860
  0
VERTEX
  8
0
 10
-14.15500558
 20
-5.82644075
  0
VERTEX
  8
0
 10
-14.16174068
 20
-5.71958555
  0
VERTEX
  8
0
 10
-14.21336886
 20
-5.50523144
  0
VERTEX
  8
0
 10
-14.30945927
 20
-5.26741626
  0
VERTEX
  8
0
 10
-14.43754127
 20
-5.09387351
  0
VERTEX
  8
0
 10
-14.48358471
 20
-5.03872073
  0
VERTEX
  8
0
 10
-14.52510802
 20
-5.00778354
  0
VERTEX
  8
0
 10
-14.56771991
 20
-5.00341436
  0
VERTEX
  8
0
 10
-14.61702907
 20
-5.02796560
  0
VERTEX
  8
0
 10
-14.75817398
 20
-5.17323898
  0
VERTEX
  8
0
 10
-14.74593684
 20
-5.05887120
  0
VERTEX
  8
0
 10
-14.74103488
 20
-4.72004717
  0
VERTEX
  8
0
 10
-14.81952653
 20
-4.58874880
  0
VERTEX
  8
0
 10
-14.92703574
 20
-4.48585948
  0
VERTEX
  8
0
 10
-15.05856236
 20
-4.42625420
  0
VERTEX
  8
0
 10
-15.13176965
 20
-4.41733149
  0
VERTEX
  8
0
 10
-15.20910622
 20
-4.42480791
  0
VERTEX
  8
0
 10
-15.24695455
 20
-4.44150492
  0
VERTEX
  8
0
 10
-15.28075035
 20
-4.49554778
  0
VERTEX
  8
0
 10
-15.33495898
 20
-4.66688352
  0
VERTEX
  8
0
 10
-15.38126678
 20
-4.92104223
  0
VERTEX
  8
0
 10
-15.41411457
 20
-4.64804425
  0
VERTEX
  8
0
 10
-15.48212336
 20
-4.42347583
  0
VERTEX
  8
0
 10
-15.53326992
 20
-4.33372232
  0
VERTEX
  8
0
 10
-15.59795491
 20
-4.26131972
  0
VERTEX
  8
0
 10
-15.67776103
 20
-4.20801589
  0
VERTEX
  8
0
 10
-15.77427101
 20
-4.17555867
  0
VERTEX
  8
0
 10
-15.80676005
 20
-4.18350029
  0
VERTEX
  8
0
 10
-15.88241153
 20
-4.22106751
  0
VERTEX
  8
0
 10
-15.96850198
 20
-4.30887388
  0
VERTEX
  8
0
 10
-16.00523573
 20
-4.37805847
  0
VERTEX
  8
0
 10
-16.03230792
 20
-4.46753292
  0
VERTEX
  8
0
 10
-16.00917151
 20
-4.57397777
  0
VERTEX
  8
0
 10
-16.01756516
 20
-4.59743175
  0
VERTEX
  8
0
 10
-16.06268757
 20
-4.55551481
  0
VERTEX
  8
0
 10
-16.12068031
 20
-4.48378434
  0
VERTEX
  8
0
 10
-16.18323599
 20
-4.44277089
  0
VERTEX
  8
0
 10
-16.24656498
 20
-4.42595471
  0
VERTEX
  8
0
 10
-16.30687761
 20
-4.42681605
  0
VERTEX
  8
0
 10
-16.40329521
 20
-4.45549233
  0
VERTEX
  8
0
 10
-16.44217157
 20
-4.47664175
  0
VERTEX
  8
0
 10
-16.49179957
 20
-4.57014955
  0
VERTEX
  8
0
 10
-16.52452088
 20
-4.67030608
  0
VERTEX
  8
0
 10
-16.54046525
 20
-4.77655749
  0
VERTEX
  8
0
 10
-16.53976245
 20
-4.88834997
  0
VERTEX
  8
0
 10
-16.52254224
 20
-5.00512967
  0
VERTEX
  8
0
 10
-16.48893437
 20
-5.12634275
  0
VERTEX
  8
0
 10
-16.37307476
 20
-5.37985374
  0
VERTEX
  8
0
 10
-16.52363934
 20
-5.19339811
  0
VERTEX
  8
0
 10
-16.65639208
 20
-5.07210148
  0
VERTEX
  8
0
 10
-16.72096227
 20
-5.03703640
  0
VERTEX
  8
0
 10
-16.77816690
 20
-5.03144603
  0
VERTEX
  8
0
 10
-16.81377255
 20
-5.05836925
  0
VERTEX
  8
0
 10
-16.84113083
 20
-5.10080259
  0
VERTEX
  8
0
 10
-16.87900190
 20
-5.23116368
  0
VERTEX
  8
0
 10
-16.94263865
 20
-5.66661188
  0
VERTEX
  8
0
 10
-16.84438493
 20
-5.87317306
  0
VERTEX
  8
0
 10
-16.72943183
 20
-6.03221787
  0
VERTEX
  8
0
 10
-16.59407508
 20
-6.17060095
  0
VERTEX
  8
0
 10
-16.75313893
 20
-6.09303222
  0
VERTEX
  8
0
 10
-16.82189715
 20
-6.08434469
  0
VERTEX
  8
0
 10
-16.88199944
 20
-6.10054227
  0
VERTEX
  8
0
 10
-16.93234069
 20
-6.14524036
  0
VERTEX
  8
0
 10
-16.97181580
 20
-6.22205436
  0
VERTEX
  8
0
 10
-16.99931966
 20
-6.33459967
  0
VERTEX
  8
0
 10
-17.01374717
 20
-6.48649171
  0
VERTEX
  8
0
 10
-17.01447139
 20
-6.56016916
  0
VERTEX
  8
0
 10
-16.99812141
 20
-6.73689495
  0
VERTEX
  8
0
 10
-16.97486109
 20
-6.84313230
  0
VERTEX
  8
0
 10
-16.93691322
 20
-6.95020930
  0
VERTEX
  8
0
 10
-16.88080480
 20
-7.04981848
  0
VERTEX
  8
0
 10
-16.80306283
 20
-7.13365237
  0
VERTEX
  8
0
 10
-16.65907311
 20
-7.16200398
  0
VERTEX
  8
0
 10
-16.61711788
 20
-7.18503932
  0
VERTEX
  8
0
 10
-16.59607570
 20
-7.21088628
  0
VERTEX
  8
0
 10
-16.59661155
 20
-7.23722382
  0
VERTEX
  8
0
 10
-16.61939042
 20
-7.26173091
  0
VERTEX
  8
0
 10
-16.73433708
 20
-7.29596951
  0
VERTEX
  8
0
 10
-16.77553866
 20
-7.35631356
  0
VERTEX
  8
0
 10
-16.80138403
 20
-7.43130932
  0
VERTEX
  8
0
 10
-16.81916557
 20
-7.59727269
  0
VERTEX
  8
0
 10
-16.80420809
 20
-7.79720339
  0
VERTEX
  8
0
 10
-16.68625303
 20
-8.03605729
  0
VERTEX
  8
0
 10
-16.62295379
 20
-8.11623241
  0
VERTEX
  8
0
 10
-16.55720012
 20
-8.17017746
  0
VERTEX
  8
0
 10
-16.48931204
 20
-8.19784579
  0
VERTEX
  8
0
 10
-16.41960960
 20
-8.19919076
  0
VERTEX
  8
0
 10
-16.34841283
 20
-8.17416573
  0
VERTEX
  8
0
 10
-16.27604174
 20
-8.12272406
  0
VERTEX
  8
0
 10
-16.36570723
 20
-8.25021315
  0
VERTEX
  8
0
 10
-16.44178622
 20
-8.38871809
  0
VERTEX
  8
0
 10
-16.50669349
 20
-8.55852424
  0
VERTEX
  8
0
 10
-16.47799308
 20
-8.67264246
  0
VERTEX
  8
0
 10
-16.43125578
 20
-8.79072167
  0
VERTEX
  8
0
 10
-16.30564483
 20
-9.01539455
  0
VERTEX
  8
0
 10
-16.17380934
 20
-9.18580572
  0
VERTEX
  8
0
 10
-16.11929135
 20
-9.23605781
  0
VERTEX
  8
0
 10
-16.07969799
 20
-9.25521804
  0
VERTEX
  8
0
 10
-16.01793524
 20
-9.23090058
  0
VERTEX
  8
0
 10
-15.96290040
 20
-9.18617330
  0
VERTEX
  8
0
 10
-15.87487258
 20
-9.06464945
  0
VERTEX
  8
0
 10
-15.79999091
 20
-8.89744591
  0
VERTEX
  8
0
 10
-15.83793107
 20
-9.13593522
  0
VERTEX
  8
0
 10
-15.83971369
 20
-9.25128164
  0
VERTEX
  8
0
 10
-15.82727187
 20
-9.36384586
  0
VERTEX
  8
0
 10
-15.79853100
 20
-9.47349036
  0
VERTEX
  8
0
 10
-15.75141648
 20
-9.58007761
  0
VERTEX
  8
0
 10
-15.68385371
 20
-9.68347008
  0
VERTEX
  8
0
 10
-15.59376808
 20
-9.78353024
  0
VERTEX
  8
0
 10
-15.55371980
 20
-9.79949996
  0
VERTEX
  8
0
 10
-15.45608672
 20
-9.82218396
  0
VERTEX
  8
0
 10
-15.33463645
 20
-9.81374451
  0
VERTEX
  8
0
 10
-15.27553226
 20
-9.78602920
  0
VERTEX
  8
0
 10
-15.22313664
 20
-9.73634387
  0
VERTEX
  8
0
 10
-15.20302251
 20
-9.65879991
  0
VERTEX
  8
0
 10
-14.35054797
 20
-9.34952441
  0
VERTEX
  8
0
 10
-13.82648770
 20
-8.61266646
  0
SEQEND
  0
POLYLINE
  8
pobeda_orden_002
 66
   1
 39
0.000000
 70
    1
  0
VERTEX
  8
0
 10
-14.99397551
 20
-7.51509450
  0
VERTEX
  8
0
 10
-15.25721905
 20
-7.67854828
  0
VERTEX
  8
0
 10
-15.53039885
 20
-7.53231436
  0
VERTEX
  8
0
 10
-15.80357865
 20
-7.38608044
  0
VERTEX
  8
0
 10
-15.81351492
 20
-7.07637025
  0
VERTEX
  8
0
 10
-15.82345118
 20
-6.76666007
  0
VERTEX
  8
0
 10
-15.56023012
 20
-6.60320629
  0
VERTEX
  8
0
 10
-15.29698658
 20
-6.43975251
  0
VERTEX
  8
0
 10
-15.02380678
 20
-6.58598643
  0
VERTEX
  8
0
 10
-14.75062698
 20
-6.73224284
  0
VERTEX
  8
0
 10
-14.74069072
 20
-7.04193054
  0
VERTEX
  8
0
 10
-14.73073197
 20
-7.35164072
  0
VERTEX
  8
0
 10
-14.99397551
 20
-7.51509450
  0
SEQEND
  0
POLYLINE
  8
pobeda_orden_002
 66
   1
 39
0.000000
 70
    1
  0
VERTEX
  8
0
 10
-17.78825119
 20
-10.30214531
  0
VERTEX
  8
0
 10
-18.04910102
 20
-10.46559909
  0
VERTEX
  8
0
 10
-18.31979675
 20
-10.31934269
  0
VERTEX
  8
0
 10
-18.59049249
 20
-10.17310877
  0
VERTEX
  8
0
 10
-18.60033840
 20
-9.86339859
  0
VERTEX
  8
0
 10
-18.61018431
 20
-9.55368841
  0
VERTEX
  8
0
 10
-18.34935676
 20
-9.39023463
  0
VERTEX
  8
0
 10
-18.08850694
 20
-9.22678085
  0
VERTEX
  8
0
 10
-17.81781120
 20
-9.37301477
  0
VERTEX
  8
0
 10
-17.54711547
 20
-9.51929365
  0
VERTEX
  8
0
 10
-17.53726956
 20
-9.82895887
  0
VERTEX
  8
0
 10
-17.52740137
 20
-10.13866905
  0
VERTEX
  8
0
 10
-17.78825119
 20
-10.30214531
  0
SEQEND
  0
POLYLINE
  8
pobeda_orden_002
 66
   1
 39
0.000000
 70
    1
  0
VERTEX
  8
0
 10
-16.47668914
 20
-11.39688178
  0
VERTEX
  8
0
 10
-16.56645967
 20
-11.11283456
  0
VERTEX
  8
0
 10
-16.62813032
 20
-10.97666735
  0
VERTEX
  8
0
 10
-16.66905085
 20
-10.92091589
  0
VERTEX
  8
0
 10
-16.71893821
 20
-10.87752607
  0
VERTEX
  8
0
 10
-16.55069783
 20
-10.90024322
  0
VERTEX
  8
0
 10
-16.39914866
 20
-10.91154530
  0
VERTEX
  8
0
 10
-16.25487020
 20
-10.90761472
  0
VERTEX
  8
0
 10
-16.21043505
 20
-10.76573679
  0
VERTEX
  8
0
 10
-16.21269479
 20
-10.58433306
  0
VERTEX
  8
0
 10
-16.23692381
 20
-10.47926416
  0
VERTEX
  8
0
 10
-16.27953284
 20
-10.36485997
  0
VERTEX
  8
0
 10
-16.34275731
 20
-10.24130255
  0
VERTEX
  8
0
 10
-16.42883264
 20
-10.10877395
  0
VERTEX
  8
0
 10
-16.49989943
 20
-10.03957066
  0
VERTEX
  8
0
 10
-16.57306208
 20
-9.98836146
  0
VERTEX
  8
0
 10
-16.71140882
 20
-9.92911674
  0
VERTEX
  8
0
 10
-16.81534056
 20
-9.90942254
  0
VERTEX
  8
0
 10
-16.85632499
 20
-9.90766164
  0
VERTEX
  8
0
 10
-16.78132825
 20
-9.88420427
  0
VERTEX
  8
0
 10
-16.71730346
 20
-9.84879124
  0
VERTEX
  8
0
 10
-16.66634830
 20
-9.79879064
  0
VERTEX
  8
0
 10
-16.63056045
 20
-9.73157055
  0
VERTEX
  8
0
 10
-16.61203760
 20
-9.64449903
  0
VERTEX
  8
0
 10
-16.61287742
 20
-9.53494417
  0
VERTEX
  8
0
 10
-16.63517761
 20
-9.40027403
  0
VERTEX
  8
0
 10
-16.68103583
 20
-9.23785669
  0
VERTEX
  8
0
 10
-16.77348092
 20
-9.06973968
  0
VERTEX
  8
0
 10
-16.87830942
 20
-8.93522429
  0
VERTEX
  8
0
 10
-16.94224621
 20
-8.87741138
  0
VERTEX
  8
0
 10
-17.01267271
 20
-8.83429842
  0
VERTEX
  8
0
 10
-17.06804995
 20
-8.87652666
  0
VERTEX
  8
0
 10
-17.12852333
 20
-8.89731275
  0
VERTEX
  8
0
 10
-17.14777165
 20
-8.89063433
  0
VERTEX
  8
0
 10
-17.15281470
 20
-8.86775859
  0
VERTEX
  8
0
 10
-17.09964595
 20
-8.75896612
  0
VERTEX
  8
0
 10
-17.09637275
 20
-8.66064898
  0
VERTEX
  8
0
 10
-17.11430692
 20
-8.55509445
  0
VERTEX
  8
0
 10
-17.18818940
 20
-8.34735774
  0
VERTEX
  8
0
 10
-17.30875464
 20
-8.12096551
  0
VERTEX
  8
0
 10
-17.45437551
 20
-7.96185345
  0
VERTEX
  8
0
 10
-17.50596329
 20
-7.91184816
  0
VERTEX
  8
0
 10
-17.55050961
 20
-7.88544891
  0
VERTEX
  8
0
 10
-17.59334470
 20
-7.88558483
  0
VERTEX
  8
0
 10
-17.63979878
 20
-7.91518508
  0
VERTEX
  8
0
 10
-17.76488485
 20
-8.07449520
  0
VERTEX
  8
0
 10
-17.76474196
 20
-7.95947470
  0
VERTEX
  8
0
 10
-17.79549641
 20
-7.62201371
  0
VERTEX
  8
0
 10
-17.88735963
 20
-7.49969712
  0
VERTEX
  8
0
 10
-18.00509217
 20
-7.40868344
  0
VERTEX
  8
0
 10
-18.14215741
 20
-7.36323937
  0
VERTEX
  8
0
 10
-18.21589709
 20
-7.36206429
  0
VERTEX
  8
0
 10
-18.29201871
 20
-7.37763163
  0
VERTEX
  8
0
 10
-18.32790141
 20
-7.39821602
  0
VERTEX
  8
0
 10
-18.35582693
 20
-7.45551308
  0
VERTEX
  8
0
 10
-18.39171811
 20
-7.63159924
  0
VERTEX
  8
0
 10
-18.41104297
 20
-7.88921836
  0
VERTEX
  8
0
 10
-18.47241591
 20
-7.62118806
  0
VERTEX
  8
0
 10
-18.56366225
 20
-7.40501620
  0
VERTEX
  8
0
 10
-18.62396333
 20
-7.32113865
  0
VERTEX
  8
0
 10
-18.69590322
 20
-7.25593945
  0
VERTEX
  8
0
 10
-18.78087208
 20
-7.21132321
  0
VERTEX
  8
0
 10
-18.88026004
 20
-7.18919449
  0
VERTEX
  8
0
 10
-18.91173385
 20
-7.20050849
  0
VERTEX
  8
0
 10
-18.98301550
 20
-7.24582260
  0
VERTEX
  8
0
 10
-19.05939532
 20
-7.34219504
  0
VERTEX
  8
0
 10
-19.08865027
 20
-7.41485882
  0
VERTEX
  8
0
 10
-19.10616363
 20
-7.50668400
  0
VERTEX
  8
0
 10
-19.07196222
 20
-7.61010576
  0
VERTEX
  8
0
 10
-19.07784302
 20
-7.63431235
  0
VERTEX
  8
0
 10
-19.12712306
 20
-7.59737268
  0
VERTEX
  8
0
 10
-19.19233713
 20
-7.53213816
  0
VERTEX
  8
0
 10
-19.25885879
 20
-7.49793017
  0
VERTEX
  8
0
 10
-19.32360498
 20
-7.48786662
  0
VERTEX
  8
0
 10
-19.38349265
 20
-7.49506539
  0
VERTEX
  8
0
 10
-19.47636022
 20
-7.53372153
  0
VERTEX
  8
0
 10
-19.51279706
 20
-7.55884175
  0
VERTEX
  8
0
 10
-19.55231705
 20
-7.65704979
  0
VERTEX
  8
0
 10
-19.57432493
 20
-7.76009185
  0
VERTEX
  8
0
 10
-19.57900797
 20
-7.86743083
  0
VERTEX
  8
0
 10
-19.56655347
 20
-7.97852960
  0
VERTEX
  8
0
 10
-19.53714869
 20
-8.09285105
  0
VERTEX
  8
0
 10
-19.49098093
 20
-8.20985805
  0
VERTEX
  8
0
 10
-19.34910558
 20
-8.44978024
  0
VERTEX
  8
0
 10
-19.51844225
 20
-8.28019105
  0
VERTEX
  8
0
 10
-19.66321399
 20
-8.17352661
  0
VERTEX
  8
0
 10
-19.73111347
 20
-8.14544585
  0
VERTEX
  8
0
 10
-19.78858881
 20
-8.14590186
  0
VERTEX
  8
0
 10
-19.82116593
 20
-8.17641994
  0
VERTEX
  8
0
 10
-19.84391042
 20
-8.22149490
  0
VERTEX
  8
0
 10
-19.86786334
 20
-8.35511559
  0
VERTEX
  8
0
 10
-19.88535748
 20
-8.79484134
  0
VERTEX
  8
0
 10
-19.76592744
 20
-8.98992537
  0
VERTEX
  8
0
 10
-19.63488722
 20
-9.13600044
  0
VERTEX
  8
0
 10
-19.48572917
 20
-9.25938279
  0
VERTEX
  8
0
 10
-19.65206791
 20
-9.19897055
  0
VERTEX
  8
0
 10
-19.72135847
 20
-9.19756151
  0
VERTEX
  8
0
 10
-19.77942428
 20
-9.21998937
  0
VERTEX
  8
0
 10
-19.82478617
 20
-9.26973330
  0
VERTEX
  8
0
 10
-19.85596500
 20
-9.35027246
  0
VERTEX
  8
0
 10
-19.87148161
 20
-9.46508598
  0
VERTEX
  8
0
 10
-19.86985684
 20
-9.61765303
  0
VERTEX
  8
0
 10
-19.86282945
 20
-9.69099814
  0
VERTEX
  8
0
 10
-19.82798642
 20
-9.86502485
  0
VERTEX
  8
0
 10
-19.79368361
 20
-9.96822723
  0
VERTEX
  8
0
 10
-19.74468639
 20
-10.07072015
  0
VERTEX
  8
0
 10
-19.67841459
 20
-10.16387696
  0
VERTEX
  8
0
 10
-19.59228804
 20
-10.23907106
  0
VERTEX
  8
0
 10
-19.44611530
 20
-10.25212417
  0
VERTEX
  8
0
 10
-19.40197038
 20
-10.27061996
  0
VERTEX
  8
0
 10
-19.37832692
 20
-10.29411092
  0
VERTEX
  8
0
 10
-19.37609026
 20
-10.32035879
  0
VERTEX
  8
0
 10
-19.39616578
 20
-10.34712533
  0
VERTEX
  8
0
 10
-19.50687477
 20
-10.39326139
  0
VERTEX
  8
0
 10
-19.54150241
 20
-10.45760345
  0
VERTEX
  8
0
 10
-19.55931827
 20
-10.53490121
  0
VERTEX
  8
0
 10
-19.55954925
 20
-10.70181426
  0
VERTEX
  8
0
 10
-19.52365087
 20
-10.89906364
  0
VERTEX
  8
0
 10
-19.38123297
 20
-11.12418966
  0
VERTEX
  8
0
 10
-19.30985381
 20
-11.19726400
  0
VERTEX
  8
0
 10
-19.23879207
 20
-11.24399560
  0
VERTEX
  8
0
 10
-19.16837091
 20
-11.26437172
  0
VERTEX
  8
0
 10
-19.09891348
 20
-11.25837964
  0
VERTEX
  8
0
 10
-19.03074296
 20
-11.22600662
  0
VERTEX
  8
0
 10
-18.96418249
 20
-11.16723993
  0
VERTEX
  8
0
 10
-19.03994467
 20
-11.30345102
  0
VERTEX
  8
0
 10
-19.10103730
 20
-11.44918819
  0
VERTEX
  8
0
 10
-19.14772865
 20
-11.62487826
  0
VERTEX
  8
0
 10
-19.10718720
 20
-11.73534577
  0
VERTEX
  8
0
 10
-19.04829233
 20
-11.84785564
  0
VERTEX
  8
0
 10
-18.89975220
 20
-12.05807420
  0
VERTEX
  8
0
 10
-18.75072795
 20
-12.21367734
  0
VERTEX
  8
0
 10
-18.69122794
 20
-12.25791795
  0
VERTEX
  8
0
 10
-18.64983928
 20
-12.27280848
  0
VERTEX
  8
0
 10
-18.59097607
 20
-12.24213115
  0
VERTEX
  8
0
 10
-18.54094968
 20
-12.19186463
  0
VERTEX
  8
0
 10
-18.46618881
 20
-12.06175792
  0
VERTEX
  8
0
 10
-18.40930468
 20
-11.88760717
  0
VERTEX
  8
0
 10
-18.42195602
 20
-12.12876387
  0
VERTEX
  8
0
 10
-18.41159944
 20
-12.24365823
  0
VERTEX
  8
0
 10
-18.38738985
 20
-12.35429005
  0
VERTEX
  8
0
 10
-18.34727859
 20
-12.46030439
  0
VERTEX
  8
0
 10
-18.28921705
 20
-12.56134634
  0
VERTEX
  8
0
 10
-18.21115657
 20
-12.65706098
  0
VERTEX
  8
0
 10
-18.11104851
 20
-12.74709339
  0
VERTEX
  8
0
 10
-18.06954296
 20
-12.75876327
  0
VERTEX
  8
0
 10
-17.97006583
 20
-12.77105484
  0
VERTEX
  8
0
 10
-17.85017637
 20
-12.74989101
  0
VERTEX
  8
0
 10
-17.79431428
 20
-12.71611422
  0
VERTEX
  8
0
 10
-17.74743383
 20
-12.66119467
  0
VERTEX
  8
0
 10
-17.73558540
 20
-12.58196552
  0
VERTEX
  8
0
 10
-16.92035920
 20
-12.18476228
  0
VERTEX
  8
0
 10
-16.47668914
 20
-11.39688178
  0
SEQEND
  0
POLYLINE
  8
pobeda_orden_002
 66
   1
 39
0.000000
 70
    1
  0
VERTEX
  8
0
 10
-14.55188891
 20
-16.63262857
  0
VERTEX
  8
0
 10
-14.64980812
 20
-16.35128642
  0
VERTEX
  8
0
 10
-14.71537736
 20
-16.21695306
  0
VERTEX
  8
0
 10
-14.75788759
 20
-16.16240405
  0
VERTEX
  8
0
 10
-14.80900468
 20
-16.12046995
  0
VERTEX
  8
0
 10
-14.64017950
 20
-16.13832915
  0
VERTEX
  8
0
 10
-14.48836755
 20
-16.14525903
  0
VERTEX
  8
0
 10
-14.34426230
 20
-16.13717213
  0
VERTEX
  8
0
 10
-14.30393439
 20
-15.99407255
  0
VERTEX
  8
0
 10
-14.31142106
 20
-15.81280929
  0
VERTEX
  8
0
 10
-14.33866800
 20
-15.70848229
  0
VERTEX
  8
0
 10
-14.38455634
 20
-15.59535357
  0
VERTEX
  8
0
 10
-14.45131535
 20
-15.47366954
  0
VERTEX
  8
0
 10
-14.54117428
 20
-15.34367659
  0
VERTEX
  8
0
 10
-14.61420592
 20
-15.27655011
  0
VERTEX
  8
0
 10
-14.68881398
 20
-15.22747066
  0
VERTEX
  8
0
 10
-14.82881063
 20
-15.17223756
  0
VERTEX
  8
0
 10
-14.93326677
 20
-15.15554675
  0
VERTEX
  8
0
 10
-14.97428491
 20
-15.15496771
  0
VERTEX
  8
0
 10
-14.89999535
 20
-15.12935875
  0
VERTEX
  8
0
 10
-14.83701772
 20
-15.09211530
  0
VERTEX
  8
0
 10
-14.78752469
 20
-15.04066700
  0
VERTEX
  8
0
 10
-14.75368892
 20
-14.97244345
  0
VERTEX
  8
0
 10
-14.73768307
 20
-14.88487429
  0
VERTEX
  8
0
 10
-14.74167981
 20
-14.77538913
  0
VERTEX
  8
0
 10
-14.76785179
 20
-14.64141760
  0
VERTEX
  8
0
 10
-14.81837168
 20
-14.48038931
  0
VERTEX
  8
0
 10
-14.91562333
 20
-14.31500630
  0
VERTEX
  8
0
 10
-15.02428489
 20
-14.18356783
  0
VERTEX
  8
0
 10
-15.08986124
 20
-14.12762153
  0
VERTEX
  8
0
 10
-15.16150096
 20
-14.08655610
  0
VERTEX
  8
0
 10
-15.21563822
 20
-14.13036272
  0
VERTEX
  8
0
 10
-15.27548744
 20
-14.15288295
  0
VERTEX
  8
0
 10
-15.29492024
 20
-14.14676203
  0
VERTEX
  8
0
 10
-15.30062045
 20
-14.12404113
  0
VERTEX
  8
0
 10
-15.25060908
 20
-14.01376157
  0
VERTEX
  8
0
 10
-15.25017063
 20
-13.91539093
  0
VERTEX
  8
0
 10
-15.27113933
 20
-13.81039709
  0
VERTEX
  8
0
 10
-15.35097788
 20
-13.60487589
  0
VERTEX
  8
0
 10
-15.47801745
 20
-13.38205226
  0
VERTEX
  8
0
 10
-15.62816329
 20
-13.22720294
  0
VERTEX
  8
0
 10
-15.68117074
 20
-13.17870513
  0
VERTEX
  8
0
 10
-15.72645936
 20
-13.15360062
  0
VERTEX
  8
0
 10
-15.76927274
 20
-13.15497095
  0
VERTEX
  8
0
 10
-15.81485447
 20
-13.18589767
  0
VERTEX
  8
0
 10
-15.93529743
 20
-13.34874647
  0
VERTEX
  8
0
 10
-15.93846938
 20
-13.23376962
  0
VERTEX
  8
0
 10
-15.97893634
 20
-12.89733512
  0
VERTEX
  8
0
 10
-16.07428645
 20
-12.77771674
  0
VERTEX
  8
0
 10
-16.19459301
 20
-12.69013379
  0
VERTEX
  8
0
 10
-16.33291097
 20
-12.64865868
  0
VERTEX
  8
0
 10
-16.40665389
 20
-12.64960919
  0
VERTEX
  8
0
 10
-16.48229525
 20
-12.66736381
  0
VERTEX
  8
0
 10
-16.51756983
 20
-12.68897376
  0
VERTEX
  8
0
 10
-16.54383251
 20
-12.74705180
  0
VERTEX
  8
0
 10
-16.57463415
 20
-12.92409917
  0
VERTEX
  8
0
 10
-16.58652666
 20
-13.18216822
  0
VERTEX
  8
0
 10
-16.65559847
 20
-12.91601795
  0
VERTEX
  8
0
 10
-16.75303677
 20
-12.70256551
  0
VERTEX
  8
0
 10
-16.81573007
 20
-12.62046061
  0
VERTEX
  8
0
 10
-16.88951906
 20
-12.55736173
  0
VERTEX
  8
0
 10
-16.97573842
 20
-12.51521273
  0
VERTEX
  8
0
 10
-17.07572283
 20
-12.49595747
  0
VERTEX
  8
0
 10
-17.10685751
 20
-12.50817381
  0
VERTEX
  8
0
 10
-17.17680364
 20
-12.55552337
  0
VERTEX
  8
0
 10
-17.25037438
 20
-12.65405697
  0
VERTEX
  8
0
 10
-17.27752308
 20
-12.72753366
  0
VERTEX
  8
0
 10
-17.29238286
 20
-12.81982542
  0
VERTEX
  8
0
 10
-17.25521514
 20
-12.92221858
  0
VERTEX
  8
0
 10
-17.26039589
 20
-12.94658459
  0
VERTEX
  8
0
 10
-17.31072002
 20
-12.91108046
  0
VERTEX
  8
0
 10
-17.37778700
 20
-12.84775244
  0
VERTEX
  8
0
 10
-17.44526687
 20
-12.81547575
  0
VERTEX
  8
0
 10
-17.51027619
 20
-12.80728230
  0
VERTEX
  8
0
 10
-17.56993153
 20
-12.81620399
  0
VERTEX
  8
0
 10
-17.66164649
 20
-12.85752042
  0
VERTEX
  8
0
 10
-17.69734426
 20
-12.88368029
  0
VERTEX
  8
0
 10
-17.73401757
 20
-12.98298646
  0
VERTEX
  8
0
 10
-17.75304674
 20
-13.08661997
  0
VERTEX
  8
0
 10
-17.75463444
 20
-13.19404932
  0
VERTEX
  8
0
 10
-17.73898335
 20
-13.30474302
  0
VERTEX
  8
0
 10
-17.70629616
 20
-13.41816957
  0
VERTEX
  8
0
 10
-17.65677555
 20
-13.53379746
  0
VERTEX
  8
0
 10
-17.50804480
 20
-13.76953129
  0
VERTEX
  8
0
 10
-17.68219853
 20
-13.60489266
  0
VERTEX
  8
0
 10
-17.82998410
 20
-13.50244470
  0
VERTEX
  8
0
 10
-17.89866465
 20
-13.47633240
  0
VERTEX
  8
0
 10
-17.95610296
 20
-13.47844459
  0
VERTEX
  8
0
 10
-17.98778705
 20
-13.50988884
  0
VERTEX
  8
0
 10
-18.00922309
 20
-13.55560055
  0
VERTEX
  8
0
 10
-18.02931524
 20
-13.68985604
  0
VERTEX
  8
0
 10
-18.03412966
 20
-14.12990331
  0
VERTEX
  8
0
 10
-17.90912710
 20
-14.32146446
  0
VERTEX
  8
0
 10
-17.77393157
 20
-14.46370241
  0
VERTEX
  8
0
 10
-17.62127971
 20
-14.58273492
  0
VERTEX
  8
0
 10
-17.78929039
 20
-14.52714150
  0
VERTEX
  8
0
 10
-17.85859277
 20
-14.52772992
  0
VERTEX
  8
0
 10
-17.91598811
 20
-14.55182187
  0
VERTEX
  8
0
 10
-17.95989760
 20
-14.60285243
  0
VERTEX
  8
0
 10
-17.98874242
 20
-14.68425667
  0
VERTEX
  8
0
 10
-18.00094377
 20
-14.79946968
  0
VERTEX
  8
0
 10
-17.99492284
 20
-14.95192653
  0
VERTEX
  8
0
 10
-17.98578465
 20
-15.02503866
  0
VERTEX
  8
0
 10
-17.94594080
 20
-15.19798894
  0
VERTEX
  8
0
 10
-17.90867806
 20
-15.30015989
  0
VERTEX
  8
0
 10
-17.85674744
 20
-15.40119818
  0
VERTEX
  8
0
 10
-17.78781848
 20
-15.49240642
  0
VERTEX
  8
0
 10
-17.69956069
 20
-15.56508720
  0
VERTEX
  8
0
 10
-17.55307248
 20
-15.57392233
  0
VERTEX
  8
0
 10
-17.50841287
 20
-15.59113823
  0
VERTEX
  8
0
 10
-17.48410224
 20
-15.61393805
  0
VERTEX
  8
0
 10
-17.48111008
 20
-15.64011057
  0
VERTEX
  8
0
 10
-17.50040587
 20
-15.66744454
  0
VERTEX
  8
0
 10
-17.60973928
 20
-15.71675196
  0
VERTEX
  8
0
 10
-17.64249827
 20
-15.78206523
  0
VERTEX
  8
0
 10
-17.65807908
 20
-15.85984432
  0
VERTEX
  8
0
 10
-17.65349970
 20
-16.02669470
  0
VERTEX
  8
0
 10
-17.61193170
 20
-16.22282759
  0
VERTEX
  8
0
 10
-17.46308505
 20
-16.44375576
  0
VERTEX
  8
0
 10
-17.38962961
 20
-16.51474268
  0
VERTEX
  8
0
 10
-17.31725063
 20
-16.55940694
  0
VERTEX
  8
0
 10
-17.24627149
 20
-16.57774513
  0
VERTEX
  8
0
 10
-17.17701560
 20
-16.56975384
  0
VERTEX
  8
0
 10
-17.10980635
 20
-16.53542966
  0
VERTEX
  8
0
 10
-17.04496713
 20
-16.47476918
  0
VERTEX
  8
0
 10
-17.11677237
 20
-16.61310708
  0
VERTEX
  8
0
 10
-17.17363962
 20
-16.76054435
  0
VERTEX
  8
0
 10
-17.21524837
 20
-16.93750704
  0
VERTEX
  8
0
 10
-17.17154019
 20
-17.04676030
  0
VERTEX
  8
0
 10
-17.10942736
 20
-17.15752616
  0
VERTEX
  8
0
 10
-16.95489064
 20
-17.36337662
  0
VERTEX
  8
0
 10
-16.80144396
 20
-17.51462040
  0
VERTEX
  8
0
 10
-16.74069369
 20
-17.55712790
  0
VERTEX
  8
0
 10
-16.69889309
 20
-17.57081947
  0
VERTEX
  8
0
 10
-16.64093842
 20
-17.53845850
  0
VERTEX
  8
0
 10
-16.59238145
 20
-17.48677115
  0
VERTEX
  8
0
 10
-16.52140118
 20
-17.35456394
  0
VERTEX
  8
0
 10
-16.46955952
 20
-17.17884619
  0
VERTEX
  8
0
 10
-16.47525571
 20
-17.42026732
  0
VERTEX
  8
0
 10
-16.46159229
 20
-17.53481549
  0
VERTEX
  8
0
 10
-16.43420445
 20
-17.64470366
  0
VERTEX
  8
0
 10
-16.39105464
 20
-17.74951800
  0
VERTEX
  8
0
 10
-16.33010528
 20
-17.84884471
  0
VERTEX
  8
0
 10
-16.24931882
 20
-17.94226997
  0
VERTEX
  8
0
 10
-16.14665770
 20
-18.02937997
  0
VERTEX
  8
0
 10
-16.10483308
 20
-18.03984885
  0
VERTEX
  8
0
 10
-16.00504303
 20
-18.04926849
  0
VERTEX
  8
0
 10
-15.88581328
 20
-18.02465835
  0
VERTEX
  8
0
 10
-15.83094781
 20
-17.98928570
  0
VERTEX
  8
0
 10
-15.78566957
 20
-17.93303792
  0
VERTEX
  8
0
 10
-15.77610936
 20
-17.85350021
  0
VERTEX
  8
0
 10
-14.97266877
 20
-17.43296795
  0
VERTEX
  8
0
 10
-14.55188891
 20
-16.63262857
  0
SEQEND
  0
POLYLINE
  8
pobeda_orden_002
 66
   1
 39
0.000000
 70
    1
  0
VERTEX
  8
0
 10
-15.71983819
 20
-15.11190463
  0
VERTEX
  8
0
 10
-15.98308172
 20
-15.27535841
  0
VERTEX
  8
0
 10
-16.25626152
 20
-15.12912449
  0
VERTEX
  8
0
 10
-16.52944133
 20
-14.98289057
  0
VERTEX
  8
0
 10
-16.53937759
 20
-14.67318039
  0
VERTEX
  8
0
 10
-16.54931385
 20
-14.36347021
  0
VERTEX
  8
0
 10
-16.28609280
 20
-14.20001643
  0
VERTEX
  8
0
 10
-16.02284926
 20
-14.03656265
  0
VERTEX
  8
0
 10
-15.74966946
 20
-14.18279657
  0
VERTEX
  8
0
 10
-15.47648966
 20
-14.32905297
  0
VERTEX
  8
0
 10
-15.46655339
 20
-14.63874067
  0
VERTEX
  8
0
 10
-15.45659465
 20
-14.94845085
  0
VERTEX
  8
0
 10
-15.71983819
 20
-15.11190463
  0
SEQEND
  0
POLYLINE
  8
pobeda_orden_002
 66
   1
 39
0.000000
 70
    1
  0
VERTEX
  8
0
 10
-13.07060204
 20
-12.74669770
  0
VERTEX
  8
0
 10
-13.33384558
 20
-12.91015148
  0
VERTEX
  8
0
 10
-13.60702538
 20
-12.76391756
  0
VERTEX
  8
0
 10
-13.88020518
 20
-12.61768364
  0
VERTEX
  8
0
 10
-13.89014145
 20
-12.30795098
  0
VERTEX
  8
0
 10
-13.90007771
 20
-11.99824079
  0
VERTEX
  8
0
 10
-13.63685665
 20
-11.83478701
  0
VERTEX
  8
0
 10
-13.37361311
 20
-11.67133323
  0
VERTEX
  8
0
 10
-13.10043331
 20
-11.81758964
  0
VERTEX
  8
0
 10
-12.82725351
 20
-11.96382356
  0
VERTEX
  8
0
 10
-12.81731725
 20
-12.27351126
  0
VERTEX
  8
0
 10
-12.80735851
 20
-12.58324392
  0
VERTEX
  8
0
 10
-13.07060204
 20
-12.74669770
  0
SEQEND
  0
POLYLINE
  8
pobeda_orden_002
 66
   1
 39
0.000000
 70
    1
  0
VERTEX
  8
0
 10
-11.84842947
 20
-13.60947369
  0
VERTEX
  8
0
 10
-11.94177273
 20
-13.32658041
  0
VERTEX
  8
0
 10
-12.00515461
 20
-13.19120125
  0
VERTEX
  8
0
 10
-12.04677452
 20
-13.13596994
  0
VERTEX
  8
0
 10
-12.09720477
 20
-13.09321230
  0
VERTEX
  8
0
 10
-11.92869145
 20
-13.11380730
  0
VERTEX
  8
0
 10
-11.77701187
 20
-13.12319850
  0
VERTEX
  8
0
 10
-11.63279440
 20
-13.11744989
  0
VERTEX
  8
0
 10
-11.59015088
 20
-12.97502321
  0
VERTEX
  8
0
 10
-11.59469668
 20
-12.79366237
  0
VERTEX
  8
0
 10
-11.62024797
 20
-12.68890717
  0
VERTEX
  8
0
 10
-11.66429546
 20
-12.57504907
  0
VERTEX
  8
0
 10
-11.72907210
 20
-12.45229829
  0
VERTEX
  8
0
 10
-11.81681087
 20
-12.32086503
  0
VERTEX
  8
0
 10
-11.88874418
 20
-12.25256289
  0
VERTEX
  8
0
 10
-11.96254642
 20
-12.20227983
  0
VERTEX
  8
0
 10
-12.10162884
 20
-12.14478340
  0
VERTEX
  8
0
 10
-12.20580053
 20
-12.12640063
  0
VERTEX
  8
0
 10
-12.24680389
 20
-12.12515640
  0
VERTEX
  8
0
 10
-12.17210874
 20
-12.10075570
  0
VERTEX
  8
0
 10
-12.10853535
 20
-12.06453858
  0
VERTEX
  8
0
 10
-12.05821440
 20
-12.01389976
  0
VERTEX
  8
0
 10
-12.02327657
 20
-11.94623397
  0
VERTEX
  8
0
 10
-12.00585255
 20
-11.85893592
  0
VERTEX
  8
0
 10
-12.00807304
 20
-11.74940034
  0
VERTEX
  8
0
 10
-12.03206871
 20
-11.61502195
  0
VERTEX
  8
0
 10
-12.07997025
 20
-11.45319547
  0
VERTEX
  8
0
 10
-12.17452678
 20
-11.28625690
  0
VERTEX
  8
0
 10
-12.28104226
 20
-11.15307335
  0
VERTEX
  8
0
 10
-12.34570259
 20
-11.09607083
  0
VERTEX
  8
0
 10
-12.41666686
 20
-11.05384888
  0
VERTEX
  8
0
 10
-12.47150749
 20
-11.09677169
  0
VERTEX
  8
0
 10
-12.53171410
 20
-11.11831828
  0
VERTEX
  8
0
 10
-12.55104506
 20
-11.11188298
  0
VERTEX
  8
0
 10
-12.55637602
 20
-11.08907261
  0
VERTEX
  8
0
 10
-12.50458261
 20
-10.97961870
  0
VERTEX
  8
0
 10
-12.50254875
 20
-10.88126811
  0
VERTEX
  8
0
 10
-12.52181181
 20
-10.77594798
  0
VERTEX
  8
0
 10
-12.59830654
 20
-10.56915893
  0
VERTEX
  8
0
 10
-12.72171544
 20
-10.34430416
  0
VERTEX
  8
0
 10
-12.86933005
 20
-10.18704001
  0
VERTEX
  8
0
 10
-12.92154395
 20
-10.13768886
  0
VERTEX
  8
0
 10
-12.96641944
 20
-10.11185312
  0
VERTEX
  8
0
 10
-13.00924941
 20
-10.11252888
  0
VERTEX
  8
0
 10
-13.05532675
 20
-10.14271225
  0
VERTEX
  8
0
 10
-13.17839509
 20
-10.30358618
  0
VERTEX
  8
0
 10
-13.17970182
 20
-10.18857301
  0
VERTEX
  8
0
 10
-13.21470687
 20
-9.85152643
  0
VERTEX
  8
0
 10
-13.30810436
 20
-9.73037731
  0
VERTEX
  8
0
 10
-13.42697460
 20
-9.64085465
  0
VERTEX
  8
0
 10
-13.56460168
 20
-9.59714163
  0
VERTEX
  8
0
 10
-13.63835032
 20
-9.59689599
  0
VERTEX
  8
0
 10
-13.71426969
 20
-9.61342145
  0
VERTEX
  8
0
 10
-13.74989012
 20
-9.63445644
  0
VERTEX
  8
0
 10
-13.77709130
 20
-9.69210089
  0
VERTEX
  8
0
 10
-13.81076041
 20
-9.86862541
  0
VERTEX
  8
0
 10
-13.82683695
 20
-10.12646762
  0
VERTEX
  8
0
 10
-13.89158301
 20
-9.85923210
  0
VERTEX
  8
0
 10
-13.98554653
 20
-9.64422739
  0
VERTEX
  8
0
 10
-14.04689994
 20
-9.56111647
  0
VERTEX
  8
0
 10
-14.11965583
 20
-9.49682912
  0
VERTEX
  8
0
 10
-14.20518023
 20
-9.45328728
  0
VERTEX
  8
0
 10
-14.30483919
 20
-9.43241292
  0
VERTEX
  8
0
 10
-14.33616791
 20
-9.44412268
  0
VERTEX
  8
0
 10
-14.40687281
 20
-9.49033157
  0
VERTEX
  8
0
 10
-14.48203197
 20
-9.58765897
  0
VERTEX
  8
0
 10
-14.51036881
 20
-9.66068567
  0
VERTEX
  8
0
 10
-14.52672350
 20
-9.75272428
  0
VERTEX
  8
0
 10
-14.49122138
 20
-9.85570679
  0
VERTEX
  8
0
 10
-14.49679664
 20
-9.87998557
  0
VERTEX
  8
0
 10
-14.54653831
 20
-9.84366991
  0
VERTEX
  8
0
 10
-14.61256936
 20
-9.77926247
  0
VERTEX
  8
0
 10
-14.67951686
 20
-9.74589558
  0
VERTEX
  8
0
 10
-14.74438474
 20
-9.73664882
  0
VERTEX
  8
0
 10
-14.80417693
 20
-9.74460180
  0
VERTEX
  8
0
 10
-14.89654993
 20
-9.78442528
  0
VERTEX
  8
0
 10
-14.93266729
 20
-9.81000272
  0
VERTEX
  8
0
 10
-14.97094642
 20
-9.90870103
  0
VERTEX
  8
0
 10
-14.99165390
 20
-10.01201228
  0
VERTEX
  8
0
 10
-14.99498378
 20
-10.11940175
  0
VERTEX
  8
0
 10
-14.98113008
 20
-10.23033473
  0
VERTEX
  8
0
 10
-14.95028684
 20
-10.34427651
  0
VERTEX
  8
0
 10
-14.90264810
 20
-10.46069236
  0
VERTEX
  8
0
 10
-14.75776026
 20
-10.69880743
  0
VERTEX
  8
0
 10
-14.92922082
 20
-10.53136588
  0
VERTEX
  8
0
 10
-15.07532536
 20
-10.42653447
  0
VERTEX
  8
0
 10
-15.14357336
 20
-10.39931169
  0
VERTEX
  8
0
 10
-15.20103838
 20
-10.40049202
  0
VERTEX
  8
0
 10
-15.23322829
 20
-10.43141825
  0
VERTEX
  8
0
 10
-15.25540290
 20
-10.47677628
  0
VERTEX
  8
0
 10
-15.27766988
 20
-10.61068824
  0
VERTEX
  8
0
 10
-15.28962075
 20
-11.05059954
  0
VERTEX
  8
0
 10
-15.16774154
 20
-11.24416289
  0
VERTEX
  8
0
 10
-15.03487073
 20
-11.38857486
  0
VERTEX
  8
0
 10
-14.88416953
 20
-11.51006756
  0
VERTEX
  8
0
 10
-15.05125645
 20
-11.45175650
  0
VERTEX
  8
0
 10
-15.12055926
 20
-11.45122084
  0
VERTEX
  8
0
 10
-15.17833779
 20
-11.47437873
  0
VERTEX
  8
0
 10
-15.22306916
 20
-11.52469041
  0
VERTEX
  8
0
 10
-15.25323047
 20
-11.60561611
  0
VERTEX
  8
0
 10
-15.26729885
 20
-11.72061607
  0
VERTEX
  8
0
 10
-15.26375139
 20
-11.87315052
  0
VERTEX
  8
0
 10
-15.25580020
 20
-11.94640125
  0
VERTEX
  8
0
 10
-15.21876666
 20
-12.11997500
  0
VERTEX
  8
0
 10
-15.18316591
 20
-12.22273687
  0
VERTEX
  8
0
 10
-15.13288086
 20
-12.32460413
  0
VERTEX
  8
0
 10
-15.06544026
 20
-12.41691832
  0
VERTEX
  8
0
 10
-14.97837288
 20
-12.49102099
  0
VERTEX
  8
0
 10
-14.83204724
 20
-12.50223084
  0
VERTEX
  8
0
 10
-14.78767272
 20
-12.52016880
  0
VERTEX
  8
0
 10
-14.76373508
 20
-12.54335992
  0
VERTEX
  8
0
 10
-14.76116779
 20
-12.56957751
  0
VERTEX
  8
0
 10
-14.78090438
 20
-12.59659494
  0
VERTEX
  8
0
 10
-14.89102312
 20
-12.64412260
  0
VERTEX
  8
0
 10
-14.92483711
 20
-12.70889597
  0
VERTEX
  8
0
 10
-14.94167736
 20
-12.78641212
  0
VERTEX
  8
0
 10
-14.93980471
 20
-12.95331483
  0
VERTEX
  8
0
 10
-14.90142324
 20
-13.15009611
  0
VERTEX
  8
0
 10
-14.75617937
 20
-13.37340935
  0
VERTEX
  8
0
 10
-14.68388492
 20
-13.44557830
  0
VERTEX
  8
0
 10
-14.61223987
 20
-13.49141059
  0
VERTEX
  8
0
 10
-14.54156749
 20
-13.51089757
  0
VERTEX
  8
0
 10
-14.47219110
 20
-13.50403059
  0
VERTEX
  8
0
 10
-14.40443399
 20
-13.47080098
  0
VERTEX
  8
0
 10
-14.33861945
 20
-13.41120009
  0
VERTEX
  8
0
 10
-14.41265893
 20
-13.54835520
  0
VERTEX
  8
0
 10
-14.47190997
 20
-13.69485075
  0
VERTEX
  8
0
 10
-14.51638339
 20
-13.87111532
  0
VERTEX
  8
0
 10
-14.47445293
 20
-13.98106311
  0
VERTEX
  8
0
 10
-14.41414477
 20
-14.09282179
  0
VERTEX
  8
0
 10
-14.26296704
 20
-14.30115159
  0
VERTEX
  8
0
 10
-14.11199355
 20
-14.45486421
  0
VERTEX
  8
0
 10
-14.05194070
 20
-14.49835143
  0
VERTEX
  8
0
 10
-14.01036766
 20
-14.51271916
  0
VERTEX
  8
0
 10
-13.95189575
 20
-14.48130240
  0
VERTEX
  8
0
 10
-13.90250685
 20
-14.43040939
  0
VERTEX
  8
0
 10
-13.82939166
 20
-14.29937079
  0
VERTEX
  8
0
 10
-13.77470688
 20
-14.12451697
  0
VERTEX
  8
0
 10
-13.78431790
 20
-14.36581395
  0
VERTEX
  8
0
 10
-13.77251412
 20
-14.48056867
  0
VERTEX
  8
0
 10
-13.74691215
 20
-14.59088658
  0
VERTEX
  8
0
 10
-13.70546798
 20
-14.69638698
  0
VERTEX
  8
0
 10
-13.64613761
 20
-14.79668916
  0
VERTEX
  8
0
 10
-13.56687703
 20
-14.89141239
  0
VERTEX
  8
0
 10
-13.46564224
 20
-14.98017598
  0
VERTEX
  8
0
 10
-13.42399292
 20
-14.99132184
  0
VERTEX
  8
0
 10
-13.32436877
 20
-15.00235872
  0
VERTEX
  8
0
 10
-13.20475556
 20
-14.97968559
  0
VERTEX
  8
0
 10
-13.14932360
 20
-14.94520746
  0
VERTEX
  8
0
 10
-13.10313903
 20
-14.88970143
  0
VERTEX
  8
0
 10
-13.09229007
 20
-14.81032925
  0
VERTEX
  8
0
 10
-12.28213459
 20
-14.40288321
  0
VERTEX
  8
0
 10
-11.84842947
 20
-13.60947369
  0
SEQEND
  0
POLYLINE
  8
pobeda_orden_002
 66
   1
 39
0.000000
 70
    1
  0
VERTEX
  8
0
 10
-8.38896689
 20
-17.35992939
  0
VERTEX
  8
0
 10
-8.58462993
 20
-17.13530180
  0
VERTEX
  8
0
 10
-8.69551541
 20
-17.03505617
  0
VERTEX
  8
0
 10
-8.75528437
 20
-17.00026557
  0
VERTEX
  8
0
 10
-8.81834233
 20
-16.98038795
  0
VERTEX
  8
0
 10
-8.65501270
 20
-16.93408108
  0
VERTEX
  8
0
 10
-8.51154291
 20
-16.88396810
  0
VERTEX
  8
0
 10
-8.38081849
 20
-16.82278928
  0
VERTEX
  8
0
 10
-8.39669150
 20
-16.67496547
  0
VERTEX
  8
0
 10
-8.47115324
 20
-16.50953311
  0
VERTEX
  8
0
 10
-8.53529758
 20
-16.42286118
  0
VERTEX
  8
0
 10
-8.62002033
 20
-16.33496406
  0
VERTEX
  8
0
 10
-8.72729858
 20
-16.24690075
  0
VERTEX
  8
0
 10
-8.85910940
 20
-16.15973022
  0
VERTEX
  8
0
 10
-8.95188831
 20
-16.12463522
  0
VERTEX
  8
0
 10
-9.03940837
 20
-16.10687587
  0
VERTEX
  8
0
 10
-9.18990413
 20
-16.10776044
  0
VERTEX
  8
0
 10
-9.29306106
 20
-16.13117657
  0
VERTEX
  8
0
 10
-9.33134352
 20
-16.14591691
  0
VERTEX
  8
0
 10
-9.27193766
 20
-16.09448051
  0
VERTEX
  8
0
 10
-9.22736323
 20
-16.03646003
  0
VERTEX
  8
0
 10
-9.20059392
 20
-15.97027928
  0
VERTEX
  8
0
 10
-9.19460344
 20
-15.89436205
  0
VERTEX
  8
0
 10
-9.21236548
 20
-15.80713215
  0
VERTEX
  8
0
 10
-9.25685375
 20
-15.70701338
  0
VERTEX
  8
0
 10
-9.33104195
 20
-15.59242955
  0
VERTEX
  8
0
 10
-9.43790378
 20
-15.46180445
  0
VERTEX
  8
0
 10
-9.58975687
 20
-15.34454378
  0
VERTEX
  8
0
 10
-9.73955583
 20
-15.26303502
  0
VERTEX
  8
0
 10
-9.82125167
 20
-15.23553893
  0
VERTEX
  8
0
 10
-9.90303205
 20
-15.22411138
  0
VERTEX
  8
0
 10
-9.93695767
 20
-15.28493009
  0
VERTEX
  8
0
 10
-9.98411263
 20
-15.32812152
  0
VERTEX
  8
0
 10
-10.00442700
 20
-15.32967899
  0
VERTEX
  8
0
 10
-10.01817975
 20
-15.31071604
  0
VERTEX
  8
0
 10
-10.01284182
 20
-15.18974404
  0
VERTEX
  8
0
 10
-10.04907429
 20
-15.09828814
  0
VERTEX
  8
0
 10
-10.10764050
 20
-15.00865894
  0
VERTEX
  8
0
 10
-10.25828338
 20
-14.84766241
  0
VERTEX
  8
0
 10
-10.45917554
 20
-14.68818902
  0
VERTEX
  8
0
 10
-10.65619352
 20
-14.60040521
  0
VERTEX
  8
0
 10
-10.72345056
 20
-14.57514024
  0
VERTEX
  8
0
 10
-10.77483103
 20
-14.56871038
  0
VERTEX
  8
0
 10
-10.81405347
 20
-14.58592848
  0
VERTEX
  8
0
 10
-10.84483643
 20
-14.63160743
  0
VERTEX
  8
0
 10
-10.89595812
 20
-14.82759929
  0
VERTEX
  8
0
 10
-10.94172640
 20
-14.72207677
  0
VERTEX
  8
0
 10
-11.10459087
 20
-14.42492207
  0
VERTEX
  8
0
 10
-11.23763363
 20
-14.34942490
  0
VERTEX
  8
0
 10
-11.38190517
 20
-14.31295346
  0
VERTEX
  8
0
 10
-11.52571869
 20
-14.32598084
  0
VERTEX
  8
0
 10
-11.59380157
 20
-14.35432943
  0
VERTEX
  8
0
 10
-11.65738741
 20
-14.39898012
  0
VERTEX
  8
0
 10
-11.68207499
 20
-14.43217363
  0
VERTEX
  8
0
 10
-11.68481610
 20
-14.49585466
  0
VERTEX
  8
0
 10
-11.64745799
 20
-14.67163544
  0
VERTEX
  8
0
 10
-11.56237378
 20
-14.91556523
  0
VERTEX
  8
0
 10
-11.72560666
 20
-14.69429185
  0
VERTEX
  8
0
 10
-11.89553702
 20
-14.53249000
  0
VERTEX
  8
0
 10
-11.98430036
 20
-14.47964368
  0
VERTEX
  8
0
 10
-12.07628199
 20
-14.44856856
  0
VERTEX
  8
0
 10
-12.17199655
 20
-14.44156577
  0
VERTEX
  8
0
 10
-12.27195867
 20
-14.46093642
  0
VERTEX
  8
0
 10
-12.29630300
 20
-14.48387026
  0
VERTEX
  8
0
 10
-12.34358039
 20
-14.55386520
  0
VERTEX
  8
0
 10
-12.37515744
 20
-14.67271137
  0
VERTEX
  8
0
 10
-12.37298541
 20
-14.75101308
  0
VERTEX
  8
0
 10
-12.35240077
 20
-14.84219890
  0
VERTEX
  8
0
 10
-12.27976977
 20
-14.92338102
  0
VERTEX
  8
0
 10
-12.27550232
 20
-14.94792346
  0
VERTEX
  8
0
 10
-12.33542945
 20
-14.93371780
  0
VERTEX
  8
0
 10
-12.42125809
 20
-14.89992634
  0
VERTEX
  8
0
 10
-12.49590445
 20
-14.89510576
  0
VERTEX
  8
0
 10
-12.55928793
 20
-14.91171538
  0
VERTEX
  8
0
 10
-12.61132790
 20
-14.94221450
  0
VERTEX
  8
0
 10
-12.68105491
 20
-15.01471848
  0
VERTEX
  8
0
 10
-12.70444055
 20
-15.05229215
  0
VERTEX
  8
0
 10
-12.70148731
 20
-15.15811240
  0
VERTEX
  8
0
 10
-12.68054768
 20
-15.26137685
  0
VERTEX
  8
0
 10
-12.64200774
 20
-15.36166772
  0
VERTEX
  8
0
 10
-12.58625355
 20
-15.45856727
  0
VERTEX
  8
0
 10
-12.51367116
 20
-15.55165771
  0
VERTEX
  8
0
 10
-12.42464665
 20
-15.64052129
  0
VERTEX
  8
0
 10
-12.19881549
 20
-15.80389682
  0
VERTEX
  8
0
 10
-12.42176008
 20
-15.71597011
  0
VERTEX
  8
0
 10
-12.59707010
 20
-15.67593813
  0
VERTEX
  8
0
 10
-12.67053474
 20
-15.67728561
  0
VERTEX
  8
0
 10
-12.72305350
 20
-15.70063944
  0
VERTEX
  8
0
 10
-12.74074603
 20
-15.74162232
  0
VERTEX
  8
0
 10
-12.74361379
 20
-15.79202906
  0
VERTEX
  8
0
 10
-12.71225513
 20
-15.92410808
  0
VERTEX
  8
0
 10
-12.55282206
 20
-16.33428593
  0
VERTEX
  8
0
 10
-12.36546444
 20
-16.46550497
  0
VERTEX
  8
0
 10
-12.18701830
 20
-16.54715326
  0
VERTEX
  8
0
 10
-12.00101503
 20
-16.60076397
  0
VERTEX
  8
0
 10
-12.17764334
 20
-16.61174832
  0
VERTEX
  8
0
 10
-12.24174006
 20
-16.63810694
  0
VERTEX
  8
0
 10
-12.28603230
 20
-16.68184301
  0
VERTEX
  8
0
 10
-12.30777541
 20
-16.74555641
  0
VERTEX
  8
0
 10
-12.30422475
 20
-16.83184701
  0
VERTEX
  8
0
 10
-12.27263566
 20
-16.94331467
  0
VERTEX
  8
0
 10
-12.21026351
 20
-17.08255927
  0
VERTEX
  8
0
 10
-12.17455130
 20
-17.14700715
  0
VERTEX
  8
0
 10
-12.07315685
 20
-17.29267285
  0
VERTEX
  8
0
 10
-12.00052042
 20
-17.37361334
  0
VERTEX
  8
0
 10
-11.91469339
 20
-17.44803945
  0
VERTEX
  8
0
 10
-11.81675241
 20
-17.50701156
  0
VERTEX
  8
0
 10
-11.70777415
 20
-17.54159005
  0
VERTEX
  8
0
 10
-11.56853541
 20
-17.49522811
  0
VERTEX
  8
0
 10
-11.52067691
 20
-17.49457125
  0
VERTEX
  8
0
 10
-11.48962341
 20
-17.50667577
  0
VERTEX
  8
0
 10
-11.47709827
 20
-17.52985063
  0
VERTEX
  8
0
 10
-11.48482480
 20
-17.56240481
  0
VERTEX
  8
0
 10
-11.56792621
 20
-17.64888701
  0
VERTEX
  8
0
 10
-11.57400136
 20
-17.72170231
  0
VERTEX
  8
0
 10
-11.55949130
 20
-17.79968824
  0
VERTEX
  8
0
 10
-11.49309592
 20
-17.95282764
  0
VERTEX
  8
0
 10
-11.38146671
 20
-18.11936572
  0
VERTEX
  8
0
 10
-11.16104254
 20
-18.26895771
  0
VERTEX
  8
0
 10
-11.06643246
 20
-18.30747753
  0
VERTEX
  8
0
 10
-10.98262558
 20
-18.32196963
  0
VERTEX
  8
0
 10
-10.90992330
 20
-18.31255127
  0
VERTEX
  8
0
 10
-10.84862702
 20
-18.27933976
  0
VERTEX
  8
0
 10
-10.79903812
 20
-18.22245238
  0
VERTEX
  8
0
 10
-10.76145801
 20
-18.14200640
  0
VERTEX
  8
0
 10
-10.77657099
 20
-18.29713528
  0
VERTEX
  8
0
 10
-10.77443165
 20
-18.45514494
  0
VERTEX
  8
0
 10
-10.74713458
 20
-18.63487238
  0
VERTEX
  8
0
 10
-10.66587859
 20
-18.71998492
  0
VERTEX
  8
0
 10
-10.56697883
 20
-18.79964617
  0
VERTEX
  8
0
 10
-10.34688988
 20
-18.93312600
  0
VERTEX
  8
0
 10
-10.14815148
 20
-19.01633426
  0
VERTEX
  8
0
 10
-10.07593991
 20
-19.03315603
  0
VERTEX
  8
0
 10
-10.03204738
 20
-19.03029331
  0
VERTEX
  8
0
 10
-9.99031596
 20
-18.97867486
  0
VERTEX
  8
0
 10
-9.96450439
 20
-18.91262090
  0
VERTEX
  8
0
 10
-9.94787356
 20
-18.76348888
  0
VERTEX
  8
0
 10
-9.96521031
 20
-18.58110543
  0
VERTEX
  8
0
 10
-9.88057634
 20
-18.80727726
  0
VERTEX
  8
0
 10
-9.82523115
 20
-18.90849428
  0
VERTEX
  8
0
 10
-9.75888473
 20
-19.00027475
  0
VERTEX
  8
0
 10
-9.67980025
 20
-19.08147573
  0
VERTEX
  8
0
 10
-9.58624090
 20
-19.15095426
  0
VERTEX
  8
0
 10
-9.47646985
 20
-19.20756740
  0
VERTEX
  8
0
 10
-9.34875027
 20
-19.25017218
  0
VERTEX
  8
0
 10
-9.30603578
 20
-19.24430970
  0
VERTEX
  8
0
 10
-9.20991744
 20
-19.21588352
  0
VERTEX
  8
0
 10
-9.10843295
 20
-19.14863555
  0
VERTEX
  8
0
 10
-9.07069018
 20
-19.09537273
  0
VERTEX
  8
0
 10
-9.04962002
 20
-19.02630768
  0
VERTEX
  8
0
 10
-9.07037250
 20
-18.94893211
  0
VERTEX
  8
0
 10
-8.48137413
 20
-18.25940685
  0
VERTEX
  8
0
 10
-8.38896689
 20
-17.35992939
  0
SEQEND
  0
POLYLINE
  8
pobeda_orden_002
 66
   1
 39
0.000000
 70
    1
  0
VERTEX
  8
0
 10
-9.83646718
 20
-16.92311887
  0
VERTEX
  8
0
 10
-10.09971071
 20
-17.08657265
  0
VERTEX
  8
0
 10
-10.37289051
 20
-16.94033873
  0
VERTEX
  8
0
 10
-10.64607032
 20
-16.79410481
  0
VERTEX
  8
0
 10
-10.65600658
 20
-16.48439463
  0
VERTEX
  8
0
 10
-10.66594284
 20
-16.17468445
  0
VERTEX
  8
0
 10
-10.40272178
 20
-16.01123067
  0
VERTEX
  8
0
 10
-10.13947825
 20
-15.84777689
  0
VERTEX
  8
0
 10
-9.86629845
 20
-15.99401081
  0
VERTEX
  8
0
 10
-9.59311864
 20
-16.14026721
  0
VERTEX
  8
0
 10
-9.58318238
 20
-16.44995491
  0
VERTEX
  8
0
 10
-9.57322364
 20
-16.75966509
  0
VERTEX
  8
0
 10
-9.83646718
 20
-16.92311887
  0
SEQEND
  0
POLYLINE
  8
pobeda_orden_002
 66
   1
 39
0.000000
 70
    1
  0
VERTEX
  8
0
 10
-10.71901424
 20
-20.23389530
  0
VERTEX
  8
0
 10
-10.90963968
 20
-20.00497715
  0
VERTEX
  8
0
 10
-11.01827119
 20
-19.90229331
  0
VERTEX
  8
0
 10
-11.07725266
 20
-19.86618373
  0
VERTEX
  8
0
 10
-11.13985354
 20
-19.84491040
  0
VERTEX
  8
0
 10
-10.97553566
 20
-19.80224276
  0
VERTEX
  8
0
 10
-10.83098818
 20
-19.75532883
  0
VERTEX
  8
0
 10
-10.69893713
 20
-19.69706869
  0
VERTEX
  8
0
 10
-10.71152283
 20
-19.54892879
  0
VERTEX
  8
0
 10
-10.78229169
 20
-19.38188333
  0
VERTEX
  8
0
 10
-10.84449509
 20
-19.29380804
  0
VERTEX
  8
0
 10
-10.92724461
 20
-19.20405078
  0
VERTEX
  8
0
 10
-11.03254037
 20
-19.11362638
  0
VERTEX
  8
0
 10
-11.16238247
 20
-19.02354964
  0
VERTEX
  8
0
 10
-11.25435898
 20
-18.98640253
  0
VERTEX
  8
0
 10
-11.34146298
 20
-18.96670360
  0
VERTEX
  8
0
 10
-11.49194127
 20
-18.96424521
  0
VERTEX
  8
0
 10
-11.59559286
 20
-18.98536428
  0
VERTEX
  8
0
 10
-11.63419327
 20
-18.99925068
  0
VERTEX
  8
0
 10
-11.57365959
 20
-18.94914646
  0
VERTEX
  8
0
 10
-11.52780743
 20
-18.89213036
  0
VERTEX
  8
0
 10
-11.49957475
 20
-18.82656052
  0
VERTEX
  8
0
 10
-11.49189950
 20
-18.75079509
  0
VERTEX
  8
0
 10
-11.50771965
 20
-18.66319219
  0
VERTEX
  8
0
 10
-11.54997315
 20
-18.56210996
  0
VERTEX
  8
0
 10
-11.62159796
 20
-18.44590656
  0
VERTEX
  8
0
 10
-11.72553204
 20
-18.31294012
  0
VERTEX
  8
0
 10
-11.87474312
 20
-18.19233549
  0
VERTEX
  8
0
 10
-12.02269469
 20
-18.10751957
  0
VERTEX
  8
0
 10
-12.10375965
 20
-18.07821567
  0
VERTEX
  8
0
 10
-12.18526603
 20
-18.06497447
  0
VERTEX
  8
0
 10
-12.22053416
 20
-18.12502463
  0
VERTEX
  8
0
 10
-12.26863684
 20
-18.16715802
  0
VERTEX
  8
0
 10
-12.28898078
 20
-18.16826390
  0
VERTEX
  8
0
 10
-12.30230895
 20
-18.14900016
  0
VERTEX
  8
0
 10
-12.29428536
 20
-18.02817657
  0
VERTEX
  8
0
 10
-12.32847751
 20
-17.93593844
  0
VERTEX
  8
0
 10
-12.38503847
 20
-17.84503051
  0
VERTEX
  8
0
 10
-12.53206820
 20
-17.68072769
  0
VERTEX
  8
0
 10
-12.72936864
 20
-17.51683151
  0
VERTEX
  8
0
 10
-12.92438821
 20
-17.42469329
  0
VERTEX
  8
0
 10
-12.99106748
 20
-17.39794067
  0
VERTEX
  8
0
 10
-13.04229245
 20
-17.39037115
  0
VERTEX
  8
0
 10
-13.08188765
 20
-17.40671381
  0
VERTEX
  8
0
 10
-13.11367762
 20
-17.45169775
  0
VERTEX
  8
0
 10
-13.16913999
 20
-17.64650577
  0
VERTEX
  8
0
 10
-13.21255315
 20
-17.53999270
  0
VERTEX
  8
0
 10
-13.36877718
 20
-17.23929384
  0
VERTEX
  8
0
 10
-13.50011021
 20
-17.16086020
  0
VERTEX
  8
0
 10
-13.64353606
 20
-17.12119327
  0
VERTEX
  8
0
 10
-13.78760346
 20
-17.13102311
  0
VERTEX
  8
0
 10
-13.85629922
 20
-17.15785248
  0
VERTEX
  8
0
 10
-13.92086112
 20
-17.20107982
  0
VERTEX
  8
0
 10
-13.94627989
 20
-17.23371679
  0
VERTEX
  8
0
 10
-13.95043479
 20
-17.29732122
  0
VERTEX
  8
0
 10
-13.91699026
 20
-17.47388842
  0
VERTEX
  8
0
 10
-13.83734510
 20
-17.71964788
  0
VERTEX
  8
0
 10
-13.99562288
 20
-17.49480344
  0
VERTEX
  8
0
 10
-14.16191745
 20
-17.32926709
  0
VERTEX
  8
0
 10
-14.24948509
 20
-17.27446222
  0
VERTEX
  8
0
 10
-14.34075380
 20
-17.24135172
  0
VERTEX
  8
0
 10
-14.43628920
 20
-17.23222469
  0
VERTEX
  8
0
 10
-14.53665692
 20
-17.24937024
  0
VERTEX
  8
0
 10
-14.56150463
 20
-17.27175770
  0
VERTEX
  8
0
 10
-14.61032505
 20
-17.34068526
  0
VERTEX
  8
0
 10
-14.64453408
 20
-17.45880074
  0
VERTEX
  8
0
 10
-14.64410178
 20
-17.53713138
  0
VERTEX
  8
0
 10
-14.62554760
 20
-17.62875192
  0
VERTEX
  8
0
 10
-14.55473770
 20
-17.71152726
  0
VERTEX
  8
0
 10
-14.55101643
 20
-17.73615844
  0
VERTEX
  8
0
 10
-14.61061325
 20
-17.72062521
  0
VERTEX
  8
0
 10
-14.69567015
 20
-17.68493569
  0
VERTEX
  8
0
 10
-14.77019102
 20
-17.67845829
  0
VERTEX
  8
0
 10
-14.83392779
 20
-17.69365596
  0
VERTEX
  8
0
 10
-14.88663236
 20
-17.72299167
  0
VERTEX
  8
0
 10
-14.95795259
 20
-17.79392902
  0
VERTEX
  8
0
 10
-14.98216703
 20
-17.83097399
  0
VERTEX
  8
0
 10
-14.98156495
 20
-17.93683373
  0
VERTEX
  8
0
 10
-14.96292415
 20
-18.04053780
  0
VERTEX
  8
0
 10
-14.92662134
 20
-18.14165997
  0
VERTEX
  8
0
 10
-14.87303319
 20
-18.23977399
  0
VERTEX
  8
0
 10
-14.80253639
 20
-18.33445364
  0
VERTEX
  8
0
 10
-14.71550764
 20
-18.42527267
  0
VERTEX
  8
0
 10
-14.49336102
 20
-18.59362395
  0
VERTEX
  8
0
 10
-14.71429762
 20
-18.50076698
  0
VERTEX
  8
0
 10
-14.88867522
 20
-18.45685097
  0
VERTEX
  8
0
 10
-14.96215166
 20
-18.45656636
  0
VERTEX
  8
0
 10
-15.01517619
 20
-18.47874790
  0
VERTEX
  8
0
 10
-15.03377465
 20
-18.51932770
  0
VERTEX
  8
0
 10
-15.03776131
 20
-18.56965830
  0
VERTEX
  8
0
 10
-15.00934407
 20
-18.70240126
  0
VERTEX
  8
0
 10
-14.85906102
 20
-19.11601918
  0
VERTEX
  8
0
 10
-14.67466420
 20
-19.25136735
  0
VERTEX
  8
0
 10
-14.49807562
 20
-19.33695906
  0
VERTEX
  8
0
 10
-14.31330901
 20
-19.39468797
  0
VERTEX
  8
0
 10
-14.49013773
 20
-19.40174641
  0
VERTEX
  8
0
 10
-14.55480411
 20
-19.42667484
  0
VERTEX
  8
0
 10
-14.60005687
 20
-19.46941633
  0
VERTEX
  8
0
 10
-14.62320979
 20
-19.53263106
  0
VERTEX
  8
0
 10
-14.62157665
 20
-19.61897923
  0
VERTEX
  8
0
 10
-14.59247122
 20
-19.73112104
  0
VERTEX
  8
0
 10
-14.53320729
 20
-19.87171667
  0
VERTEX
  8
0
 10
-14.49893539
 20
-19.93694187
  0
VERTEX
  8
0
 10
-14.40080142
 20
-20.08482376
  0
VERTEX
  8
0
 10
-14.32998072
 20
-20.16735766
  0
VERTEX
  8
0
 10
-14.24582798
 20
-20.24367175
  0
VERTEX
  8
0
 10
-14.14922103
 20
-20.30480473
  0
VERTEX
  8
0
 10
-14.04103769
 20
-20.34179527
  0
VERTEX
  8
0
 10
-13.90080354
 20
-20.29853748
  0
VERTEX
  8
0
 10
-13.85294225
 20
-20.29894380
  0
VERTEX
  8
0
 10
-13.82216528
 20
-20.31173507
  0
VERTEX
  8
0
 10
-13.81015797
 20
-20.33518242
  0
VERTEX
  8
0
 10
-13.81860567
 20
-20.36755694
  0
VERTEX
  8
0
 10
-13.90360749
 20
-20.45217200
  0
VERTEX
  8
0
 10
-13.91129848
 20
-20.52483439
  0
VERTEX
  8
0
 10
-13.89852419
 20
-20.60312338
  0
VERTEX
  8
0
 10
-13.83554665
 20
-20.75769974
  0
VERTEX
  8
0
 10
-13.72764406
 20
-20.92667619
  0
VERTEX
  8
0
 10
-13.51059693
 20
-21.08112724
  0
VERTEX
  8
0
 10
-13.41686578
 20
-21.12173900
  0
VERTEX
  8
0
 10
-13.33340147
 20
-21.13808900
  0
VERTEX
  8
0
 10
-13.26050793
 20
-21.13028780
  0
VERTEX
  8
0
 10
-13.19848909
 20
-21.09844597
  0
VERTEX
  8
0
 10
-13.14764887
 20
-21.04267406
  0
VERTEX
  8
0
 10
-13.10829120
 20
-20.96308265
  0
VERTEX
  8
0
 10
-13.12684611
 20
-21.11783757
  0
VERTEX
  8
0
 10
-13.12821693
 20
-21.27585577
  0
VERTEX
  8
0
 10
-13.10491862
 20
-21.45614518
  0
VERTEX
  8
0
 10
-13.02557316
 20
-21.54304154
  0
VERTEX
  8
0
 10
-12.92846720
 20
-21.62487986
  0
VERTEX
  8
0
 10
-12.71139734
 20
-21.76321528
  0
VERTEX
  8
0
 10
-12.51455616
 20
-21.85081729
  0
VERTEX
  8
0
 10
-12.44273604
 20
-21.86923885
  0
VERTEX
  8
0
 10
-12.39879076
 20
-21.86735175
  0
VERTEX
  8
0
 10
-12.35592310
 20
-21.81667296
  0
VERTEX
  8
0
 10
-12.32865074
 20
-21.75120861
  0
VERTEX
  8
0
 10
-12.30871155
 20
-21.60248278
  0
VERTEX
  8
0
 10
-12.32199301
 20
-21.41975925
  0
VERTEX
  8
0
 10
-12.24240355
 20
-21.64775514
  0
VERTEX
  8
0
 10
-12.18932020
 20
-21.75017648
  0
VERTEX
  8
0
 10
-12.12502873
 20
-21.84340797
  0
VERTEX
  8
0
 10
-12.04776737
 20
-21.92634550
  0
VERTEX
  8
0
 10
-11.95577432
 20
-21.99788500
  0
VERTEX
  8
0
 10
-11.84728782
 20
-22.05692235
  0
VERTEX
  8
0
 10
-11.72054607
 20
-22.10235347
  0
VERTEX
  8
0
 10
-11.67771190
 20
-22.09744119
  0
VERTEX
  8
0
 10
-11.58098588
 20
-22.07115696
  0
VERTEX
  8
0
 10
-11.47803275
 20
-22.00617971
  0
VERTEX
  8
0
 10
-11.43911624
 20
-21.95376836
  0
VERTEX
  8
0
 10
-11.41651723
 20
-21.88518835
  0
VERTEX
  8
0
 10
-11.43554596
 20
-21.80737093
  0
VERTEX
  8
0
 10
-10.83137748
 20
-21.13109835
  0
VERTEX
  8
0
 10
-10.71901424
 20
-20.23389530
  0
SEQEND
  0
POLYLINE
  8
pobeda_orden_002
 66
   1
 39
0.000000
 70
    1
  0
VERTEX
  8
0
 10
-12.68234916
 20
-19.68522826
  0
VERTEX
  8
0
 10
-12.94559269
 20
-19.84868204
  0
VERTEX
  8
0
 10
-13.21877250
 20
-19.70244811
  0
VERTEX
  8
0
 10
-13.49195230
 20
-19.55621419
  0
VERTEX
  8
0
 10
-13.50188856
 20
-19.24650401
  0
VERTEX
  8
0
 10
-13.51182482
 20
-18.93679383
  0
VERTEX
  8
0
 10
-13.24860377
 20
-18.77334005
  0
VERTEX
  8
0
 10
-12.98536023
 20
-18.60988627
  0
VERTEX
  8
0
 10
-12.71218043
 20
-18.75612019
  0
VERTEX
  8
0
 10
-12.43900063
 20
-18.90237659
  0
VERTEX
  8
0
 10
-12.42906436
 20
-19.21206429
  0
VERTEX
  8
0
 10
-12.41910562
 20
-19.52177448
  0
VERTEX
  8
0
 10
-12.68234916
 20
-19.68522826
  0
SEQEND
  0
POLYLINE
  8
pobeda_orden_002
 66
   1
 39
0.000000
 70
    1
  0
VERTEX
  8
0
 10
12.18046944
 20
5.88292344
  0
VERTEX
  8
0
 10
12.04003246
 20
5.94783721
  0
VERTEX
  8
0
 10
11.84667125
 20
6.10638506
  0
VERTEX
  8
0
 10
11.68799082
 20
6.26677893
  0
VERTEX
  8
0
 10
11.56177370
 20
6.44766082
  0
VERTEX
  8
0
 10
11.64850510
 20
6.60126660
  0
VERTEX
  8
0
 10
11.53785225
 20
6.49048040
  0
VERTEX
  8
0
 10
11.45600173
 20
6.49385278
  0
VERTEX
  8
0
 10
11.36301636
 20
6.52344594
  0
VERTEX
  8
0
 10
11.17082388
 20
6.62841324
  0
VERTEX
  8
0
 10
10.95183124
 20
6.79130232
  0
VERTEX
  8
0
 10
10.79744382
 20
7.00704262
  0
VERTEX
  8
0
 10
10.75867729
 20
7.09789105
  0
VERTEX
  8
0
 10
10.74535138
 20
7.17702767
  0
VERTEX
  8
0
 10
10.75733297
 20
7.24417950
  0
VERTEX
  8
0
 10
10.79448893
 20
7.29907352
  0
VERTEX
  8
0
 10
10.85668612
 20
7.34143676
  0
VERTEX
  8
0
 10
10.94379144
 20
7.37099620
  0
VERTEX
  8
0
 10
10.77732486
 20
7.36746576
  0
VERTEX
  8
0
 10
10.60822993
 20
7.38022451
  0
VERTEX
  8
0
 10
10.41655018
 20
7.41792974
  0
VERTEX
  8
0
 10
10.16633419
 20
7.78844308
  0
VERTEX
  8
0
 10
10.01193933
 20
8.11167580
  0
VERTEX
  8
0
 10
10.06829161
 20
8.14707250
  0
VERTEX
  8
0
 10
10.13967938
 20
8.16664001
  0
VERTEX
  8
0
 10
10.29976109
 20
8.17198424
  0
VERTEX
  8
0
 10
10.49454716
 20
8.14338729
  0
VERTEX
  8
0
 10
10.25464155
 20
8.23771530
  0
VERTEX
  8
0
 10
10.05121756
 20
8.36434199
  0
VERTEX
  8
0
 10
9.96635817
 20
8.44362080
  0
VERTEX
  8
0
 10
9.89442557
 20
8.53559844
  0
VERTEX
  8
0
 10
9.83668856
 20
8.64181628
  0
VERTEX
  8
0
 10
9.79441595
 20
8.76381571
  0
VERTEX
  8
0
 10
9.80181042
 20
8.80324537
  0
VERTEX
  8
0
 10
9.83475707
 20
8.89093481
  0
VERTEX
  8
0
 10
9.90940075
 20
8.98098474
  0
VERTEX
  8
0
 10
9.96740423
 20
9.01255137
  0
VERTEX
  8
0
 10
10.04188628
 20
9.02749589
  0
VERTEX
  8
0
 10
10.33205268
 20
8.86462689
  0
VERTEX
  8
0
 10
10.07870500
 20
9.03228995
  0
VERTEX
  8
0
 10
10.00835054
 20
9.11612827
  0
VERTEX
  8
0
 10
9.96376080
 20
9.19923354
  0
VERTEX
  8
0
 10
9.93988587
 20
9.27838629
  0
VERTEX
  8
0
 10
9.93167585
 20
9.35036704
  0
VERTEX
  8
0
 10
9.94205096
 20
9.45993470
  0
VERTEX
  8
0
 10
9.95448693
 20
9.50218076
  0
VERTEX
  8
0
 10
10.02762100
 20
9.54270990
  0
VERTEX
  8
0
 10
10.10898733
 20
9.56167140
  0
VERTEX
  8
0
 10
10.19808992
 20
9.55933283
  0
VERTEX
  8
0
 10
10.29443277
 20
9.53596178
  0
VERTEX
  8
0
 10
10.39751989
 20
9.49182583
  0
VERTEX
  8
0
 10
10.50685527
 20
9.42719255
  0
VERTEX
  8
0
 10
10.74228683
 20
9.23750436
  0
VERTEX
  8
0
 10
10.58494797
 20
9.41289390
  0
VERTEX
  8
0
 10
10.44753714
 20
9.58335939
  0
VERTEX
  8
0
 10
10.32364337
 20
9.76565297
  0
VERTEX
  8
0
 10
10.48752637
 20
9.82312906
  0
VERTEX
  8
0
 10
10.60267101
 20
9.85222866
  0
VERTEX
  8
0
 10
10.90460624
 20
9.86108561
  0
VERTEX
  8
0
 10
11.09701411
 20
9.70188334
  0
VERTEX
  8
0
 10
11.25099748
 20
9.53229786
  0
VERTEX
  8
0
 10
11.39022415
 20
9.34247897
  0
VERTEX
  8
0
 10
11.29984010
 20
9.54842174
  0
VERTEX
  8
0
 10
11.28215701
 20
9.63243249
  0
VERTEX
  8
0
 10
11.28718166
 20
9.70106997
  0
VERTEX
  8
0
 10
11.31819037
 20
9.75228454
  0
VERTEX
  8
0
 10
11.37845947
 20
9.78402655
  0
VERTEX
  8
0
 10
11.47126529
 20
9.79424638
  0
VERTEX
  8
0
 10
11.59988415
 20
9.78089437
  0
VERTEX
  8
0
 10
11.81120413
 20
9.67891456
  0
VERTEX
  8
0
 10
12.00310151
 20
9.55859416
  0
VERTEX
  8
0
 10
12.18826596
 20
9.39841286
  0
VERTEX
  8
0
 10
12.23068469
 20
9.17232136
  0
VERTEX
  8
0
 10
12.22859576
 20
9.35772331
  0
VERTEX
  8
0
 10
12.27913958
 20
9.39165866
  0
VERTEX
  8
0
 10
12.35228242
 20
9.39904973
  0
VERTEX
  8
0
 10
12.53019479
 20
9.36134641
  0
VERTEX
  8
0
 10
12.75933360
 20
9.26602994
  0
VERTEX
  8
0
 10
12.98247451
 20
9.07675743
  0
VERTEX
  8
0
 10
13.06089355
 20
8.98486785
  0
VERTEX
  8
0
 10
13.11709506
 20
8.89533040
  0
VERTEX
  8
0
 10
13.15099161
 20
8.80853587
  0
VERTEX
  8
0
 10
13.16249577
 20
8.72487500
  0
VERTEX
  8
0
 10
13.15152011
 20
8.64473856
  0
VERTEX
  8
0
 10
13.11797720
 20
8.56851733
  0
VERTEX
  8
0
 10
13.20725065
 20
8.64538147
  0
VERTEX
  8
0
 10
13.30661699
 20
8.70642033
  0
VERTEX
  8
0
 10
13.43160266
 20
8.75138258
  0
VERTEX
  8
0
 10
12.18046944
 20
5.88292344
  0
SEQEND
  0
POLYLINE
  8
pobeda_orden_002
 66
   1
 39
0.000000
 70
    1
  0
VERTEX
  8
0
 10
15.10873160
 20
3.87156198
  0
VERTEX
  8
0
 10
14.95372752
 20
4.12595402
  0
VERTEX
  8
0
 10
14.89167400
 20
4.26194718
  0
VERTEX
  8
0
 10
14.87657000
 20
4.32943483
  0
VERTEX
  8
0
 10
14.87667568
 20
4.39555151
  0
VERTEX
  8
0
 10
14.78318040
 20
4.25384927
  0
VERTEX
  8
0
 10
14.69205793
 20
4.13222860
  0
VERTEX
  8
0
 10
14.59423815
 20
4.02610126
  0
VERTEX
  8
0
 10
14.45812075
 20
4.08589996
  0
VERTEX
  8
0
 10
14.32292158
 20
4.20686939
  0
VERTEX
  8
0
 10
14.25968356
 20
4.29420480
  0
VERTEX
  8
0
 10
14.20149578
 20
4.40152688
  0
VERTEX
  8
0
 10
14.14996513
 20
4.53040031
  0
VERTEX
  8
0
 10
14.10669849
 20
4.68238975
  0
VERTEX
  8
0
 10
14.10127888
 20
4.78143627
  0
VERTEX
  8
0
 10
14.11079549
 20
4.87023148
  0
VERTEX
  8
0
 10
14.15711378
 20
5.01342497
  0
VERTEX
  8
0
 10
14.21060608
 20
5.10468416
  0
VERTEX
  8
0
 10
14.23622512
 20
5.13672302
  0
VERTEX
  8
0
 10
14.16924256
 20
5.09563658
  0
VERTEX
  8
0
 10
14.10046529
 20
5.07067775
  0
VERTEX
  8
0
 10
14.02928935
 20
5.06515752
  0
VERTEX
  8
0
 10
13.95511077
 20
5.08238685
  0
VERTEX
  8
0
 10
13.87732560
 20
5.12567672
  0
VERTEX
  8
0
 10
13.79532988
 20
5.19833809
  0
VERTEX
  8
0
 10
13.70851965
 20
5.30368195
  0
VERTEX
  8
0
 10
13.61629094
 20
5.44501926
  0
VERTEX
  8
0
 10
13.55039689
 20
5.62520637
  0
VERTEX
  8
0
 10
13.51796281
 20
5.79263229
  0
VERTEX
  8
0
 10
13.51643794
 20
5.87881767
  0
VERTEX
  8
0
 10
13.53025601
 20
5.96022824
  0
VERTEX
  8
0
 10
13.59848298
 20
5.97419049
  0
VERTEX
  8
0
 10
13.65390415
 20
6.00609009
  0
VERTEX
  8
0
 10
13.66152718
 20
6.02498423
  0
VERTEX
  8
0
 10
13.64760631
 20
6.04382411
  0
VERTEX
  8
0
 10
13.53067624
 20
6.07528963
  0
VERTEX
  8
0
 10
13.45444379
 20
6.13746348
  0
VERTEX
  8
0
 10
13.38670121
 20
6.22037510
  0
VERTEX
  8
0
 10
13.27875006
 20
6.41262417
  0
VERTEX
  8
0
 10
13.18743458
 20
6.65231336
  0
VERTEX
  8
0
 10
13.16328688
 20
6.86664715
  0
VERTEX
  8
0
 10
13.15952589
 20
6.93839450
  0
VERTEX
  8
0
 10
13.16892214
 20
6.98931607
  0
VERTEX
  8
0
 10
13.19718716
 20
7.02150227
  0
VERTEX
  8
0
 10
13.25003246
 20
7.03704353
  0
VERTEX
  8
0
 10
13.45230996
 20
7.02655297
  0
VERTEX
  8
0
 10
13.36554987
 20
7.10206736
  0
VERTEX
  8
0
 10
13.13149830
 20
7.34710942
  0
VERTEX
  8
0
 10
13.09973159
 20
7.49674590
  0
VERTEX
  8
0
 10
13.10855933
 20
7.64529392
  0
VERTEX
  8
0
 10
13.16443364
 20
7.77844835
  0
VERTEX
  8
0
 10
13.21202956
 20
7.83478262
  0
VERTEX
  8
0
 10
13.27380667
 20
7.88190408
  0
VERTEX
  8
0
 10
13.31290834
 20
7.89540760
  0
VERTEX
  8
0
 10
13.37444084
 20
7.87877818
  0
VERTEX
  8
0
 10
13.53071624
 20
7.79005099
  0
VERTEX
  8
0
 10
13.73753365
 20
7.63523620
  0
VERTEX
  8
0
 10
13.57592762
 20
7.85770051
  0
VERTEX
  8
0
 10
13.47303686
 20
8.06857882
  0
VERTEX
  8
0
 10
13.44948234
 20
8.16916137
  0
VERTEX
  8
0
 10
13.44765379
 20
8.26623319
  0
VERTEX
  8
0
 10
13.46990026
 20
8.35958955
  0
VERTEX
  8
0
 10
13.51857081
 20
8.44902570
  0
VERTEX
  8
0
 10
13.54778869
 20
8.46530216
  0
VERTEX
  8
0
 10
13.62879741
 20
8.48921928
  0
VERTEX
  8
0
 10
13.75162966
 20
8.48340869
  0
VERTEX
  8
0
 10
13.82561480
 20
8.45767789
  0
VERTEX
  8
0
 10
13.90631808
 20
8.41050202
  0
VERTEX
  8
0
 10
13.96175850
 20
8.31673551
  0
VERTEX
  8
0
 10
13.98386421
 20
8.30525160
  0
VERTEX
  8
0
 10
13.98843069
 20
8.36666991
  0
VERTEX
  8
0
 10
13.98215352
 20
8.45869716
  0
VERTEX
  8
0
 10
14.00011406
 20
8.53131077
  0
VERTEX
  8
0
 10
14.03509974
 20
8.58671246
  0
VERTEX
  8
0
 10
14.07989800
 20
8.62710393
  0
VERTEX
  8
0
 10
14.17008205
 20
8.67166310
  0
VERTEX
  8
0
 10
14.21296572
 20
8.68260200
  0
VERTEX
  8
0
 10
14.31294698
 20
8.64781127
  0
VERTEX
  8
0
 10
14.40505700
 20
8.59664722
  0
VERTEX
  8
0
 10
14.48901418
 20
8.52960411
  0
VERTEX
  8
0
 10
14.56453695
 20
8.44717619
  0
VERTEX
  8
0
 10
14.63134374
 20
8.34985771
  0
VERTEX
  8
0
 10
14.68915296
 20
8.23814292
  0
VERTEX
  8
0
 10
14.77665237
 20
7.97350141
  0
VERTEX
  8
0
 10
14.76020265
 20
8.21259304
  0
VERTEX
  8
0
 10
14.77501514
 20
8.39180451
  0
VERTEX
  8
0
 10
14.79849832
 20
8.46142785
  0
VERTEX
  8
0
 10
14.83662998
 20
8.50443480
  0
VERTEX
  8
0
 10
14.88104322
 20
8.50891656
  0
VERTEX
  8
0
 10
14.92996022
 20
8.49641893
  0
VERTEX
  8
0
 10
15.04638955
 20
8.42661604
  0
VERTEX
  8
0
 10
15.38921782
 20
8.15069295
  0
VERTEX
  8
0
 10
15.45768941
 20
7.93244319
  0
VERTEX
  8
0
 10
15.48160023
 20
7.73766707
  0
VERTEX
  8
0
 10
15.47650057
 20
7.54415913
  0
VERTEX
  8
0
 10
15.54034294
 20
7.70921175
  0
VERTEX
  8
0
 10
15.58483742
 20
7.76234751
  0
VERTEX
  8
0
 10
15.63991275
 20
7.79135363
  0
VERTEX
  8
0
 10
15.70721792
 20
7.79282817
  0
VERTEX
  8
0
 10
15.78840193
 20
7.76336919
  0
VERTEX
  8
0
 10
15.88511376
 20
7.69957474
  0
VERTEX
  8
0
 10
15.99900241
 20
7.59804288
  0
VERTEX
  8
0
 10
16.04964655
 20
7.54452594
  0
VERTEX
  8
0
 10
16.15786484
 20
7.40385565
  0
VERTEX
  8
0
 10
16.21307330
 20
7.31015698
  0
VERTEX
  8
0
 10
16.25808610
 20
7.20585275
  0
VERTEX
  8
0
 10
16.28470686
 20
7.09467056
  0
VERTEX
  8
0
 10
16.28473918
 20
6.98033801
  0
VERTEX
  8
0
 10
16.19847090
 20
6.86161716
  0
VERTEX
  8
0
 10
16.18338342
 20
6.81619430
  0
VERTEX
  8
0
 10
16.18553872
 20
6.78293482
  0
VERTEX
  8
0
 10
16.20384556
 20
6.76399245
  0
VERTEX
  8
0
 10
16.23721269
 20
6.76152096
  0
VERTEX
  8
0
 10
16.34476287
 20
6.81460557
  0
VERTEX
  8
0
 10
16.41601010
 20
6.79839425
  0
VERTEX
  8
0
 10
16.48596606
 20
6.76099758
  0
VERTEX
  8
0
 10
16.61188430
 20
6.65143199
  0
VERTEX
  8
0
 10
16.73690667
 20
6.49469840
  0
VERTEX
  8
0
 10
16.81290069
 20
6.23937607
  0
VERTEX
  8
0
 10
16.82103171
 20
6.13754911
  0
VERTEX
  8
0
 10
16.80952257
 20
6.05328077
  0
VERTEX
  8
0
 10
16.77857615
 20
5.98682292
  0
VERTEX
  8
0
 10
16.72839533
 20
5.93842743
  0
VERTEX
  8
0
 10
16.65918297
 20
5.90834616
  0
VERTEX
  8
0
 10
16.57114196
 20
5.89683098
  0
VERTEX
  8
0
 10
16.72358593
 20
5.86436245
  0
VERTEX
  8
0
 10
16.87356292
 20
5.81457758
  0
VERTEX
  8
0
 10
17.03664061
 20
5.73424857
  0
VERTEX
  8
0
 10
17.09322152
 20
5.63107260
  0
VERTEX
  8
0
 10
17.13927459
 20
5.51272484
  0
VERTEX
  8
0
 10
17.20001092
 20
5.26259066
  0
VERTEX
  8
0
 10
17.21927710
 20
5.04799947
  0
VERTEX
  8
0
 10
17.21349248
 20
4.97408045
  0
VERTEX
  8
0
 10
17.19750064
 20
4.93310473
  0
VERTEX
  8
0
 10
17.13568520
 20
4.90892152
  0
VERTEX
  8
0
 10
17.06491952
 20
4.90427594
  0
VERTEX
  8
0
 10
16.91773343
 20
4.93348551
  0
VERTEX
  8
0
 10
16.74911420
 20
5.00512237
  0
VERTEX
  8
0
 10
16.93913982
 20
4.85610267
  0
VERTEX
  8
0
 10
17.01890183
 20
4.77276003
  0
VERTEX
  8
0
 10
17.08634419
 20
4.68178184
  0
VERTEX
  8
0
 10
17.13985256
 20
4.58185783
  0
VERTEX
  8
0
 10
17.17781261
 20
4.47167774
  0
VERTEX
  8
0
 10
17.19860999
 20
4.34993128
  0
VERTEX
  8
0
 10
17.20063037
 20
4.21530819
  0
VERTEX
  8
0
 10
17.18213496
 20
4.17636187
  0
VERTEX
  8
0
 10
17.12599365
 20
4.09332611
  0
VERTEX
  8
0
 10
17.03122381
 20
4.01690577
  0
VERTEX
  8
0
 10
16.96904612
 20
3.99702165
  0
VERTEX
  8
0
 10
16.89684280
 20
3.99780569
  0
VERTEX
  8
0
 10
16.82935494
 20
4.04096854
  0
VERTEX
  8
0
 10
15.99408514
 20
3.68785592
  0
VERTEX
  8
0
 10
15.10873160
 20
3.87156198
  0
SEQEND
  0
POLYLINE
  8
pobeda_orden_002
 66
   1
 39
0.000000
 70
    1
  0
VERTEX
  8
0
 10
14.74178934
 20
5.62816051
  0
VERTEX
  8
0
 10
15.00503287
 20
5.46470673
  0
VERTEX
  8
0
 10
15.27821267
 20
5.61094065
  0
VERTEX
  8
0
 10
15.55139248
 20
5.75717457
  0
VERTEX
  8
0
 10
15.56132874
 20
6.06688475
  0
VERTEX
  8
0
 10
15.57126500
 20
6.37659493
  0
VERTEX
  8
0
 10
15.30804394
 20
6.54004871
  0
VERTEX
  8
0
 10
15.04480041
 20
6.70350249
  0
VERTEX
  8
0
 10
14.77162061
 20
6.55726857
  0
VERTEX
  8
0
 10
14.49844080
 20
6.41101217
  0
VERTEX
  8
0
 10
14.48850454
 20
6.10132447
  0
VERTEX
  8
0
 10
14.47854580
 20
5.79161429
  0
VERTEX
  8
0
 10
14.74178934
 20
5.62816051
  0
SEQEND
  0
POLYLINE
  8
pobeda_orden_002
 66
   1
 39
0.000000
 70
    1
  0
VERTEX
  8
0
 10
12.58017837
 20
3.05112181
  0
VERTEX
  8
0
 10
12.84342190
 20
2.88766803
  0
VERTEX
  8
0
 10
13.11660170
 20
3.03390195
  0
VERTEX
  8
0
 10
13.38978151
 20
3.18013587
  0
VERTEX
  8
0
 10
13.39971777
 20
3.48984605
  0
VERTEX
  8
0
 10
13.40965403
 20
3.79955623
  0
VERTEX
  8
0
 10
13.14643297
 20
3.96301001
  0
VERTEX
  8
0
 10
12.88318944
 20
4.12646379
  0
VERTEX
  8
0
 10
12.61000964
 20
3.98022987
  0
VERTEX
  8
0
 10
12.33682983
 20
3.83397347
  0
VERTEX
  8
0
 10
12.32689357
 20
3.52428577
  0
VERTEX
  8
0
 10
12.31693483
 20
3.21457559
  0
VERTEX
  8
0
 10
12.58017837
 20
3.05112181
  0
SEQEND
  0
POLYLINE
  8
pobeda_orden_002
 66
   1
 39
0.000000
 70
    1
  0
VERTEX
  8
0
 10
13.16326818
 20
1.30414417
  0
VERTEX
  8
0
 10
12.96455521
 20
1.52607824
  0
VERTEX
  8
0
 10
12.87878825
 20
1.64850702
  0
VERTEX
  8
0
 10
12.85165423
 20
1.71211880
  0
VERTEX
  8
0
 10
12.83972540
 20
1.77715056
  0
VERTEX
  8
0
 10
12.77358026
 20
1.62079930
  0
VERTEX
  8
0
 10
12.70611361
 20
1.48462610
  0
VERTEX
  8
0
 10
12.62924182
 20
1.36246862
  0
VERTEX
  8
0
 10
12.48451468
 20
1.39649632
  0
VERTEX
  8
0
 10
12.32955780
 20
1.49084030
  0
VERTEX
  8
0
 10
12.25148147
 20
1.56520833
  0
VERTEX
  8
0
 10
12.17473360
 20
1.66014838
  0
VERTEX
  8
0
 10
12.10060950
 20
1.77749141
  0
VERTEX
  8
0
 10
12.03040446
 20
1.91906841
  0
VERTEX
  8
0
 10
12.00704962
 20
2.01547451
  0
VERTEX
  8
0
 10
12.00024724
 20
2.10451878
  0
VERTEX
  8
0
 10
12.01973184
 20
2.25375051
  0
VERTEX
  8
0
 10
12.05572232
 20
2.35322087
  0
VERTEX
  8
0
 10
12.07508269
 20
2.38938715
  0
VERTEX
  8
0
 10
12.01669618
 20
2.33679653
  0
VERTEX
  8
0
 10
11.95360981
 20
2.29973756
  0
VERTEX
  8
0
 10
11.88462716
 20
2.28135602
  0
VERTEX
  8
0
 10
11.80855176
 20
2.28479767
  0
VERTEX
  8
0
 10
11.72418717
 20
2.31320826
  0
VERTEX
  8
0
 10
11.63033695
 20
2.36973357
  0
VERTEX
  8
0
 10
11.52580466
 20
2.45751935
  0
VERTEX
  8
0
 10
11.40939384
 20
2.57971137
  0
VERTEX
  8
0
 10
11.31180749
 20
2.74489711
  0
VERTEX
  8
0
 10
11.24944478
 20
2.90362423
  0
VERTEX
  8
0
 10
11.23226028
 20
2.98809280
  0
VERTEX
  8
0
 10
11.23103147
 20
3.07065858
  0
VERTEX
  8
0
 10
11.29557801
 20
3.09680447
  0
VERTEX
  8
0
 10
11.34426814
 20
3.13825759
  0
VERTEX
  8
0
 10
11.34832528
 20
3.15822353
  0
VERTEX
  8
0
 10
11.33120816
 20
3.17421529
  0
VERTEX
  8
0
 10
11.21050436
 20
3.18387491
  0
VERTEX
  8
0
 10
11.12422981
 20
3.23113671
  0
VERTEX
  8
0
 10
11.04252924
 20
3.30033505
  0
VERTEX
  8
0
 10
10.90139297
 20
3.46972723
  0
VERTEX
  8
0
 10
10.76798081
 20
3.68879484
  0
VERTEX
  8
0
 10
10.70522921
 20
3.89515453
  0
VERTEX
  8
0
 10
10.68847353
 20
3.96501923
  0
VERTEX
  8
0
 10
10.68844552
 20
4.01680044
  0
VERTEX
  8
0
 10
10.71038086
 20
4.05359316
  0
VERTEX
  8
0
 10
10.75951524
 20
4.07849234
  0
VERTEX
  8
0
 10
10.96032389
 20
4.10498997
  0
VERTEX
  8
0
 10
10.86126964
 20
4.16345357
  0
VERTEX
  8
0
 10
10.58653091
 20
4.36180775
  0
VERTEX
  8
0
 10
10.52806197
 20
4.50316398
  0
VERTEX
  8
0
 10
10.50970765
 20
4.65083781
  0
VERTEX
  8
0
 10
10.54041573
 20
4.79193726
  0
VERTEX
  8
0
 10
10.57696437
 20
4.85599285
  0
VERTEX
  8
0
 10
10.62913404
 20
4.91357035
  0
VERTEX
  8
0
 10
10.66512516
 20
4.93396458
  0
VERTEX
  8
0
 10
10.72865650
 20
4.92881134
  0
VERTEX
  8
0
 10
10.89846977
 20
4.87000687
  0
VERTEX
  8
0
 10
11.13000847
 20
4.75541674
  0
VERTEX
  8
0
 10
10.93061441
 20
4.94475477
  0
VERTEX
  8
0
 10
10.79106364
 20
5.13338603
  0
VERTEX
  8
0
 10
10.74959720
 20
5.22800209
  0
VERTEX
  8
0
 10
10.73013283
 20
5.32312002
  0
VERTEX
  8
0
 10
10.73501762
 20
5.41896601
  0
VERTEX
  8
0
 10
10.76659865
 20
5.51576625
  0
VERTEX
  8
0
 10
10.79236638
 20
5.53708833
  0
VERTEX
  8
0
 10
10.86766952
 20
5.57534903
  0
VERTEX
  8
0
 10
10.98950793
 20
5.59199004
  0
VERTEX
  8
0
 10
11.06694034
 20
5.58015369
  0
VERTEX
  8
0
 10
11.15488152
 20
5.54845306
  0
VERTEX
  8
0
 10
11.22646089
 20
5.46634221
  0
VERTEX
  8
0
 10
11.25028743
 20
5.45907316
  0
VERTEX
  8
0
 10
11.24359996
 20
5.52029684
  0
VERTEX
  8
0
 10
11.22067934
 20
5.60964483
  0
VERTEX
  8
0
 10
11.22512479
 20
5.68431447
  0
VERTEX
  8
0
 10
11.24944351
 20
5.74515808
  0
VERTEX
  8
0
 10
11.28614269
 20
5.79302796
  0
VERTEX
  8
0
 10
11.36671121
 20
5.85325582
  0
VERTEX
  8
0
 10
11.40688793
 20
5.87181655
  0
VERTEX
  8
0
 10
11.51153115
 20
5.85580268
  0
VERTEX
  8
0
 10
11.61141439
 20
5.82225642
  0
VERTEX
  8
0
 10
11.70617083
 20
5.77161252
  0
VERTEX
  8
0
 10
11.79543364
 20
5.70430574
  0
VERTEX
  8
0
 10
11.87883599
 20
5.62077083
  0
VERTEX
  8
0
 10
11.95601106
 20
5.52144254
  0
VERTEX
  8
0
 10
12.09021202
 20
5.27714482
  0
VERTEX
  8
0
 10
12.03052410
 20
5.50924987
  0
VERTEX
  8
0
 10
12.01247406
 20
5.68816425
  0
VERTEX
  8
0
 10
12.02289413
 20
5.76089864
  0
VERTEX
  8
0
 10
12.05256204
 20
5.81012705
  0
VERTEX
  8
0
 10
12.09541793
 20
5.82261684
  0
VERTEX
  8
0
 10
12.14579249
 20
5.81923047
  0
VERTEX
  8
0
 10
12.27298105
 20
5.77178257
  0
VERTEX
  8
0
 10
12.66030001
 20
5.56285963
  0
VERTEX
  8
0
 10
12.76734797
 20
5.36071599
  0
VERTEX
  8
0
 10
12.82630729
 20
5.17354424
  0
VERTEX
  8
0
 10
12.85650981
 20
4.98233981
  0
VERTEX
  8
0
 10
12.88924765
 20
5.15625488
  0
VERTEX
  8
0
 10
12.92332875
 20
5.21660092
  0
VERTEX
  8
0
 10
12.97220542
 20
5.25514594
  0
VERTEX
  8
0
 10
13.03811823
 20
5.26884490
  0
VERTEX
  8
0
 10
13.12330777
 20
5.25465278
  0
VERTEX
  8
0
 10
13.23001462
 20
5.20952454
  0
VERTEX
  8
0
 10
13.36047937
 20
5.13041517
  0
VERTEX
  8
0
 10
13.42001743
 20
5.08700883
  0
VERTEX
  8
0
 10
13.55202942
 20
4.96838268
  0
VERTEX
  8
0
 10
13.62336836
 20
4.88629631
  0
VERTEX
  8
0
 10
13.68661205
 20
4.79192598
  0
VERTEX
  8
0
 10
13.73302258
 20
4.68744532
  0
VERTEX
  8
0
 10
13.75386203
 20
4.57502801
  0
VERTEX
  8
0
 10
13.69064076
 20
4.44258963
  0
VERTEX
  8
0
 10
13.68407187
 20
4.39517953
  0
VERTEX
  8
0
 10
13.69224416
 20
4.36286773
  0
VERTEX
  8
0
 10
13.71369264
 20
4.34757341
  0
VERTEX
  8
0
 10
13.74695233
 20
4.35121576
  0
VERTEX
  8
0
 10
13.84304540
 20
4.42298719
  0
VERTEX
  8
0
 10
13.91605313
 20
4.42001308
  0
VERTEX
  8
0
 10
13.99164675
 20
4.39597240
  0
VERTEX
  8
0
 10
14.13540226
 20
4.31115276
  0
VERTEX
  8
0
 10
14.28686110
 20
4.17978978
  0
VERTEX
  8
0
 10
14.40805279
 20
3.94256171
  0
VERTEX
  8
0
 10
14.43457978
 20
3.84391506
  0
VERTEX
  8
0
 10
14.43859906
 20
3.75895943
  0
VERTEX
  8
0
 10
14.42026429
 20
3.68797942
  0
VERTEX
  8
0
 10
14.37972911
 20
3.63125959
  0
VERTEX
  8
0
 10
14.31714717
 20
3.58908455
  0
VERTEX
  8
0
 10
14.23267213
 20
3.56173886
  0
VERTEX
  8
0
 10
14.38847931
 20
3.55755623
  0
VERTEX
  8
0
 10
14.54501215
 20
3.53589748
  0
VERTEX
  8
0
 10
14.71998571
 20
3.48658890
  0
VERTEX
  8
0
 10
14.79439898
 20
3.39543330
  0
VERTEX
  8
0
 10
14.86122138
 20
3.28744328
  0
VERTEX
  8
0
 10
14.96646598
 20
3.05253993
  0
VERTEX
  8
0
 10
15.02446442
 20
2.84503874
  0
VERTEX
  8
0
 10
15.03222912
 20
2.77130141
  0
VERTEX
  8
0
 10
15.02396162
 20
2.72809959
  0
VERTEX
  8
0
 10
14.96757968
 20
2.69307029
  0
VERTEX
  8
0
 10
14.89884125
 20
2.67562346
  0
VERTEX
  8
0
 10
14.74879726
 20
2.67755845
  0
VERTEX
  8
0
 10
14.56995660
 20
2.71731151
  0
VERTEX
  8
0
 10
14.78392926
 20
2.60536371
  0
VERTEX
  8
0
 10
14.87752698
 20
2.53792900
  0
VERTEX
  8
0
 10
14.96040041
 20
2.46074417
  0
VERTEX
  8
0
 10
15.03120062
 20
2.37222703
  0
VERTEX
  8
0
 10
15.08857869
 20
2.27079540
  0
VERTEX
  8
0
 10
15.13118571
 20
2.15486709
  0
VERTEX
  8
0
 10
15.15767276
 20
2.02285992
  0
VERTEX
  8
0
 10
15.14657417
 20
1.98119797
  0
VERTEX
  8
0
 10
15.10648232
 20
1.88933162
  0
VERTEX
  8
0
 10
15.02720308
 20
1.79694010
  0
VERTEX
  8
0
 10
14.96968253
 20
1.76607216
  0
VERTEX
  8
0
 10
14.89854233
 20
1.75370264
  0
VERTEX
  8
0
 10
14.82432619
 20
1.78386237
  0
VERTEX
  8
0
 10
14.06726937
 20
1.28463383
  0
VERTEX
  8
0
 10
13.16326818
 20
1.30414417
  0
SEQEND
  0
POLYLINE
  8
pobeda_orden_002
 66
   1
 39
0.000000
 70
    1
  0
VERTEX
  8
0
 10
17.63301981
 20
0.84446954
  0
VERTEX
  8
0
 10
17.89626335
 20
0.68101576
  0
VERTEX
  8
0
 10
18.16944315
 20
0.82724969
  0
VERTEX
  8
0
 10
18.44262295
 20
0.97348361
  0
VERTEX
  8
0
 10
18.45255921
 20
1.28319379
  0
VERTEX
  8
0
 10
18.46249548
 20
1.59290397
  0
VERTEX
  8
0
 10
18.19927442
 20
1.75635775
  0
VERTEX
  8
0
 10
17.93603088
 20
1.91981153
  0
VERTEX
  8
0
 10
17.66285108
 20
1.77357761
  0
VERTEX
  8
0
 10
17.38967128
 20
1.62732121
  0
VERTEX
  8
0
 10
17.37973502
 20
1.31763351
  0
VERTEX
  8
0
 10
17.36977627
 20
1.00792332
  0
VERTEX
  8
0
 10
17.63301981
 20
0.84446954
  0
SEQEND
  0
POLYLINE
  8
pobeda_orden_002
 66
   1
 39
0.000000
 70
    1
  0
VERTEX
  8
0
 10
17.50531521
 20
-0.96903969
  0
VERTEX
  8
0
 10
17.38725487
 20
-0.69553771
  0
VERTEX
  8
0
 10
17.34474794
 20
-0.55222707
  0
VERTEX
  8
0
 10
17.33919113
 20
-0.48329351
  0
VERTEX
  8
0
 10
17.34850481
 20
-0.41783603
  0
VERTEX
  8
0
 10
17.23618397
 20
-0.54513459
  0
VERTEX
  8
0
 10
17.12900988
 20
-0.65287782
  0
VERTEX
  8
0
 10
17.01736172
 20
-0.74434592
  0
VERTEX
  8
0
 10
16.89090016
 20
-0.66617109
  0
VERTEX
  8
0
 10
16.77386800
 20
-0.52754969
  0
VERTEX
  8
0
 10
16.72341085
 20
-0.43225753
  0
VERTEX
  8
0
 10
16.68073854
 20
-0.31787693
  0
VERTEX
  8
0
 10
16.64766023
 20
-0.18308229
  0
VERTEX
  8
0
 10
16.62598509
 20
-0.02654801
  0
VERTEX
  8
0
 10
16.63441393
 20
0.07228791
  0
VERTEX
  8
0
 10
16.65620556
 20
0.15889207
  0
VERTEX
  8
0
 10
16.72201697
 20
0.29423836
  0
VERTEX
  8
0
 10
16.78769882
 20
0.37715736
  0
VERTEX
  8
0
 10
16.81753066
 20
0.40531558
  0
VERTEX
  8
0
 10
16.74547832
 20
0.37395925
  0
VERTEX
  8
0
 10
16.67389508
 20
0.35882331
  0
VERTEX
  8
0
 10
16.60264405
 20
0.36327058
  0
VERTEX
  8
0
 10
16.53158831
 20
0.39066388
  0
VERTEX
  8
0
 10
16.46059096
 20
0.44436603
  0
VERTEX
  8
0
 10
16.38951508
 20
0.52773985
  0
VERTEX
  8
0
 10
16.31822379
 20
0.64414817
  0
VERTEX
  8
0
 10
16.24658016
 20
0.79695380
  0
VERTEX
  8
0
 10
16.20642565
 20
0.98456253
  0
VERTEX
  8
0
 10
16.19762753
 20
1.15487401
  0
VERTEX
  8
0
 10
16.20812180
 20
1.24043169
  0
VERTEX
  8
0
 10
16.23314440
 20
1.31912406
  0
VERTEX
  8
0
 10
16.30265104
 20
1.32344727
  0
VERTEX
  8
0
 10
16.36197510
 20
1.34731663
  0
VERTEX
  8
0
 10
16.37215548
 20
1.36496483
  0
VERTEX
  8
0
 10
16.36099440
 20
1.38556002
  0
VERTEX
  8
0
 10
16.24958678
 20
1.43300534
  0
VERTEX
  8
0
 10
16.18275725
 20
1.50519114
  0
VERTEX
  8
0
 10
16.12722328
 20
1.59673005
  0
VERTEX
  8
0
 10
16.04710167
 20
1.80214107
  0
VERTEX
  8
0
 10
15.99006125
 20
2.05221268
  0
VERTEX
  8
0
 10
15.99600227
 20
2.26782063
  0
VERTEX
  8
0
 10
16.00227121
 20
2.33939247
  0
VERTEX
  8
0
 10
16.01866845
 20
2.38850892
  0
VERTEX
  8
0
 10
16.05114099
 20
2.41644451
  0
VERTEX
  8
0
 10
16.10563583
 20
2.42447377
  0
VERTEX
  8
0
 10
16.30448045
 20
2.38591137
  0
VERTEX
  8
0
 10
16.22908403
 20
2.47277401
  0
VERTEX
  8
0
 10
16.03144440
 20
2.74802722
  0
VERTEX
  8
0
 10
16.02082936
 20
2.90062971
  0
VERTEX
  8
0
 10
16.05026146
 20
3.04650018
  0
VERTEX
  8
0
 10
16.12413746
 20
3.17057426
  0
VERTEX
  8
0
 10
16.17911592
 20
3.21973005
  0
VERTEX
  8
0
 10
16.24685413
 20
3.25778760
  0
VERTEX
  8
0
 10
16.28745548
 20
3.26571325
  0
VERTEX
  8
0
 10
16.34607198
 20
3.24067542
  0
VERTEX
  8
0
 10
16.48846576
 20
3.13104639
  0
VERTEX
  8
0
 10
16.67170394
 20
2.94893424
  0
VERTEX
  8
0
 10
16.54265896
 20
3.19173925
  0
VERTEX
  8
0
 10
16.47014318
 20
3.41489307
  0
VERTEX
  8
0
 10
16.46082783
 20
3.51777596
  0
VERTEX
  8
0
 10
16.47253768
 20
3.61415626
  0
VERTEX
  8
0
 10
16.50757038
 20
3.70350404
  0
VERTEX
  8
0
 10
16.56822357
 20
3.78528936
  0
VERTEX
  8
0
 10
16.59942370
 20
3.79733757
  0
VERTEX
  8
0
 10
16.68297407
 20
3.80973832
  0
VERTEX
  8
0
 10
16.80379967
 20
3.78687576
  0
VERTEX
  8
0
 10
16.87347974
 20
3.75109080
  0
VERTEX
  8
0
 10
16.94682550
 20
3.69313407
  0
VERTEX
  8
0
 10
16.98866531
 20
3.59255958
  0
VERTEX
  8
0
 10
17.00895601
 20
3.57810863
  0
VERTEX
  8
0
 10
17.02203259
 20
3.63829222
  0
VERTEX
  8
0
 10
17.02863456
 20
3.73029674
  0
VERTEX
  8
0
 10
17.05653396
 20
3.79970093
  0
VERTEX
  8
0
 10
17.09889520
 20
3.84968962
  0
VERTEX
  8
0
 10
17.14888269
 20
3.88344768
  0
VERTEX
  8
0
 10
17.24439405
 20
3.91501129
  0
VERTEX
  8
0
 10
17.28838334
 20
3.91987053
  0
VERTEX
  8
0
 10
17.38254422
 20
3.87149310
  0
VERTEX
  8
0
 10
17.46663003
 20
3.80799830
  0
VERTEX
  8
0
 10
17.54043078
 20
3.72991478
  0
VERTEX
  8
0
 10
17.60373647
 20
3.63777119
  0
VERTEX
  8
0
 10
17.65633712
 20
3.53209619
  0
VERTEX
  8
0
 10
17.69802272
 20
3.41341843
  0
VERTEX
  8
0
 10
17.74780881
 20
3.13916924
  0
VERTEX
  8
0
 10
17.76482115
 20
3.37822149
  0
VERTEX
  8
0
 10
17.80445060
 20
3.55362294
  0
VERTEX
  8
0
 10
17.83740232
 20
3.61929678
  0
VERTEX
  8
0
 10
17.88115248
 20
3.65657338
  0
VERTEX
  8
0
 10
17.92575704
 20
3.65482538
  0
VERTEX
  8
0
 10
17.97245650
 20
3.63563621
  0
VERTEX
  8
0
 10
18.07802847
 20
3.55029694
  0
VERTEX
  8
0
 10
18.37908324
 20
3.22931282
  0
VERTEX
  8
0
 10
18.41648863
 20
3.00365345
  0
VERTEX
  8
0
 10
18.41303712
 20
2.80744552
  0
VERTEX
  8
0
 10
18.38103454
 20
2.61653412
  0
VERTEX
  8
0
 10
18.46724385
 20
2.77108564
  0
VERTEX
  8
0
 10
18.51870559
 20
2.81750606
  0
VERTEX
  8
0
 10
18.57728417
 20
2.83855831
  0
VERTEX
  8
0
 10
18.64413866
 20
2.83064392
  0
VERTEX
  8
0
 10
18.72042815
 20
2.79016444
  0
VERTEX
  8
0
 10
18.80731171
 20
2.71352139
  0
VERTEX
  8
0
 10
18.90594842
 20
2.59711631
  0
VERTEX
  8
0
 10
18.94864483
 20
2.53706711
  0
VERTEX
  8
0
 10
19.03621509
 20
2.38269489
  0
VERTEX
  8
0
 10
19.07783464
 20
2.28221988
  0
VERTEX
  8
0
 10
19.10788074
 20
2.17266279
  0
VERTEX
  8
0
 10
19.11875608
 20
2.05885650
  0
VERTEX
  8
0
 10
19.10286335
 20
1.94563391
  0
VERTEX
  8
0
 10
19.00090002
 20
1.84008612
  0
VERTEX
  8
0
 10
18.97963292
 20
1.79720747
  0
VERTEX
  8
0
 10
18.97713468
 20
1.76397199
  0
VERTEX
  8
0
 10
18.99262470
 20
1.74266441
  0
VERTEX
  8
0
 10
19.02532234
 20
1.73556949
  0
VERTEX
  8
0
 10
19.13921802
 20
1.77315660
  0
VERTEX
  8
0
 10
19.20751278
 20
1.74717968
  0
VERTEX
  8
0
 10
19.27157807
 20
1.70040377
  0
VERTEX
  8
0
 10
19.38100815
 20
1.57436774
  0
VERTEX
  8
0
 10
19.48298131
 20
1.40174826
  0
VERTEX
  8
0
 10
19.52267218
 20
1.13832993
  0
VERTEX
  8
0
 10
19.51654105
 20
1.03636301
  0
VERTEX
  8
0
 10
19.49340684
 20
0.95451913
  0
VERTEX
  8
0
 10
19.45350553
 20
0.89301943
  0
VERTEX
  8
0
 10
19.39707311
 20
0.85208508
  0
VERTEX
  8
0
 10
19.32434556
 20
0.83193723
  0
VERTEX
  8
0
 10
19.23555885
 20
0.83279702
  0
VERTEX
  8
0
 10
19.38199450
 20
0.77941193
  0
VERTEX
  8
0
 10
19.52357533
 20
0.70922290
  0
VERTEX
  8
0
 10
19.67387484
 20
0.60696273
  0
VERTEX
  8
0
 10
19.71553343
 20
0.49691165
  0
VERTEX
  8
0
 10
19.74465361
 20
0.37330302
  0
VERTEX
  8
0
 10
19.76995814
 20
0.11714742
  0
VERTEX
  8
0
 10
19.75914733
 20
-0.09803550
  0
VERTEX
  8
0
 10
19.74312334
 20
-0.17042829
  0
VERTEX
  8
0
 10
19.72158010
 20
-0.20877719
  0
VERTEX
  8
0
 10
19.65699887
 20
-0.22411474
  0
VERTEX
  8
0
 10
19.58627593
 20
-0.21885849
  0
VERTEX
  8
0
 10
19.44459298
 20
-0.16943292
  0
VERTEX
  8
0
 10
19.28759526
 20
-0.07500833
  0
VERTEX
  8
0
 10
19.45501249
 20
-0.24904305
  0
VERTEX
  8
0
 10
19.52238869
 20
-0.34268289
  0
VERTEX
  8
0
 10
19.57650181
 20
-0.44216793
  0
VERTEX
  8
0
 10
19.61557076
 20
-0.54857080
  0
VERTEX
  8
0
 10
19.63781443
 20
-0.66296415
  0
VERTEX
  8
0
 10
19.64145171
 20
-0.78642063
  0
VERTEX
  8
0
 10
19.62470152
 20
-0.92001287
  0
VERTEX
  8
0
 10
19.60096178
 20
-0.95600345
  0
VERTEX
  8
0
 10
19.53380213
 20
-1.03041020
  0
VERTEX
  8
0
 10
19.42931191
 20
-1.09288567
  0
VERTEX
  8
0
 10
19.36497075
 20
-1.10391559
  0
VERTEX
  8
0
 10
19.29358045
 20
-1.09308240
  0
VERTEX
  8
0
 10
19.23276234
 20
-1.04094028
  0
VERTEX
  8
0
 10
18.35645133
 20
-1.27427093
  0
VERTEX
  8
0
 10
17.50531521
 20
-0.96903969
  0
SEQEND
  0
POLYLINE
  8
pobeda_orden_002
 66
   1
 39
0.000000
 70
    1
  0
VERTEX
  8
0
 10
14.98126427
 20
-1.78998687
  0
VERTEX
  8
0
 10
15.24450781
 20
-1.95344065
  0
VERTEX
  8
0
 10
15.51768761
 20
-1.80720673
  0
VERTEX
  8
0
 10
15.79086741
 20
-1.66097281
  0
VERTEX
  8
0
 10
15.80080368
 20
-1.35126263
  0
VERTEX
  8
0
 10
15.81073994
 20
-1.04155245
  0
VERTEX
  8
0
 10
15.54751888
 20
-0.87809867
  0
VERTEX
  8
0
 10
15.28427534
 20
-0.71464489
  0
VERTEX
  8
0
 10
15.01109554
 20
-0.86087881
  0
VERTEX
  8
0
 10
14.73791574
 20
-1.00713521
  0
VERTEX
  8
0
 10
14.72797948
 20
-1.31682291
  0
VERTEX
  8
0
 10
14.71802074
 20
-1.62653309
  0
VERTEX
  8
0
 10
14.98126427
 20
-1.78998687
  0
SEQEND
  0
POLYLINE
  8
pobeda_orden_002
 66
   1
 39
0.000000
 70
    1
  0
VERTEX
  8
0
 10
15.06563250
 20
-3.46804924
  0
VERTEX
  8
0
 10
14.92532125
 20
-3.20526733
  0
VERTEX
  8
0
 10
14.87108869
 20
-3.06597051
  0
VERTEX
  8
0
 10
14.85984058
 20
-2.99773419
  0
VERTEX
  8
0
 10
14.86369979
 20
-2.93173016
  0
VERTEX
  8
0
 10
14.76231033
 20
-3.06789576
  0
VERTEX
  8
0
 10
14.66442996
 20
-3.18414688
  0
VERTEX
  8
0
 10
14.56074269
 20
-3.28454944
  0
VERTEX
  8
0
 10
14.42823985
 20
-3.21711927
  0
VERTEX
  8
0
 10
14.30012665
 20
-3.08866918
  0
VERTEX
  8
0
 10
14.24194900
 20
-2.99788438
  0
VERTEX
  8
0
 10
14.18994816
 20
-2.88743185
  0
VERTEX
  8
0
 10
14.14581726
 20
-2.75584069
  0
VERTEX
  8
0
 10
14.11124944
 20
-2.60163999
  0
VERTEX
  8
0
 10
14.11146182
 20
-2.50244553
  0
VERTEX
  8
0
 10
14.12600434
 20
-2.41433384
  0
VERTEX
  8
0
 10
14.18037756
 20
-2.27400098
  0
VERTEX
  8
0
 10
14.23896472
 20
-2.18592594
  0
VERTEX
  8
0
 10
14.26636141
 20
-2.15539326
  0
VERTEX
  8
0
 10
14.19715426
 20
-2.19261057
  0
VERTEX
  8
0
 10
14.12707091
 20
-2.21362439
  0
VERTEX
  8
0
 10
14.05569636
 20
-2.21509478
  0
VERTEX
  8
0
 10
13.98261561
 20
-2.19368184
  0
VERTEX
  8
0
 10
13.90741363
 20
-2.14604563
  0
VERTEX
  8
0
 10
13.82967543
 20
-2.06884624
  0
VERTEX
  8
0
 10
13.74898600
 20
-1.95874374
  0
VERTEX
  8
0
 10
13.66493032
 20
-1.81239822
  0
VERTEX
  8
0
 10
13.60937246
 20
-1.62876067
  0
VERTEX
  8
0
 10
13.58649611
 20
-1.45976340
  0
VERTEX
  8
0
 10
13.58986678
 20
-1.37363045
  0
VERTEX
  8
0
 10
13.60828456
 20
-1.29313570
  0
VERTEX
  8
0
 10
13.67719418
 20
-1.28306948
  0
VERTEX
  8
0
 10
13.73433702
 20
-1.25436780
  0
VERTEX
  8
0
 10
13.74302044
 20
-1.23593693
  0
VERTEX
  8
0
 10
13.73019164
 20
-1.21633709
  0
VERTEX
  8
0
 10
13.61523660
 20
-1.17828376
  0
VERTEX
  8
0
 10
13.54265695
 20
-1.11188218
  0
VERTEX
  8
0
 10
13.47973085
 20
-1.02525828
  0
VERTEX
  8
0
 10
13.38286854
 20
-0.82719049
  0
VERTEX
  8
0
 10
13.30530843
 20
-0.58270357
  0
VERTEX
  8
0
 10
13.29336824
 20
-0.36734453
  0
VERTEX
  8
0
 10
13.29368668
 20
-0.29549938
  0
VERTEX
  8
0
 10
13.30595880
 20
-0.24519341
  0
VERTEX
  8
0
 10
13.33600556
 20
-0.21466384
  0
VERTEX
  8
0
 10
13.38964796
 20
-0.20214787
  0
VERTEX
  8
0
 10
13.59100361
 20
-0.22410559
  0
VERTEX
  8
0
 10
13.50867070
 20
-0.14378729
  0
VERTEX
  8
0
 10
13.28890862
 20
0.11414755
  0
VERTEX
  8
0
 10
13.26568860
 20
0.26534619
  0
VERTEX
  8
0
 10
13.28293574
 20
0.41315343
  0
VERTEX
  8
0
 10
13.34627963
 20
0.54292089
  0
VERTEX
  8
0
 10
13.39699709
 20
0.59646209
  0
VERTEX
  8
0
 10
13.46134982
 20
0.64000022
  0
VERTEX
  8
0
 10
13.50115507
 20
0.65126200
  0
VERTEX
  8
0
 10
13.56164421
 20
0.63116597
  0
VERTEX
  8
0
 10
13.71263016
 20
0.53370954
  0
VERTEX
  8
0
 10
13.91032456
 20
0.36740262
  0
VERTEX
  8
0
 10
13.76160935
 20
0.59868311
  0
VERTEX
  8
0
 10
13.67085692
 20
0.81506279
  0
VERTEX
  8
0
 10
13.65305085
 20
0.91682039
  0
VERTEX
  8
0
 10
13.65673639
 20
1.01383946
  0
VERTEX
  8
0
 10
13.68424718
 20
1.10578222
  0
VERTEX
  8
0
 10
13.73791687
 20
1.19231090
  0
VERTEX
  8
0
 10
13.76801169
 20
1.20690230
  0
VERTEX
  8
0
 10
13.85024763
 20
1.22618166
  0
VERTEX
  8
0
 10
13.97255186
 20
1.21340678
  0
VERTEX
  8
0
 10
14.04495684
 20
1.18351706
  0
VERTEX
  8
0
 10
14.12285158
 20
1.13183544
  0
VERTEX
  8
0
 10
14.17287910
 20
1.03507261
  0
VERTEX
  8
0
 10
14.19429717
 20
1.02235219
  0
VERTEX
  8
0
 10
14.20234323
 20
1.08341218
  0
VERTEX
  8
0
 10
14.20130093
 20
1.17564738
  0
VERTEX
  8
0
 10
14.22335506
 20
1.24712418
  0
VERTEX
  8
0
 10
14.26142967
 20
1.30045023
  0
VERTEX
  8
0
 10
14.30844886
 20
1.33823319
  0
VERTEX
  8
0
 10
14.40101724
 20
1.37760039
  0
VERTEX
  8
0
 10
14.44445279
 20
1.38608697
  0
VERTEX
  8
0
 10
14.54229759
 20
1.34567603
  0
VERTEX
  8
0
 10
14.63135425
 20
1.28936507
  0
VERTEX
  8
0
 10
14.71136972
 20
1.21766352
  0
VERTEX
  8
0
 10
14.78209093
 20
1.13108083
  0
VERTEX
  8
0
 10
14.84326481
 20
1.03012644
  0
VERTEX
  8
0
 10
14.89463830
 20
0.91530978
  0
VERTEX
  8
0
 10
14.96697187
 20
0.64612745
  0
VERTEX
  8
0
 10
14.96412284
 20
0.88576735
  0
VERTEX
  8
0
 10
14.98908596
 20
1.06384880
  0
VERTEX
  8
0
 10
15.01648405
 20
1.13202661
  0
VERTEX
  8
0
 10
15.05699588
 20
1.17279931
  0
VERTEX
  8
0
 10
15.10159193
 20
1.17475233
  0
VERTEX
  8
0
 10
15.14972049
 20
1.15949766
  0
VERTEX
  8
0
 10
15.26199905
 20
1.08319721
  0
VERTEX
  8
0
 10
15.58860913
 20
0.78825547
  0
VERTEX
  8
0
 10
15.64457940
 20
0.56647034
  0
VERTEX
  8
0
 10
15.65739346
 20
0.37065087
  0
VERTEX
  8
0
 10
15.64131583
 20
0.17774458
  0
VERTEX
  8
0
 10
15.71442591
 20
0.33890640
  0
VERTEX
  8
0
 10
15.76186534
 20
0.38943033
  0
VERTEX
  8
0
 10
15.81849863
 20
0.41526282
  0
VERTEX
  8
0
 10
15.88577895
 20
0.41291381
  0
VERTEX
  8
0
 10
15.96515952
 20
0.37889322
  0
VERTEX
  8
0
 10
16.05809350
 20
0.30971096
  0
VERTEX
  8
0
 10
16.16603410
 20
0.20187696
  0
VERTEX
  8
0
 10
16.21355819
 20
0.14557109
  0
VERTEX
  8
0
 10
16.31361553
 20
-0.00101629
  0
VERTEX
  8
0
 10
16.36341531
 20
-0.09769823
  0
VERTEX
  8
0
 10
16.40243376
 20
-0.20438977
  0
VERTEX
  8
0
 10
16.42269934
 20
-0.31690399
  0
VERTEX
  8
0
 10
16.41624050
 20
-0.43105397
  0
VERTEX
  8
0
 10
16.32337113
 20
-0.54468554
  0
VERTEX
  8
0
 10
16.30572915
 20
-0.58917856
  0
VERTEX
  8
0
 10
16.30599270
 20
-0.62250677
  0
VERTEX
  8
0
 10
16.32319458
 20
-0.64245793
  0
VERTEX
  8
0
 10
16.35636757
 20
-0.64681982
  0
VERTEX
  8
0
 10
16.46675810
 20
-0.59992687
  0
VERTEX
  8
0
 10
16.53697003
 20
-0.62015702
  0
VERTEX
  8
0
 10
16.60469001
 20
-0.66146504
  0
VERTEX
  8
0
 10
16.72418469
 20
-0.77800277
  0
VERTEX
  8
0
 10
16.84010703
 20
-0.94158157
  0
VERTEX
  8
0
 10
16.90148284
 20
-1.20080655
  0
VERTEX
  8
0
 10
16.90381964
 20
-1.30293090
  0
VERTEX
  8
0
 10
16.88754483
 20
-1.38640991
  0
VERTEX
  8
0
 10
16.85287525
 20
-1.45100361
  0
VERTEX
  8
0
 10
16.80002776
 20
-1.49647209
  0
VERTEX
  8
0
 10
16.72921921
 20
-1.52257539
  0
VERTEX
  8
0
 10
16.64066644
 20
-1.52907356
  0
VERTEX
  8
0
 10
16.79102117
 20
-1.57014456
  0
VERTEX
  8
0
 10
16.93792977
 20
-1.62836390
  0
VERTEX
  8
0
 10
17.09618384
 20
-1.71782190
  0
VERTEX
  8
0
 10
17.14681580
 20
-1.82404376
  0
VERTEX
  8
0
 10
17.18607552
 20
-1.94481525
  0
VERTEX
  8
0
 10
17.23251281
 20
-2.19799421
  0
VERTEX
  8
0
 10
17.23956474
 20
-2.41333310
  0
VERTEX
  8
0
 10
17.22959278
 20
-2.48680447
  0
VERTEX
  8
0
 10
17.21130038
 20
-2.52680619
  0
VERTEX
  8
0
 10
17.14821167
 20
-2.54744089
  0
VERTEX
  8
0
 10
17.07729639
 20
-2.54806133
  0
VERTEX
  8
0
 10
16.93200604
 20
-2.51054255
  0
VERTEX
  8
0
 10
16.76772588
 20
-2.42944807
  0
VERTEX
  8
0
 10
16.94898457
 20
-2.58901590
  0
VERTEX
  8
0
 10
17.02388625
 20
-2.67675251
  0
VERTEX
  8
0
 10
17.08605464
 20
-2.77141292
  0
VERTEX
  8
0
 10
17.13380364
 20
-2.87421364
  0
VERTEX
  8
0
 10
17.16544711
 20
-2.98637116
  0
VERTEX
  8
0
 10
17.17929893
 20
-3.10910200
  0
VERTEX
  8
0
 10
17.17367298
 20
-3.24362265
  0
VERTEX
  8
0
 10
17.15299627
 20
-3.28145610
  0
VERTEX
  8
0
 10
17.09223125
 20
-3.36117057
  0
VERTEX
  8
0
 10
16.99327559
 20
-3.43208719
  0
VERTEX
  8
0
 10
16.93006928
 20
-3.44840918
  0
VERTEX
  8
0
 10
16.85802694
 20
-3.44352714
  0
VERTEX
  8
0
 10
16.79309845
 20
-3.39660236
  0
VERTEX
  8
0
 10
15.93912832
 20
-3.70172393
  0
VERTEX
  8
0
 10
15.06563250
 20
-3.46804924
  0
SEQEND
  0
POLYLINE
  8
pobeda_orden_002
 66
   1
 39
0.000000
 70
    1
  0
VERTEX
  8
0
 10
18.86504740
 20
-4.39897166
  0
VERTEX
  8
0
 10
19.12829094
 20
-4.56242544
  0
VERTEX
  8
0
 10
19.40147074
 20
-4.41619152
  0
VERTEX
  8
0
 10
19.67465054
 20
-4.26995760
  0
VERTEX
  8
0
 10
19.68458681
 20
-3.96024742
  0
VERTEX
  8
0
 10
19.69452307
 20
-3.65053724
  0
VERTEX
  8
0
 10
19.43130201
 20
-3.48708346
  0
VERTEX
  8
0
 10
19.16805847
 20
-3.32362968
  0
VERTEX
  8
0
 10
18.89487867
 20
-3.46986360
  0
VERTEX
  8
0
 10
18.62169887
 20
-3.61612000
  0
VERTEX
  8
0
 10
18.61176261
 20
-3.92580770
  0
VERTEX
  8
0
 10
18.60180386
 20
-4.23551788
  0
VERTEX
  8
0
 10
18.86504740
 20
-4.39897166
  0
SEQEND
  0
POLYLINE
  8
pobeda_orden_002
 66
   1
 39
0.000000
 70
    1
  0
VERTEX
  8
0
 10
17.95276109
 20
-5.95268980
  0
VERTEX
  8
0
 10
17.94321553
 20
-5.65494753
  0
VERTEX
  8
0
 10
17.95622040
 20
-5.50603261
  0
VERTEX
  8
0
 10
17.97632805
 20
-5.43986316
  0
VERTEX
  8
0
 10
18.00899569
 20
-5.38238054
  0
VERTEX
  8
0
 10
17.85781949
 20
-5.45962464
  0
VERTEX
  8
0
 10
17.71860231
 20
-5.52056285
  0
VERTEX
  8
0
 10
17.58119068
 20
-5.56471902
  0
VERTEX
  8
0
 10
17.49220421
 20
-5.44561722
  0
VERTEX
  8
0
 10
17.43415558
 20
-5.27373710
  0
VERTEX
  8
0
 10
17.42215603
 20
-5.16658053
  0
VERTEX
  8
0
 10
17.42439862
 20
-5.04451981
  0
VERTEX
  8
0
 10
17.44305258
 20
-4.90698509
  0
VERTEX
  8
0
 10
17.48028714
 20
-4.75340651
  0
VERTEX
  8
0
 10
17.52437119
 20
-4.66454606
  0
VERTEX
  8
0
 10
17.57640192
 20
-4.59196535
  0
VERTEX
  8
0
 10
17.68725946
 20
-4.49017947
  0
VERTEX
  8
0
 10
17.77877181
 20
-4.43712142
  0
VERTEX
  8
0
 10
17.81685102
 20
-4.42186373
  0
VERTEX
  8
0
 10
17.73831956
 20
-4.42461483
  0
VERTEX
  8
0
 10
17.66617242
 20
-4.41244744
  0
VERTEX
  8
0
 10
17.60151534
 20
-4.38218278
  0
VERTEX
  8
0
 10
17.54545407
 20
-4.33064206
  0
VERTEX
  8
0
 10
17.49909437
 20
-4.25464651
  0
VERTEX
  8
0
 10
17.46354199
 20
-4.15101735
  0
VERTEX
  8
0
 10
17.43990267
 20
-4.01657582
  0
VERTEX
  8
0
 10
17.42928217
 20
-3.84814312
  0
VERTEX
  8
0
 10
17.46071934
 20
-3.65887842
  0
VERTEX
  8
0
 10
17.51498593
 20
-3.49720423
  0
VERTEX
  8
0
 10
17.55612251
 20
-3.42145445
  0
VERTEX
  8
0
 10
17.60825796
 20
-3.35741920
  0
VERTEX
  8
0
 10
17.67450822
 20
-3.37888466
  0
VERTEX
  8
0
 10
17.73845261
 20
-3.37843164
  0
VERTEX
  8
0
 10
17.75439530
 20
-3.36574584
  0
VERTEX
  8
0
 10
17.75156377
 20
-3.34249257
  0
VERTEX
  8
0
 10
17.66531435
 20
-3.25749989
  0
VERTEX
  8
0
 10
17.62960996
 20
-3.16583654
  0
VERTEX
  8
0
 10
17.61151094
 20
-3.06031014
  0
VERTEX
  8
0
 10
17.61229299
 20
-2.83982761
  0
VERTEX
  8
0
 10
17.65092512
 20
-2.58625912
  0
VERTEX
  8
0
 10
17.73551401
 20
-2.38784842
  0
VERTEX
  8
0
 10
17.76759110
 20
-2.32356088
  0
VERTEX
  8
0
 10
17.80085675
 20
-2.28387850
  0
VERTEX
  8
0
 10
17.84131109
 20
-2.26979625
  0
VERTEX
  8
0
 10
17.89495422
 20
-2.28230912
  0
VERTEX
  8
0
 10
18.06580727
 20
-2.39110008
  0
VERTEX
  8
0
 10
18.02751461
 20
-2.28264082
  0
VERTEX
  8
0
 10
17.94457524
 20
-1.95408822
  0
VERTEX
  8
0
 10
17.99065773
 20
-1.80822320
  0
VERTEX
  8
0
 10
18.07152919
 20
-1.68330623
  0
VERTEX
  8
0
 10
18.18575614
 20
-1.59496459
  0
VERTEX
  8
0
 10
18.25492996
 20
-1.56939304
  0
VERTEX
  8
0
 10
18.33190509
 20
-1.55882554
  0
VERTEX
  8
0
 10
18.37258452
 20
-1.56634017
  0
VERTEX
  8
0
 10
18.41793676
 20
-1.61112813
  0
VERTEX
  8
0
 10
18.51021165
 20
-1.76533532
  0
VERTEX
  8
0
 10
18.61390683
 20
-2.00195395
  0
VERTEX
  8
0
 10
18.58288547
 20
-1.72874239
  0
VERTEX
  8
0
 10
18.59724968
 20
-1.49454197
  0
VERTEX
  8
0
 10
18.62630954
 20
-1.39540979
  0
VERTEX
  8
0
 10
18.67254560
 20
-1.31003702
  0
VERTEX
  8
0
 10
18.73790113
 20
-1.23975921
  0
VERTEX
  8
0
 10
18.82431938
 20
-1.18591189
  0
VERTEX
  8
0
 10
18.85776416
 20
-1.18614377
  0
VERTEX
  8
0
 10
18.94004187
 20
-1.20524408
  0
VERTEX
  8
0
 10
19.04406753
 20
-1.27081987
  0
VERTEX
  8
0
 10
19.09577180
 20
-1.32966326
  0
VERTEX
  8
0
 10
19.14275620
 20
-1.41047816
  0
VERTEX
  8
0
 10
19.14480169
 20
-1.51938919
  0
VERTEX
  8
0
 10
19.15837994
 20
-1.54027397
  0
VERTEX
  8
0
 10
19.19261447
 20
-1.48907769
  0
VERTEX
  8
0
 10
19.23249389
 20
-1.40590288
  0
VERTEX
  8
0
 10
19.28389984
 20
-1.35156371
  0
VERTEX
  8
0
 10
19.34164076
 20
-1.32059063
  0
VERTEX
  8
0
 10
19.40052505
 20
-1.30751409
  0
VERTEX
  8
0
 10
19.50095744
 20
-1.31317238
  0
VERTEX
  8
0
 10
19.54366438
 20
-1.32478214
  0
VERTEX
  8
0
 10
19.61352663
 20
-1.40431775
  0
VERTEX
  8
0
 10
19.66847219
 20
-1.49422325
  0
VERTEX
  8
0
 10
19.70849955
 20
-1.59392981
  0
VERTEX
  8
0
 10
19.73360721
 20
-1.70286859
  0
VERTEX
  8
0
 10
19.74379364
 20
-1.82047075
  0
VERTEX
  8
0
 10
19.73905734
 20
-1.94616748
  0
VERTEX
  8
0
 10
19.68481047
 20
-2.21956930
  0
VERTEX
  8
0
 10
19.78829632
 20
-2.00340714
  0
VERTEX
  8
0
 10
19.88948358
 20
-1.85475554
  0
VERTEX
  8
0
 10
19.94422204
 20
-1.80573951
  0
VERTEX
  8
0
 10
19.99859370
 20
-1.78710234
  0
VERTEX
  8
0
 10
20.03945023
 20
-1.80508472
  0
VERTEX
  8
0
 10
20.07586020
 20
-1.84006153
  0
VERTEX
  8
0
 10
20.14278506
 20
-1.95816867
  0
VERTEX
  8
0
 10
20.30516677
 20
-2.36718817
  0
VERTEX
  8
0
 10
20.25721911
 20
-2.59084491
  0
VERTEX
  8
0
 10
20.18206014
 20
-2.77211983
  0
VERTEX
  8
0
 10
20.08228111
 20
-2.93799771
  0
VERTEX
  8
0
 10
20.21915809
 20
-2.82582414
  0
VERTEX
  8
0
 10
20.28405713
 20
-2.80150786
  0
VERTEX
  8
0
 10
20.34627495
 20
-2.80340236
  0
VERTEX
  8
0
 10
20.40557038
 20
-2.83528045
  0
VERTEX
  8
0
 10
20.46170222
 20
-2.90091498
  0
VERTEX
  8
0
 10
20.51442928
 20
-3.00407876
  0
VERTEX
  8
0
 10
20.56351040
 20
-3.14854463
  0
VERTEX
  8
0
 10
20.58121311
 20
-3.22006739
  0
VERTEX
  8
0
 10
20.60607638
 20
-3.39579772
  0
VERTEX
  8
0
 10
20.60795344
 20
-3.50453544
  0
VERTEX
  8
0
 10
20.59573289
 20
-3.61747871
  0
VERTEX
  8
0
 10
20.56411882
 20
-3.72734542
  0
VERTEX
  8
0
 10
20.50781532
 20
-3.82685346
  0
VERTEX
  8
0
 10
20.37425099
 20
-3.88765991
  0
VERTEX
  8
0
 10
20.33874204
 20
-3.91975326
  0
VERTEX
  8
0
 10
20.32423064
 20
-3.94975756
  0
VERTEX
  8
0
 10
20.33082834
 20
-3.97526096
  0
VERTEX
  8
0
 10
20.35864669
 20
-3.99385163
  0
VERTEX
  8
0
 10
20.47839157
 20
-4.00064739
  0
VERTEX
  8
0
 10
20.53240355
 20
-4.04985795
  0
VERTEX
  8
0
 10
20.57485386
 20
-4.11686780
  0
VERTEX
  8
0
 10
20.63044489
 20
-4.27425159
  0
VERTEX
  8
0
 10
20.66201667
 20
-4.47223955
  0
VERTEX
  8
0
 10
20.60234938
 20
-4.73186312
  0
VERTEX
  8
0
 10
20.55925487
 20
-4.82447903
  0
VERTEX
  8
0
 10
20.50772064
 20
-4.89213874
  0
VERTEX
  8
0
 10
20.44804732
 20
-4.93472303
  0
VERTEX
  8
0
 10
20.38053555
 20
-4.95211267
  0
VERTEX
  8
0
 10
20.30548596
 20
-4.94418846
  0
VERTEX
  8
0
 10
20.22319920
 20
-4.91083118
  0
VERTEX
  8
0
 10
20.33985861
 20
-5.01419438
  0
VERTEX
  8
0
 10
20.44583951
 20
-5.13141077
  0
VERTEX
  8
0
 10
20.54817152
 20
-5.28166136
  0
VERTEX
  8
0
 10
20.54657343
 20
-5.39932243
  0
VERTEX
  8
0
 10
20.52833887
 20
-5.52499891
  0
VERTEX
  8
0
 10
20.45795054
 20
-5.77259029
  0
VERTEX
  8
0
 10
20.36898694
 20
-5.96881985
  0
VERTEX
  8
0
 10
20.32753328
 20
-6.03029406
  0
VERTEX
  8
0
 10
20.29342846
 20
-6.05807193
  0
VERTEX
  8
0
 10
20.22772164
 20
-6.04865969
  0
VERTEX
  8
0
 10
20.16385252
 20
-6.01783604
  0
VERTEX
  8
0
 10
20.05016282
 20
-5.91989934
  0
VERTEX
  8
0
 10
19.93872593
 20
-5.77448233
  0
VERTEX
  8
0
 10
20.03066414
 20
-5.99778476
  0
VERTEX
  8
0
 10
20.05901009
 20
-6.10960820
  0
VERTEX
  8
0
 10
20.07287346
 20
-6.22200619
  0
VERTEX
  8
0
 10
20.07020388
 20
-6.33532357
  0
VERTEX
  8
0
 10
20.04895098
 20
-6.44990513
  0
VERTEX
  8
0
 10
20.00706440
 20
-6.56609568
  0
VERTEX
  8
0
 10
19.94249378
 20
-6.68424005
  0
VERTEX
  8
0
 10
19.90721024
 20
-6.70901844
  0
VERTEX
  8
0
 10
19.81744441
 20
-6.75361529
  0
VERTEX
  8
0
 10
19.69732347
 20
-6.77342314
  0
VERTEX
  8
0
 10
19.63341958
 20
-6.76009136
  0
VERTEX
  8
0
 10
19.57097460
 20
-6.72383453
  0
VERTEX
  8
0
 10
19.53351303
 20
-6.65302299
  0
VERTEX
  8
0
 10
18.63268327
 20
-6.54876416
  0
VERTEX
  8
0
 10
17.95276109
 20
-5.95268980
  0
SEQEND
  0
POLYLINE
  8
pobeda_orden_002
 66
   1
 39
0.000000
 70
    1
  0
VERTEX
  8
0
 10
13.88171868
 20
-8.17958256
  0
VERTEX
  8
0
 10
13.94112237
 20
-7.88767028
  0
VERTEX
  8
0
 10
13.98813236
 20
-7.74577300
  0
VERTEX
  8
0
 10
14.02296344
 20
-7.68602762
  0
VERTEX
  8
0
 10
14.06801154
 20
-7.63763242
  0
VERTEX
  8
0
 10
13.90309276
 20
-7.67791504
  0
VERTEX
  8
0
 10
13.75357228
 20
-7.70509069
  0
VERTEX
  8
0
 10
13.60968041
 20
-7.71635359
  0
VERTEX
  8
0
 10
13.55057237
 20
-7.57993486
  0
VERTEX
  8
0
 10
13.53374396
 20
-7.39929925
  0
VERTEX
  8
0
 10
13.54679008
 20
-7.29226506
  0
VERTEX
  8
0
 10
13.57713264
 20
-7.17401458
  0
VERTEX
  8
0
 10
13.62701383
 20
-7.04449378
  0
VERTEX
  8
0
 10
13.69867582
 20
-6.90364865
  0
VERTEX
  8
0
 10
13.76207149
 20
-6.82735597
  0
VERTEX
  8
0
 10
13.82944358
 20
-6.76873722
  0
VERTEX
  8
0
 10
13.96079339
 20
-6.69527304
  0
VERTEX
  8
0
 10
14.06207795
 20
-6.66475903
  0
VERTEX
  8
0
 10
14.10264998
 20
-6.65869815
  0
VERTEX
  8
0
 10
14.02560237
 20
-6.64325715
  0
VERTEX
  8
0
 10
13.95820867
 20
-6.61477303
  0
VERTEX
  8
0
 10
13.90227818
 20
-6.57040786
  0
VERTEX
  8
0
 10
13.85962018
 20
-6.50732374
  0
VERTEX
  8
0
 10
13.83204396
 20
-6.42268275
  0
VERTEX
  8
0
 10
13.82135883
 20
-6.31364697
  0
VERTEX
  8
0
 10
13.82937406
 20
-6.17737848
  0
VERTEX
  8
0
 10
13.85789896
 20
-6.01103937
  0
VERTEX
  8
0
 10
13.93215307
 20
-5.83413332
  0
VERTEX
  8
0
 10
14.02225534
 20
-5.68934041
  0
VERTEX
  8
0
 10
14.07975831
 20
-5.62512472
  0
VERTEX
  8
0
 10
14.14526078
 20
-5.57484505
  0
VERTEX
  8
0
 10
14.20477153
 20
-5.61101595
  0
VERTEX
  8
0
 10
14.26709540
 20
-5.62532768
  0
VERTEX
  8
0
 10
14.28553473
 20
-5.61666222
  0
VERTEX
  8
0
 10
14.28814432
 20
-5.59338301
  0
VERTEX
  8
0
 10
14.22383021
 20
-5.49078470
  0
VERTEX
  8
0
 10
14.21023656
 20
-5.39335684
  0
VERTEX
  8
0
 10
14.21697166
 20
-5.28650165
  0
VERTEX
  8
0
 10
14.26859984
 20
-5.07214753
  0
VERTEX
  8
0
 10
14.36469025
 20
-4.83433235
  0
VERTEX
  8
0
 10
14.49277225
 20
-4.66078961
  0
VERTEX
  8
0
 10
14.53881569
 20
-4.60563682
  0
VERTEX
  8
0
 10
14.58033900
 20
-4.57469963
  0
VERTEX
  8
0
 10
14.62295089
 20
-4.57033045
  0
VERTEX
  8
0
 10
14.67226005
 20
-4.59488169
  0
VERTEX
  8
0
 10
14.81340496
 20
-4.74015507
  0
VERTEX
  8
0
 10
14.80116782
 20
-4.62578729
  0
VERTEX
  8
0
 10
14.79626586
 20
-4.28696326
  0
VERTEX
  8
0
 10
14.87475751
 20
-4.15566489
  0
VERTEX
  8
0
 10
14.98226672
 20
-4.05277557
  0
VERTEX
  8
0
 10
15.11379334
 20
-3.99317029
  0
VERTEX
  8
0
 10
15.18700063
 20
-3.98424759
  0
VERTEX
  8
0
 10
15.26433720
 20
-3.99172400
  0
VERTEX
  8
0
 10
15.30218553
 20
-4.00842101
  0
VERTEX
  8
0
 10
15.33598133
 20
-4.06246387
  0
VERTEX
  8
0
 10
15.39018996
 20
-4.23379961
  0
VERTEX
  8
0
 10
15.43649776
 20
-4.48795833
  0
VERTEX
  8
0
 10
15.46934555
 20
-4.21496034
  0
VERTEX
  8
0
 10
15.53735434
 20
-3.99039192
  0
VERTEX
  8
0
 10
15.58850091
 20
-3.90063841
  0
VERTEX
  8
0
 10
15.65318589
 20
-3.82823581
  0
VERTEX
  8
0
 10
15.73299201
 20
-3.77493198
  0
VERTEX
  8
0
 10
15.82950199
 20
-3.74247476
  0
VERTEX
  8
0
 10
15.86199103
 20
-3.75041638
  0
VERTEX
  8
0
 10
15.93764251
 20
-3.78798360
  0
VERTEX
  8
0
 10
16.02373296
 20
-3.87578997
  0
VERTEX
  8
0
 10
16.06046671
 20
-3.94497456
  0
VERTEX
  8
0
 10
16.08753890
 20
-4.03444902
  0
VERTEX
  8
0
 10
16.06440249
 20
-4.14089386
  0
VERTEX
  8
0
 10
16.07279614
 20
-4.16434784
  0
VERTEX
  8
0
 10
16.11791855
 20
-4.12243090
  0
VERTEX
  8
0
 10
16.17591129
 20
-4.05070043
  0
VERTEX
  8
0
 10
16.23846697
 20
-4.00968698
  0
VERTEX
  8
0
 10
16.30179596
 20
-3.99287080
  0
VERTEX
  8
0
 10
16.36210860
 20
-3.99373214
  0
VERTEX
  8
0
 10
16.45852619
 20
-4.02240842
  0
VERTEX
  8
0
 10
16.49740255
 20
-4.04355784
  0
VERTEX
  8
0
 10
16.54703055
 20
-4.13706564
  0
VERTEX
  8
0
 10
16.57975186
 20
-4.23722217
  0
VERTEX
  8
0
 10
16.59569623
 20
-4.34347359
  0
VERTEX
  8
0
 10
16.59499343
 20
-4.45526606
  0
VERTEX
  8
0
 10
16.57777322
 20
-4.57204576
  0
VERTEX
  8
0
 10
16.54416536
 20
-4.69325884
  0
VERTEX
  8
0
 10
16.42830574
 20
-4.94676984
  0
VERTEX
  8
0
 10
16.57887032
 20
-4.76031420
  0
VERTEX
  8
0
 10
16.71162306
 20
-4.63901757
  0
VERTEX
  8
0
 10
16.77619325
 20
-4.60395250
  0
VERTEX
  8
0
 10
16.83339788
 20
-4.59836212
  0
VERTEX
  8
0
 10
16.86900353
 20
-4.62528534
  0
VERTEX
  8
0
 10
16.89636181
 20
-4.66771868
  0
VERTEX
  8
0
 10
16.93423288
 20
-4.79807977
  0
VERTEX
  8
0
 10
16.99786963
 20
-5.23352798
  0
VERTEX
  8
0
 10
16.89961591
 20
-5.44008915
  0
VERTEX
  8
0
 10
16.78466281
 20
-5.59913396
  0
VERTEX
  8
0
 10
16.64930606
 20
-5.73751704
  0
VERTEX
  8
0
 10
16.80836991
 20
-5.65994831
  0
VERTEX
  8
0
 10
16.87712813
 20
-5.65126079
  0
VERTEX
  8
0
 10
16.93723042
 20
-5.66745837
  0
VERTEX
  8
0
 10
16.98757167
 20
-5.71215645
  0
VERTEX
  8
0
 10
17.02704678
 20
-5.78897045
  0
VERTEX
  8
0
 10
17.05455064
 20
-5.90151576
  0
VERTEX
  8
0
 10
17.06897815
 20
-6.05340780
  0
VERTEX
  8
0
 10
17.06970237
 20
-6.12708525
  0
VERTEX
  8
0
 10
17.05335239
 20
-6.30381105
  0
VERTEX
  8
0
 10
17.03009207
 20
-6.41004839
  0
VERTEX
  8
0
 10
16.99214420
 20
-6.51712539
  0
VERTEX
  8
0
 10
16.93603578
 20
-6.61673457
  0
VERTEX
  8
0
 10
16.85829381
 20
-6.70056846
  0
VERTEX
  8
0
 10
16.71430409
 20
-6.72892007
  0
VERTEX
  8
0
 10
16.67234886
 20
-6.75195541
  0
VERTEX
  8
0
 10
16.65130668
 20
-6.77780237
  0
VERTEX
  8
0
 10
16.65184253
 20
-6.80413991
  0
VERTEX
  8
0
 10
16.67462140
 20
-6.82864700
  0
VERTEX
  8
0
 10
16.78956806
 20
-6.86288560
  0
VERTEX
  8
0
 10
16.83076964
 20
-6.92322965
  0
VERTEX
  8
0
 10
16.85661501
 20
-6.99822542
  0
VERTEX
  8
0
 10
16.87439655
 20
-7.16418878
  0
VERTEX
  8
0
 10
16.85943907
 20
-7.36411948
  0
VERTEX
  8
0
 10
16.74148401
 20
-7.60297338
  0
VERTEX
  8
0
 10
16.67818477
 20
-7.68314850
  0
VERTEX
  8
0
 10
16.61243110
 20
-7.73709355
  0
VERTEX
  8
0
 10
16.54454303
 20
-7.76476188
  0
VERTEX
  8
0
 10
16.47484059
 20
-7.76610685
  0
VERTEX
  8
0
 10
16.40364381
 20
-7.74108182
  0
VERTEX
  8
0
 10
16.33127272
 20
-7.68964015
  0
VERTEX
  8
0
 10
16.42093821
 20
-7.81712925
  0
VERTEX
  8
0
 10
16.49701720
 20
-7.95563419
  0
VERTEX
  8
0
 10
16.56192447
 20
-8.12544034
  0
VERTEX
  8
0
 10
16.53322406
 20
-8.23955855
  0
VERTEX
  8
0
 10
16.48648676
 20
-8.35763777
  0
VERTEX
  8
0
 10
16.36087582
 20
-8.58231064
  0
VERTEX
  8
0
 10
16.22904032
 20
-8.75272181
  0
VERTEX
  8
0
 10
16.17452234
 20
-8.80297390
  0
VERTEX
  8
0
 10
16.13492897
 20
-8.82213413
  0
VERTEX
  8
0
 10
16.07316622
 20
-8.79781667
  0
VERTEX
  8
0
 10
16.01813138
 20
-8.75308939
  0
VERTEX
  8
0
 10
15.93010356
 20
-8.63156554
  0
VERTEX
  8
0
 10
15.85522189
 20
-8.46436200
  0
VERTEX
  8
0
 10
15.89316205
 20
-8.70285132
  0
VERTEX
  8
0
 10
15.89494467
 20
-8.81819773
  0
VERTEX
  8
0
 10
15.88250285
 20
-8.93076195
  0
VERTEX
  8
0
 10
15.85376198
 20
-9.04040645
  0
VERTEX
  8
0
 10
15.80664746
 20
-9.14699370
  0
VERTEX
  8
0
 10
15.73908469
 20
-9.25038617
  0
VERTEX
  8
0
 10
15.64899906
 20
-9.35044634
  0
VERTEX
  8
0
 10
15.60895078
 20
-9.36641605
  0
VERTEX
  8
0
 10
15.51131770
 20
-9.38910005
  0
VERTEX
  8
0
 10
15.38986743
 20
-9.38066060
  0
VERTEX
  8
0
 10
15.33076324
 20
-9.35294529
  0
VERTEX
  8
0
 10
15.27836762
 20
-9.30325996
  0
VERTEX
  8
0
 10
15.25825349
 20
-9.22571600
  0
VERTEX
  8
0
 10
14.40577896
 20
-8.91644050
  0
VERTEX
  8
0
 10
13.88171868
 20
-8.17958256
  0
SEQEND
  0
POLYLINE
  8
pobeda_orden_002
 66
   1
 39
0.000000
 70
    1
  0
VERTEX
  8
0
 10
15.04920649
 20
-7.08201059
  0
VERTEX
  8
0
 10
15.31245003
 20
-7.24546437
  0
VERTEX
  8
0
 10
15.58562983
 20
-7.09923045
  0
VERTEX
  8
0
 10
15.85880963
 20
-6.95299653
  0
VERTEX
  8
0
 10
15.86874590
 20
-6.64328635
  0
VERTEX
  8
0
 10
15.87868216
 20
-6.33357617
  0
VERTEX
  8
0
 10
15.61546110
 20
-6.17012239
  0
VERTEX
  8
0
 10
15.35221756
 20
-6.00666861
  0
VERTEX
  8
0
 10
15.07903776
 20
-6.15290253
  0
VERTEX
  8
0
 10
14.80585796
 20
-6.29915893
  0
VERTEX
  8
0
 10
14.79592170
 20
-6.60884663
  0
VERTEX
  8
0
 10
14.78596295
 20
-6.91855681
  0
VERTEX
  8
0
 10
15.04920649
 20
-7.08201059
  0
SEQEND
  0
POLYLINE
  8
pobeda_orden_002
 66
   1
 39
0.000000
 70
    1
  0
VERTEX
  8
0
 10
17.84348217
 20
-9.86906140
  0
VERTEX
  8
0
 10
18.10433200
 20
-10.03251518
  0
VERTEX
  8
0
 10
18.37502773
 20
-9.88625878
  0
VERTEX
  8
0
 10
18.64572347
 20
-9.74002486
  0
VERTEX
  8
0
 10
18.65556938
 20
-9.43031468
  0
VERTEX
  8
0
 10
18.66541529
 20
-9.12060450
  0
VERTEX
  8
0
 10
18.40458774
 20
-8.95715072
  0
VERTEX
  8
0
 10
18.14373792
 20
-8.79369694
  0
VERTEX
  8
0
 10
17.87304218
 20
-8.93993086
  0
VERTEX
  8
0
 10
17.60234645
 20
-9.08620974
  0
VERTEX
  8
0
 10
17.59250054
 20
-9.39587496
  0
VERTEX
  8
0
 10
17.58263235
 20
-9.70558514
  0
VERTEX
  8
0
 10
17.84348217
 20
-9.86906140
  0
SEQEND
  0
POLYLINE
  8
pobeda_orden_002
 66
   1
 39
0.000000
 70
    1
  0
VERTEX
  8
0
 10
16.53192012
 20
-10.96379787
  0
VERTEX
  8
0
 10
16.62169065
 20
-10.67975065
  0
VERTEX
  8
0
 10
16.68336130
 20
-10.54358344
  0
VERTEX
  8
0
 10
16.72428183
 20
-10.48783198
  0
VERTEX
  8
0
 10
16.77416919
 20
-10.44444216
  0
VERTEX
  8
0
 10
16.60592882
 20
-10.46715931
  0
VERTEX
  8
0
 10
16.45437964
 20
-10.47846139
  0
VERTEX
  8
0
 10
16.31010118
 20
-10.47453081
  0
VERTEX
  8
0
 10
16.26566603
 20
-10.33265288
  0
VERTEX
  8
0
 10
16.26792577
 20
-10.15124915
  0
VERTEX
  8
0
 10
16.29215479
 20
-10.04618025
  0
VERTEX
  8
0
 10
16.33476382
 20
-9.93177607
  0
VERTEX
  8
0
 10
16.39798829
 20
-9.80821864
  0
VERTEX
  8
0
 10
16.48406362
 20
-9.67569005
  0
VERTEX
  8
0
 10
16.55513041
 20
-9.60648675
  0
VERTEX
  8
0
 10
16.62829306
 20
-9.55527755
  0
VERTEX
  8
0
 10
16.76663980
 20
-9.49603283
  0
VERTEX
  8
0
 10
16.87057154
 20
-9.47633864
  0
VERTEX
  8
0
 10
16.91155597
 20
-9.47457773
  0
VERTEX
  8
0
 10
16.83655923
 20
-9.45112036
  0
VERTEX
  8
0
 10
16.77253444
 20
-9.41570733
  0
VERTEX
  8
0
 10
16.72157928
 20
-9.36570674
  0
VERTEX
  8
0
 10
16.68579143
 20
-9.29848664
  0
VERTEX
  8
0
 10
16.66726858
 20
-9.21141513
  0
VERTEX
  8
0
 10
16.66810840
 20
-9.10186026
  0
VERTEX
  8
0
 10
16.69040859
 20
-8.96719012
  0
VERTEX
  8
0
 10
16.73626682
 20
-8.80477279
  0
VERTEX
  8
0
 10
16.82871190
 20
-8.63665577
  0
VERTEX
  8
0
 10
16.93354040
 20
-8.50214038
  0
VERTEX
  8
0
 10
16.99747719
 20
-8.44432747
  0
VERTEX
  8
0
 10
17.06790369
 20
-8.40121451
  0
VERTEX
  8
0
 10
17.12328093
 20
-8.44344275
  0
VERTEX
  8
0
 10
17.18375431
 20
-8.46422884
  0
VERTEX
  8
0
 10
17.20300263
 20
-8.45755042
  0
VERTEX
  8
0
 10
17.20804569
 20
-8.43467468
  0
VERTEX
  8
0
 10
17.15487693
 20
-8.32588221
  0
VERTEX
  8
0
 10
17.15160373
 20
-8.22756507
  0
VERTEX
  8
0
 10
17.16953790
 20
-8.12201054
  0
VERTEX
  8
0
 10
17.24342038
 20
-7.91427383
  0
VERTEX
  8
0
 10
17.36398562
 20
-7.68788160
  0
VERTEX
  8
0
 10
17.50960649
 20
-7.52876954
  0
VERTEX
  8
0
 10
17.56119428
 20
-7.47876425
  0
VERTEX
  8
0
 10
17.60574059
 20
-7.45236500
  0
VERTEX
  8
0
 10
17.64857568
 20
-7.45250092
  0
VERTEX
  8
0
 10
17.69502976
 20
-7.48210118
  0
VERTEX
  8
0
 10
17.82011583
 20
-7.64141130
  0
VERTEX
  8
0
 10
17.81997294
 20
-7.52639079
  0
VERTEX
  8
0
 10
17.85072739
 20
-7.18892981
  0
VERTEX
  8
0
 10
17.94259061
 20
-7.06661322
  0
VERTEX
  8
0
 10
18.06032316
 20
-6.97559953
  0
VERTEX
  8
0
 10
18.19738839
 20
-6.93015547
  0
VERTEX
  8
0
 10
18.27112807
 20
-6.92898038
  0
VERTEX
  8
0
 10
18.34724969
 20
-6.94454772
  0
VERTEX
  8
0
 10
18.38313239
 20
-6.96513212
  0
VERTEX
  8
0
 10
18.41105791
 20
-7.02242917
  0
VERTEX
  8
0
 10
18.44694909
 20
-7.19851533
  0
VERTEX
  8
0
 10
18.46627395
 20
-7.45613445
  0
VERTEX
  8
0
 10
18.52764689
 20
-7.18810415
  0
VERTEX
  8
0
 10
18.61889323
 20
-6.97193229
  0
VERTEX
  8
0
 10
18.67919431
 20
-6.88805474
  0
VERTEX
  8
0
 10
18.75113420
 20
-6.82285554
  0
VERTEX
  8
0
 10
18.83610306
 20
-6.77823930
  0
VERTEX
  8
0
 10
18.93549102
 20
-6.75611058
  0
VERTEX
  8
0
 10
18.96696483
 20
-6.76742458
  0
VERTEX
  8
0
 10
19.03824648
 20
-6.81273869
  0
VERTEX
  8
0
 10
19.11462630
 20
-6.90911113
  0
VERTEX
  8
0
 10
19.14388125
 20
-6.98177491
  0
VERTEX
  8
0
 10
19.16139461
 20
-7.07360009
  0
VERTEX
  8
0
 10
19.12719320
 20
-7.17702185
  0
VERTEX
  8
0
 10
19.13307400
 20
-7.20122844
  0
VERTEX
  8
0
 10
19.18235404
 20
-7.16428877
  0
VERTEX
  8
0
 10
19.24756811
 20
-7.09905425
  0
VERTEX
  8
0
 10
19.31408977
 20
-7.06484626
  0
VERTEX
  8
0
 10
19.37883596
 20
-7.05478271
  0
VERTEX
  8
0
 10
19.43872363
 20
-7.06198148
  0
VERTEX
  8
0
 10
19.53159120
 20
-7.10063762
  0
VERTEX
  8
0
 10
19.56802804
 20
-7.12575785
  0
VERTEX
  8
0
 10
19.60754803
 20
-7.22396588
  0
VERTEX
  8
0
 10
19.62955591
 20
-7.32700795
  0
VERTEX
  8
0
 10
19.63423895
 20
-7.43434692
  0
VERTEX
  8
0
 10
19.62178445
 20
-7.54544569
  0
VERTEX
  8
0
 10
19.59237967
 20
-7.65976714
  0
VERTEX
  8
0
 10
19.54621191
 20
-7.77677414
  0
VERTEX
  8
0
 10
19.40433656
 20
-8.01669633
  0
VERTEX
  8
0
 10
19.57367323
 20
-7.84710714
  0
VERTEX
  8
0
 10
19.71844497
 20
-7.74044270
  0
VERTEX
  8
0
 10
19.78634446
 20
-7.71236195
  0
VERTEX
  8
0
 10
19.84381979
 20
-7.71281795
  0
VERTEX
  8
0
 10
19.87639691
 20
-7.74333603
  0
VERTEX
  8
0
 10
19.89914140
 20
-7.78841099
  0
VERTEX
  8
0
 10
19.92309432
 20
-7.92203168
  0
VERTEX
  8
0
 10
19.94058846
 20
-8.36175743
  0
VERTEX
  8
0
 10
19.82115842
 20
-8.55684146
  0
VERTEX
  8
0
 10
19.69011820
 20
-8.70291654
  0
VERTEX
  8
0
 10
19.54096015
 20
-8.82629888
  0
VERTEX
  8
0
 10
19.70729889
 20
-8.76588665
  0
VERTEX
  8
0
 10
19.77658945
 20
-8.76447760
  0
VERTEX
  8
0
 10
19.83465526
 20
-8.78690546
  0
VERTEX
  8
0
 10
19.88001715
 20
-8.83664940
  0
VERTEX
  8
0
 10
19.91119598
 20
-8.91718855
  0
VERTEX
  8
0
 10
19.92671259
 20
-9.03200207
  0
VERTEX
  8
0
 10
19.92508782
 20
-9.18456912
  0
VERTEX
  8
0
 10
19.91806043
 20
-9.25791424
  0
VERTEX
  8
0
 10
19.88321740
 20
-9.43194094
  0
VERTEX
  8
0
 10
19.84891459
 20
-9.53514333
  0
VERTEX
  8
0
 10
19.79991737
 20
-9.63763624
  0
VERTEX
  8
0
 10
19.73364557
 20
-9.73079305
  0
VERTEX
  8
0
 10
19.64751902
 20
-9.80598715
  0
VERTEX
  8
0
 10
19.50134628
 20
-9.81904026
  0
VERTEX
  8
0
 10
19.45720136
 20
-9.83753605
  0
VERTEX
  8
0
 10
19.43355790
 20
-9.86102701
  0
VERTEX
  8
0
 10
19.43132124
 20
-9.88727488
  0
VERTEX
  8
0
 10
19.45139676
 20
-9.91404142
  0
VERTEX
  8
0
 10
19.56210575
 20
-9.96017748
  0
VERTEX
  8
0
 10
19.59673339
 20
-10.02451954
  0
VERTEX
  8
0
 10
19.61454925
 20
-10.10181730
  0
VERTEX
  8
0
 10
19.61478023
 20
-10.26873035
  0
VERTEX
  8
0
 10
19.57888185
 20
-10.46597973
  0
VERTEX
  8
0
 10
19.43646395
 20
-10.69110575
  0
VERTEX
  8
0
 10
19.36508480
 20
-10.76418009
  0
VERTEX
  8
0
 10
19.29402306
 20
-10.81091169
  0
VERTEX
  8
0
 10
19.22360189
 20
-10.83128782
  0
VERTEX
  8
0
 10
19.15414447
 20
-10.82529573
  0
VERTEX
  8
0
 10
19.08597394
 20
-10.79292271
  0
VERTEX
  8
0
 10
19.01941347
 20
-10.73415602
  0
VERTEX
  8
0
 10
19.09517565
 20
-10.87036712
  0
VERTEX
  8
0
 10
19.15626828
 20
-11.01610428
  0
VERTEX
  8
0
 10
19.20295963
 20
-11.19179435
  0
VERTEX
  8
0
 10
19.16241818
 20
-11.30226186
  0
VERTEX
  8
0
 10
19.10352331
 20
-11.41477173
  0
VERTEX
  8
0
 10
18.95498318
 20
-11.62499029
  0
VERTEX
  8
0
 10
18.80595893
 20
-11.78059343
  0
VERTEX
  8
0
 10
18.74645892
 20
-11.82483404
  0
VERTEX
  8
0
 10
18.70507026
 20
-11.83972458
  0
VERTEX
  8
0
 10
18.64620705
 20
-11.80904724
  0
VERTEX
  8
0
 10
18.59618066
 20
-11.75878072
  0
VERTEX
  8
0
 10
18.52141979
 20
-11.62867401
  0
VERTEX
  8
0
 10
18.46453566
 20
-11.45452326
  0
VERTEX
  8
0
 10
18.47718700
 20
-11.69567996
  0
VERTEX
  8
0
 10
18.46683042
 20
-11.81057432
  0
VERTEX
  8
0
 10
18.44262083
 20
-11.92120614
  0
VERTEX
  8
0
 10
18.40250958
 20
-12.02722048
  0
VERTEX
  8
0
 10
18.34444803
 20
-12.12826243
  0
VERTEX
  8
0
 10
18.26638755
 20
-12.22397707
  0
VERTEX
  8
0
 10
18.16627949
 20
-12.31400948
  0
VERTEX
  8
0
 10
18.12477394
 20
-12.32567936
  0
VERTEX
  8
0
 10
18.02529681
 20
-12.33797093
  0
VERTEX
  8
0
 10
17.90540735
 20
-12.31680710
  0
VERTEX
  8
0
 10
17.84954526
 20
-12.28303031
  0
VERTEX
  8
0
 10
17.80266481
 20
-12.22811076
  0
VERTEX
  8
0
 10
17.79081638
 20
-12.14888161
  0
VERTEX
  8
0
 10
16.97559019
 20
-11.75167837
  0
VERTEX
  8
0
 10
16.53192012
 20
-10.96379787
  0
SEQEND
  0
POLYLINE
  8
pobeda_orden_002
 66
   1
 39
0.000000
 70
    1
  0
VERTEX
  8
0
 10
14.60711989
 20
-16.19954466
  0
VERTEX
  8
0
 10
14.70503910
 20
-15.91820251
  0
VERTEX
  8
0
 10
14.77060834
 20
-15.78386915
  0
VERTEX
  8
0
 10
14.81311857
 20
-15.72932014
  0
VERTEX
  8
0
 10
14.86423566
 20
-15.68738604
  0
VERTEX
  8
0
 10
14.69541048
 20
-15.70524524
  0
VERTEX
  8
0
 10
14.54359853
 20
-15.71217512
  0
VERTEX
  8
0
 10
14.39949328
 20
-15.70408822
  0
VERTEX
  8
0
 10
14.35916537
 20
-15.56098864
  0
VERTEX
  8
0
 10
14.36665204
 20
-15.37972539
  0
VERTEX
  8
0
 10
14.39389898
 20
-15.27539838
  0
VERTEX
  8
0
 10
14.43978732
 20
-15.16226966
  0
VERTEX
  8
0
 10
14.50654633
 20
-15.04058563
  0
VERTEX
  8
0
 10
14.59640526
 20
-14.91059268
  0
VERTEX
  8
0
 10
14.66943690
 20
-14.84346620
  0
VERTEX
  8
0
 10
14.74404496
 20
-14.79438675
  0
VERTEX
  8
0
 10
14.88404161
 20
-14.73915365
  0
VERTEX
  8
0
 10
14.98849775
 20
-14.72246284
  0
VERTEX
  8
0
 10
15.02951590
 20
-14.72188380
  0
VERTEX
  8
0
 10
14.95522633
 20
-14.69627484
  0
VERTEX
  8
0
 10
14.89224870
 20
-14.65903139
  0
VERTEX
  8
0
 10
14.84275567
 20
-14.60758309
  0
VERTEX
  8
0
 10
14.80891990
 20
-14.53935954
  0
VERTEX
  8
0
 10
14.79291406
 20
-14.45179038
  0
VERTEX
  8
0
 10
14.79691079
 20
-14.34230522
  0
VERTEX
  8
0
 10
14.82308277
 20
-14.20833369
  0
VERTEX
  8
0
 10
14.87360266
 20
-14.04730540
  0
VERTEX
  8
0
 10
14.97085431
 20
-13.88192239
  0
VERTEX
  8
0
 10
15.07951587
 20
-13.75048392
  0
VERTEX
  8
0
 10
15.14509222
 20
-13.69453762
  0
VERTEX
  8
0
 10
15.21673194
 20
-13.65347219
  0
VERTEX
  8
0
 10
15.27086920
 20
-13.69727881
  0
VERTEX
  8
0
 10
15.33071842
 20
-13.71979904
  0
VERTEX
  8
0
 10
15.35015122
 20
-13.71367812
  0
VERTEX
  8
0
 10
15.35585143
 20
-13.69095722
  0
VERTEX
  8
0
 10
15.30584006
 20
-13.58067766
  0
VERTEX
  8
0
 10
15.30540161
 20
-13.48230703
  0
VERTEX
  8
0
 10
15.32637031
 20
-13.37731318
  0
VERTEX
  8
0
 10
15.40620886
 20
-13.17179198
  0
VERTEX
  8
0
 10
15.53324843
 20
-12.94896835
  0
VERTEX
  8
0
 10
15.68339427
 20
-12.79411903
  0
VERTEX
  8
0
 10
15.73640173
 20
-12.74562122
  0
VERTEX
  8
0
 10
15.78169034
 20
-12.72051671
  0
VERTEX
  8
0
 10
15.82450372
 20
-12.72188704
  0
VERTEX
  8
0
 10
15.87008545
 20
-12.75281376
  0
VERTEX
  8
0
 10
15.99052841
 20
-12.91566257
  0
VERTEX
  8
0
 10
15.99370036
 20
-12.80068572
  0
VERTEX
  8
0
 10
16.03416732
 20
-12.46425121
  0
VERTEX
  8
0
 10
16.12951743
 20
-12.34463283
  0
VERTEX
  8
0
 10
16.24982400
 20
-12.25704988
  0
VERTEX
  8
0
 10
16.38814195
 20
-12.21557478
  0
VERTEX
  8
0
 10
16.46188487
 20
-12.21652529
  0
VERTEX
  8
0
 10
16.53752623
 20
-12.23427991
  0
VERTEX
  8
0
 10
16.57280081
 20
-12.25588985
  0
VERTEX
  8
0
 10
16.59906349
 20
-12.31396789
  0
VERTEX
  8
0
 10
16.62986514
 20
-12.49101526
  0
VERTEX
  8
0
 10
16.64175764
 20
-12.74908431
  0
VERTEX
  8
0
 10
16.71082945
 20
-12.48293404
  0
VERTEX
  8
0
 10
16.80826775
 20
-12.26948160
  0
VERTEX
  8
0
 10
16.87096106
 20
-12.18737670
  0
VERTEX
  8
0
 10
16.94475004
 20
-12.12427782
  0
VERTEX
  8
0
 10
17.03096940
 20
-12.08212883
  0
VERTEX
  8
0
 10
17.13095381
 20
-12.06287356
  0
VERTEX
  8
0
 10
17.16208849
 20
-12.07508990
  0
VERTEX
  8
0
 10
17.23203463
 20
-12.12243947
  0
VERTEX
  8
0
 10
17.30560536
 20
-12.22097306
  0
VERTEX
  8
0
 10
17.33275406
 20
-12.29444976
  0
VERTEX
  8
0
 10
17.34761384
 20
-12.38674151
  0
VERTEX
  8
0
 10
17.31044612
 20
-12.48913467
  0
VERTEX
  8
0
 10
17.31562687
 20
-12.51350068
  0
VERTEX
  8
0
 10
17.36595100
 20
-12.47799656
  0
VERTEX
  8
0
 10
17.43301798
 20
-12.41466853
  0
VERTEX
  8
0
 10
17.50049785
 20
-12.38239184
  0
VERTEX
  8
0
 10
17.56550717
 20
-12.37419839
  0
VERTEX
  8
0
 10
17.62516251
 20
-12.38312008
  0
VERTEX
  8
0
 10
17.71687747
 20
-12.42443651
  0
VERTEX
  8
0
 10
17.75257524
 20
-12.45059638
  0
VERTEX
  8
0
 10
17.78924856
 20
-12.54990255
  0
VERTEX
  8
0
 10
17.80827772
 20
-12.65353606
  0
VERTEX
  8
0
 10
17.80986542
 20
-12.76096541
  0
VERTEX
  8
0
 10
17.79421433
 20
-12.87165911
  0
VERTEX
  8
0
 10
17.76152714
 20
-12.98508566
  0
VERTEX
  8
0
 10
17.71200653
 20
-13.10071355
  0
VERTEX
  8
0
 10
17.56327579
 20
-13.33644738
  0
VERTEX
  8
0
 10
17.73742951
 20
-13.17180875
  0
VERTEX
  8
0
 10
17.88521509
 20
-13.06936079
  0
VERTEX
  8
0
 10
17.95389563
 20
-13.04324849
  0
VERTEX
  8
0
 10
18.01133395
 20
-13.04536069
  0
VERTEX
  8
0
 10
18.04301803
 20
-13.07680493
  0
VERTEX
  8
0
 10
18.06445407
 20
-13.12251664
  0
VERTEX
  8
0
 10
18.08454622
 20
-13.25677213
  0
VERTEX
  8
0
 10
18.08936064
 20
-13.69681940
  0
VERTEX
  8
0
 10
17.96435808
 20
-13.88838055
  0
VERTEX
  8
0
 10
17.82916255
 20
-14.03061850
  0
VERTEX
  8
0
 10
17.67651069
 20
-14.14965101
  0
VERTEX
  8
0
 10
17.84452137
 20
-14.09405759
  0
VERTEX
  8
0
 10
17.91382376
 20
-14.09464601
  0
VERTEX
  8
0
 10
17.97121909
 20
-14.11873796
  0
VERTEX
  8
0
 10
18.01512858
 20
-14.16976852
  0
VERTEX
  8
0
 10
18.04397340
 20
-14.25117276
  0
VERTEX
  8
0
 10
18.05617475
 20
-14.36638577
  0
VERTEX
  8
0
 10
18.05015382
 20
-14.51884262
  0
VERTEX
  8
0
 10
18.04101563
 20
-14.59195475
  0
VERTEX
  8
0
 10
18.00117178
 20
-14.76490503
  0
VERTEX
  8
0
 10
17.96390904
 20
-14.86707598
  0
VERTEX
  8
0
 10
17.91197842
 20
-14.96811427
  0
VERTEX
  8
0
 10
17.84304947
 20
-15.05932251
  0
VERTEX
  8
0
 10
17.75479167
 20
-15.13200329
  0
VERTEX
  8
0
 10
17.60830347
 20
-15.14083842
  0
VERTEX
  8
0
 10
17.56364385
 20
-15.15805433
  0
VERTEX
  8
0
 10
17.53933322
 20
-15.18085415
  0
VERTEX
  8
0
 10
17.53634106
 20
-15.20702666
  0
VERTEX
  8
0
 10
17.55563685
 20
-15.23436063
  0
VERTEX
  8
0
 10
17.66497026
 20
-15.28366805
  0
VERTEX
  8
0
 10
17.69772925
 20
-15.34898132
  0
VERTEX
  8
0
 10
17.71331006
 20
-15.42676041
  0
VERTEX
  8
0
 10
17.70873068
 20
-15.59361079
  0
VERTEX
  8
0
 10
17.66716268
 20
-15.78974369
  0
VERTEX
  8
0
 10
17.51831603
 20
-16.01067185
  0
VERTEX
  8
0
 10
17.44486059
 20
-16.08165877
  0
VERTEX
  8
0
 10
17.37248161
 20
-16.12632303
  0
VERTEX
  8
0
 10
17.30150247
 20
-16.14466122
  0
VERTEX
  8
0
 10
17.23224658
 20
-16.13666993
  0
VERTEX
  8
0
 10
17.16503733
 20
-16.10234575
  0
VERTEX
  8
0
 10
17.10019811
 20
-16.04168527
  0
VERTEX
  8
0
 10
17.17200335
 20
-16.18002318
  0
VERTEX
  8
0
 10
17.22887060
 20
-16.32746044
  0
VERTEX
  8
0
 10
17.27047935
 20
-16.50442313
  0
VERTEX
  8
0
 10
17.22677117
 20
-16.61367639
  0
VERTEX
  8
0
 10
17.16465834
 20
-16.72444225
  0
VERTEX
  8
0
 10
17.01012162
 20
-16.93029271
  0
VERTEX
  8
0
 10
16.85667494
 20
-17.08153649
  0
VERTEX
  8
0
 10
16.79592467
 20
-17.12404399
  0
VERTEX
  8
0
 10
16.75412407
 20
-17.13773556
  0
VERTEX
  8
0
 10
16.69616941
 20
-17.10537459
  0
VERTEX
  8
0
 10
16.64761243
 20
-17.05368724
  0
VERTEX
  8
0
 10
16.57663216
 20
-16.92148003
  0
VERTEX
  8
0
 10
16.52479050
 20
-16.74576228
  0
VERTEX
  8
0
 10
16.53048669
 20
-16.98718341
  0
VERTEX
  8
0
 10
16.51682327
 20
-17.10173158
  0
VERTEX
  8
0
 10
16.48943543
 20
-17.21161975
  0
VERTEX
  8
0
 10
16.44628562
 20
-17.31643410
  0
VERTEX
  8
0
 10
16.38533626
 20
-17.41576080
  0
VERTEX
  8
0
 10
16.30454980
 20
-17.50918606
  0
VERTEX
  8
0
 10
16.20188868
 20
-17.59629606
  0
VERTEX
  8
0
 10
16.16006406
 20
-17.60676494
  0
VERTEX
  8
0
 10
16.06027401
 20
-17.61618458
  0
VERTEX
  8
0
 10
15.94104426
 20
-17.59157444
  0
VERTEX
  8
0
 10
15.88617879
 20
-17.55620179
  0
VERTEX
  8
0
 10
15.84090055
 20
-17.49995401
  0
VERTEX
  8
0
 10
15.83134034
 20
-17.42041631
  0
VERTEX
  8
0
 10
15.02789975
 20
-16.99988404
  0
VERTEX
  8
0
 10
14.60711989
 20
-16.19954466
  0
SEQEND
  0
POLYLINE
  8
pobeda_orden_002
 66
   1
 39
0.000000
 70
    1
  0
VERTEX
  8
0
 10
15.77506917
 20
-14.67882073
  0
VERTEX
  8
0
 10
16.03831270
 20
-14.84227451
  0
VERTEX
  8
0
 10
16.31149251
 20
-14.69604059
  0
VERTEX
  8
0
 10
16.58467231
 20
-14.54980666
  0
VERTEX
  8
0
 10
16.59460857
 20
-14.24009648
  0
VERTEX
  8
0
 10
16.60454483
 20
-13.93038630
  0
VERTEX
  8
0
 10
16.34132378
 20
-13.76693252
  0
VERTEX
  8
0
 10
16.07808024
 20
-13.60347874
  0
VERTEX
  8
0
 10
15.80490044
 20
-13.74971266
  0
VERTEX
  8
0
 10
15.53172064
 20
-13.89596906
  0
VERTEX
  8
0
 10
15.52178437
 20
-14.20565677
  0
VERTEX
  8
0
 10
15.51182563
 20
-14.51536695
  0
VERTEX
  8
0
 10
15.77506917
 20
-14.67882073
  0
SEQEND
  0
POLYLINE
  8
pobeda_orden_002
 66
   1
 39
0.000000
 70
    1
  0
VERTEX
  8
0
 10
13.12583302
 20
-12.31361379
  0
VERTEX
  8
0
 10
13.38907656
 20
-12.47706757
  0
VERTEX
  8
0
 10
13.66225636
 20
-12.33083365
  0
VERTEX
  8
0
 10
13.93543616
 20
-12.18459973
  0
VERTEX
  8
0
 10
13.94537243
 20
-11.87486707
  0
VERTEX
  8
0
 10
13.95530869
 20
-11.56515689
  0
VERTEX
  8
0
 10
13.69208763
 20
-11.40170311
  0
VERTEX
  8
0
 10
13.42884410
 20
-11.23824933
  0
VERTEX
  8
0
 10
13.15566429
 20
-11.38450573
  0
VERTEX
  8
0
 10
12.88248449
 20
-11.53073965
  0
VERTEX
  8
0
 10
12.87254823
 20
-11.84042735
  0
VERTEX
  8
0
 10
12.86258949
 20
-12.15016001
  0
VERTEX
  8
0
 10
13.12583302
 20
-12.31361379
  0
SEQEND
  0
POLYLINE
  8
pobeda_orden_002
 66
   1
 39
0.000000
 70
    1
  0
VERTEX
  8
0
 10
11.90366045
 20
-13.17638978
  0
VERTEX
  8
0
 10
11.99700372
 20
-12.89349650
  0
VERTEX
  8
0
 10
12.06038559
 20
-12.75811734
  0
VERTEX
  8
0
 10
12.10200551
 20
-12.70288604
  0
VERTEX
  8
0
 10
12.15243575
 20
-12.66012839
  0
VERTEX
  8
0
 10
11.98392243
 20
-12.68072340
  0
VERTEX
  8
0
 10
11.83224285
 20
-12.69011459
  0
VERTEX
  8
0
 10
11.68802539
 20
-12.68436598
  0
VERTEX
  8
0
 10
11.64538186
 20
-12.54193930
  0
VERTEX
  8
0
 10
11.64992766
 20
-12.36057846
  0
VERTEX
  8
0
 10
11.67547895
 20
-12.25582326
  0
VERTEX
  8
0
 10
11.71952644
 20
-12.14196517
  0
VERTEX
  8
0
 10
11.78430308
 20
-12.01921438
  0
VERTEX
  8
0
 10
11.87204185
 20
-11.88778112
  0
VERTEX
  8
0
 10
11.94397516
 20
-11.81947898
  0
VERTEX
  8
0
 10
12.01777740
 20
-11.76919592
  0
VERTEX
  8
0
 10
12.15685982
 20
-11.71169949
  0
VERTEX
  8
0
 10
12.26103151
 20
-11.69331672
  0
VERTEX
  8
0
 10
12.30203487
 20
-11.69207249
  0
VERTEX
  8
0
 10
12.22733972
 20
-11.66767179
  0
VERTEX
  8
0
 10
12.16376633
 20
-11.63145467
  0
VERTEX
  8
0
 10
12.11344538
 20
-11.58081585
  0
VERTEX
  8
0
 10
12.07850755
 20
-11.51315006
  0
VERTEX
  8
0
 10
12.06108353
 20
-11.42585201
  0
VERTEX
  8
0
 10
12.06330402
 20
-11.31631644
  0
VERTEX
  8
0
 10
12.08729969
 20
-11.18193804
  0
VERTEX
  8
0
 10
12.13520123
 20
-11.02011156
  0
VERTEX
  8
0
 10
12.22975776
 20
-10.85317299
  0
VERTEX
  8
0
 10
12.33627324
 20
-10.71998944
  0
VERTEX
  8
0
 10
12.40093357
 20
-10.66298692
  0
VERTEX
  8
0
 10
12.47189784
 20
-10.62076497
  0
VERTEX
  8
0
 10
12.52673847
 20
-10.66368778
  0
VERTEX
  8
0
 10
12.58694508
 20
-10.68523437
  0
VERTEX
  8
0
 10
12.60627604
 20
-10.67879907
  0
VERTEX
  8
0
 10
12.61160700
 20
-10.65598871
  0
VERTEX
  8
0
 10
12.55981359
 20
-10.54653479
  0
VERTEX
  8
0
 10
12.55777973
 20
-10.44818420
  0
VERTEX
  8
0
 10
12.57704279
 20
-10.34286408
  0
VERTEX
  8
0
 10
12.65353752
 20
-10.13607502
  0
VERTEX
  8
0
 10
12.77694643
 20
-9.91122025
  0
VERTEX
  8
0
 10
12.92456103
 20
-9.75395610
  0
VERTEX
  8
0
 10
12.97677493
 20
-9.70460495
  0
VERTEX
  8
0
 10
13.02165042
 20
-9.67876921
  0
VERTEX
  8
0
 10
13.06448039
 20
-9.67944497
  0
VERTEX
  8
0
 10
13.11055773
 20
-9.70962834
  0
VERTEX
  8
0
 10
13.23362607
 20
-9.87050228
  0
VERTEX
  8
0
 10
13.23493280
 20
-9.75548910
  0
VERTEX
  8
0
 10
13.26993785
 20
-9.41844252
  0
VERTEX
  8
0
 10
13.36333534
 20
-9.29729340
  0
VERTEX
  8
0
 10
13.48220558
 20
-9.20777074
  0
VERTEX
  8
0
 10
13.61983266
 20
-9.16405772
  0
VERTEX
  8
0
 10
13.69358130
 20
-9.16381208
  0
VERTEX
  8
0
 10
13.76950067
 20
-9.18033754
  0
VERTEX
  8
0
 10
13.80512110
 20
-9.20137254
  0
VERTEX
  8
0
 10
13.83232228
 20
-9.25901698
  0
VERTEX
  8
0
 10
13.86599139
 20
-9.43554150
  0
VERTEX
  8
0
 10
13.88206793
 20
-9.69338372
  0
VERTEX
  8
0
 10
13.94681399
 20
-9.42614819
  0
VERTEX
  8
0
 10
14.04077751
 20
-9.21114348
  0
VERTEX
  8
0
 10
14.10213092
 20
-9.12803256
  0
VERTEX
  8
0
 10
14.17488681
 20
-9.06374521
  0
VERTEX
  8
0
 10
14.26041121
 20
-9.02020338
  0
VERTEX
  8
0
 10
14.36007017
 20
-8.99932901
  0
VERTEX
  8
0
 10
14.39139889
 20
-9.01103877
  0
VERTEX
  8
0
 10
14.46210379
 20
-9.05724766
  0
VERTEX
  8
0
 10
14.53726295
 20
-9.15457506
  0
VERTEX
  8
0
 10
14.56559979
 20
-9.22760177
  0
VERTEX
  8
0
 10
14.58195448
 20
-9.31964037
  0
VERTEX
  8
0
 10
14.54645236
 20
-9.42262288
  0
VERTEX
  8
0
 10
14.55202762
 20
-9.44690167
  0
VERTEX
  8
0
 10
14.60176929
 20
-9.41058601
  0
VERTEX
  8
0
 10
14.66780034
 20
-9.34617856
  0
VERTEX
  8
0
 10
14.73474784
 20
-9.31281167
  0
VERTEX
  8
0
 10
14.79961572
 20
-9.30356491
  0
VERTEX
  8
0
 10
14.85940791
 20
-9.31151789
  0
VERTEX
  8
0
 10
14.95178092
 20
-9.35134137
  0
VERTEX
  8
0
 10
14.98789827
 20
-9.37691881
  0
VERTEX
  8
0
 10
15.02617740
 20
-9.47561712
  0
VERTEX
  8
0
 10
15.04688488
 20
-9.57892837
  0
VERTEX
  8
0
 10
15.05021476
 20
-9.68631784
  0
VERTEX
  8
0
 10
15.03636106
 20
-9.79725083
  0
VERTEX
  8
0
 10
15.00551782
 20
-9.91119260
  0
VERTEX
  8
0
 10
14.95787908
 20
-10.02760845
  0
VERTEX
  8
0
 10
14.81299124
 20
-10.26572353
  0
VERTEX
  8
0
 10
14.98445180
 20
-10.09828197
  0
VERTEX
  8
0
 10
15.13055634
 20
-9.99345057
  0
VERTEX
  8
0
 10
15.19880434
 20
-9.96622778
  0
VERTEX
  8
0
 10
15.25626936
 20
-9.96740811
  0
VERTEX
  8
0
 10
15.28845927
 20
-9.99833434
  0
VERTEX
  8
0
 10
15.31063388
 20
-10.04369237
  0
VERTEX
  8
0
 10
15.33290086
 20
-10.17760433
  0
VERTEX
  8
0
 10
15.34485173
 20
-10.61751563
  0
VERTEX
  8
0
 10
15.22297252
 20
-10.81107899
  0
VERTEX
  8
0
 10
15.09010171
 20
-10.95549095
  0
VERTEX
  8
0
 10
14.93940051
 20
-11.07698365
  0
VERTEX
  8
0
 10
15.10648743
 20
-11.01867259
  0
VERTEX
  8
0
 10
15.17579024
 20
-11.01813693
  0
VERTEX
  8
0
 10
15.23356877
 20
-11.04129482
  0
VERTEX
  8
0
 10
15.27830014
 20
-11.09160650
  0
VERTEX
  8
0
 10
15.30846146
 20
-11.17253220
  0
VERTEX
  8
0
 10
15.32252983
 20
-11.28753216
  0
VERTEX
  8
0
 10
15.31898238
 20
-11.44006662
  0
VERTEX
  8
0
 10
15.31103118
 20
-11.51331734
  0
VERTEX
  8
0
 10
15.27399764
 20
-11.68689110
  0
VERTEX
  8
0
 10
15.23839689
 20
-11.78965297
  0
VERTEX
  8
0
 10
15.18811184
 20
-11.89152022
  0
VERTEX
  8
0
 10
15.12067124
 20
-11.98383441
  0
VERTEX
  8
0
 10
15.03360386
 20
-12.05793708
  0
VERTEX
  8
0
 10
14.88727822
 20
-12.06914693
  0
VERTEX
  8
0
 10
14.84290370
 20
-12.08708489
  0
VERTEX
  8
0
 10
14.81896606
 20
-12.11027601
  0
VERTEX
  8
0
 10
14.81639877
 20
-12.13649361
  0
VERTEX
  8
0
 10
14.83613536
 20
-12.16351103
  0
VERTEX
  8
0
 10
14.94625410
 20
-12.21103870
  0
VERTEX
  8
0
 10
14.98006809
 20
-12.27581206
  0
VERTEX
  8
0
 10
14.99690834
 20
-12.35332821
  0
VERTEX
  8
0
 10
14.99503569
 20
-12.52023092
  0
VERTEX
  8
0
 10
14.95665422
 20
-12.71701221
  0
VERTEX
  8
0
 10
14.81141035
 20
-12.94032544
  0
VERTEX
  8
0
 10
14.73911590
 20
-13.01249439
  0
VERTEX
  8
0
 10
14.66747085
 20
-13.05832668
  0
VERTEX
  8
0
 10
14.59679847
 20
-13.07781366
  0
VERTEX
  8
0
 10
14.52742208
 20
-13.07094668
  0
VERTEX
  8
0
 10
14.45966497
 20
-13.03771707
  0
VERTEX
  8
0
 10
14.39385043
 20
-12.97811619
  0
VERTEX
  8
0
 10
14.46788991
 20
-13.11527130
  0
VERTEX
  8
0
 10
14.52714095
 20
-13.26176684
  0
VERTEX
  8
0
 10
14.57161437
 20
-13.43803141
  0
VERTEX
  8
0
 10
14.52968391
 20
-13.54797920
  0
VERTEX
  8
0
 10
14.46937575
 20
-13.65973788
  0
VERTEX
  8
0
 10
14.31819802
 20
-13.86806768
  0
VERTEX
  8
0
 10
14.16722453
 20
-14.02178030
  0
VERTEX
  8
0
 10
14.10717168
 20
-14.06526752
  0
VERTEX
  8
0
 10
14.06559864
 20
-14.07963525
  0
VERTEX
  8
0
 10
14.00712673
 20
-14.04821850
  0
VERTEX
  8
0
 10
13.95773783
 20
-13.99732548
  0
VERTEX
  8
0
 10
13.88462264
 20
-13.86628689
  0
VERTEX
  8
0
 10
13.82993786
 20
-13.69143306
  0
VERTEX
  8
0
 10
13.83954888
 20
-13.93273005
  0
VERTEX
  8
0
 10
13.82774510
 20
-14.04748476
  0
VERTEX
  8
0
 10
13.80214313
 20
-14.15780267
  0
VERTEX
  8
0
 10
13.76069896
 20
-14.26330307
  0
VERTEX
  8
0
 10
13.70136859
 20
-14.36360525
  0
VERTEX
  8
0
 10
13.62210801
 20
-14.45832849
  0
VERTEX
  8
0
 10
13.52087322
 20
-14.54709207
  0
VERTEX
  8
0
 10
13.47922390
 20
-14.55823793
  0
VERTEX
  8
0
 10
13.37959975
 20
-14.56927481
  0
VERTEX
  8
0
 10
13.25998654
 20
-14.54660168
  0
VERTEX
  8
0
 10
13.20455458
 20
-14.51212355
  0
VERTEX
  8
0
 10
13.15837001
 20
-14.45661752
  0
VERTEX
  8
0
 10
13.14752105
 20
-14.37724534
  0
VERTEX
  8
0
 10
12.33736558
 20
-13.96979930
  0
VERTEX
  8
0
 10
11.90366045
 20
-13.17638978
  0
SEQEND
  0
POLYLINE
  8
pobeda_orden_002
 66
   1
 39
0.000000
 70
    1
  0
VERTEX
  8
0
 10
8.44419787
 20
-16.92684548
  0
VERTEX
  8
0
 10
8.63986091
 20
-16.70221790
  0
VERTEX
  8
0
 10
8.75074639
 20
-16.60197226
  0
VERTEX
  8
0
 10
8.81051535
 20
-16.56718166
  0
VERTEX
  8
0
 10
8.87357331
 20
-16.54730404
  0
VERTEX
  8
0
 10
8.71024368
 20
-16.50099718
  0
VERTEX
  8
0
 10
8.56677389
 20
-16.45088419
  0
VERTEX
  8
0
 10
8.43604947
 20
-16.38970537
  0
VERTEX
  8
0
 10
8.45192248
 20
-16.24188156
  0
VERTEX
  8
0
 10
8.52638422
 20
-16.07644920
  0
VERTEX
  8
0
 10
8.59052856
 20
-15.98977727
  0
VERTEX
  8
0
 10
8.67525132
 20
-15.90188015
  0
VERTEX
  8
0
 10
8.78252956
 20
-15.81381684
  0
VERTEX
  8
0
 10
8.91434038
 20
-15.72664631
  0
VERTEX
  8
0
 10
9.00711929
 20
-15.69155131
  0
VERTEX
  8
0
 10
9.09463935
 20
-15.67379196
  0
VERTEX
  8
0
 10
9.24513512
 20
-15.67467653
  0
VERTEX
  8
0
 10
9.34829204
 20
-15.69809266
  0
VERTEX
  8
0
 10
9.38657450
 20
-15.71283300
  0
VERTEX
  8
0
 10
9.32716864
 20
-15.66139660
  0
VERTEX
  8
0
 10
9.28259421
 20
-15.60337612
  0
VERTEX
  8
0
 10
9.25582490
 20
-15.53719537
  0
VERTEX
  8
0
 10
9.24983442
 20
-15.46127814
  0
VERTEX
  8
0
 10
9.26759646
 20
-15.37404824
  0
VERTEX
  8
0
 10
9.31208473
 20
-15.27392948
  0
VERTEX
  8
0
 10
9.38627293
 20
-15.15934564
  0
VERTEX
  8
0
 10
9.49313476
 20
-15.02872054
  0
VERTEX
  8
0
 10
9.64498785
 20
-14.91145987
  0
VERTEX
  8
0
 10
9.79478681
 20
-14.82995111
  0
VERTEX
  8
0
 10
9.87648265
 20
-14.80245502
  0
VERTEX
  8
0
 10
9.95826303
 20
-14.79102747
  0
VERTEX
  8
0
 10
9.99218865
 20
-14.85184618
  0
VERTEX
  8
0
 10
10.03934362
 20
-14.89503761
  0
VERTEX
  8
0
 10
10.05965798
 20
-14.89659508
  0
VERTEX
  8
0
 10
10.07341073
 20
-14.87763213
  0
VERTEX
  8
0
 10
10.06807280
 20
-14.75666013
  0
VERTEX
  8
0
 10
10.10430527
 20
-14.66520423
  0
VERTEX
  8
0
 10
10.16287148
 20
-14.57557503
  0
VERTEX
  8
0
 10
10.31351436
 20
-14.41457851
  0
VERTEX
  8
0
 10
10.51440652
 20
-14.25510511
  0
VERTEX
  8
0
 10
10.71142451
 20
-14.16732131
  0
VERTEX
  8
0
 10
10.77868154
 20
-14.14205633
  0
VERTEX
  8
0
 10
10.83006201
 20
-14.13562647
  0
VERTEX
  8
0
 10
10.86928445
 20
-14.15284457
  0
VERTEX
  8
0
 10
10.90006741
 20
-14.19852352
  0
VERTEX
  8
0
 10
10.95118910
 20
-14.39451538
  0
VERTEX
  8
0
 10
10.99695738
 20
-14.28899286
  0
VERTEX
  8
0
 10
11.15982185
 20
-13.99183816
  0
VERTEX
  8
0
 10
11.29286461
 20
-13.91634099
  0
VERTEX
  8
0
 10
11.43713615
 20
-13.87986955
  0
VERTEX
  8
0
 10
11.58094967
 20
-13.89289693
  0
VERTEX
  8
0
 10
11.64903255
 20
-13.92124552
  0
VERTEX
  8
0
 10
11.71261839
 20
-13.96589621
  0
VERTEX
  8
0
 10
11.73730597
 20
-13.99908972
  0
VERTEX
  8
0
 10
11.74004708
 20
-14.06277075
  0
VERTEX
  8
0
 10
11.70268897
 20
-14.23855153
  0
VERTEX
  8
0
 10
11.61760476
 20
-14.48248132
  0
VERTEX
  8
0
 10
11.78083764
 20
-14.26120795
  0
VERTEX
  8
0
 10
11.95076801
 20
-14.09940610
  0
VERTEX
  8
0
 10
12.03953134
 20
-14.04655977
  0
VERTEX
  8
0
 10
12.13151297
 20
-14.01548465
  0
VERTEX
  8
0
 10
12.22722753
 20
-14.00848186
  0
VERTEX
  8
0
 10
12.32718965
 20
-14.02785251
  0
VERTEX
  8
0
 10
12.35153398
 20
-14.05078635
  0
VERTEX
  8
0
 10
12.39881137
 20
-14.12078129
  0
VERTEX
  8
0
 10
12.43038842
 20
-14.23962746
  0
VERTEX
  8
0
 10
12.42821639
 20
-14.31792917
  0
VERTEX
  8
0
 10
12.40763175
 20
-14.40911500
  0
VERTEX
  8
0
 10
12.33500075
 20
-14.49029711
  0
VERTEX
  8
0
 10
12.33073331
 20
-14.51483956
  0
VERTEX
  8
0
 10
12.39066043
 20
-14.50063390
  0
VERTEX
  8
0
 10
12.47648907
 20
-14.46684243
  0
VERTEX
  8
0
 10
12.55113543
 20
-14.46202185
  0
VERTEX
  8
0
 10
12.61451891
 20
-14.47863147
  0
VERTEX
  8
0
 10
12.66655888
 20
-14.50913059
  0
VERTEX
  8
0
 10
12.73628589
 20
-14.58163457
  0
VERTEX
  8
0
 10
12.75967153
 20
-14.61920824
  0
VERTEX
  8
0
 10
12.75671829
 20
-14.72502849
  0
VERTEX
  8
0
 10
12.73577866
 20
-14.82829294
  0
VERTEX
  8
0
 10
12.69723872
 20
-14.92858382
  0
VERTEX
  8
0
 10
12.64148453
 20
-15.02548336
  0
VERTEX
  8
0
 10
12.56890214
 20
-15.11857380
  0
VERTEX
  8
0
 10
12.47987763
 20
-15.20743739
  0
VERTEX
  8
0
 10
12.25404647
 20
-15.37081291
  0
VERTEX
  8
0
 10
12.47699107
 20
-15.28288620
  0
VERTEX
  8
0
 10
12.65230108
 20
-15.24285422
  0
VERTEX
  8
0
 10
12.72576572
 20
-15.24420170
  0
VERTEX
  8
0
 10
12.77828448
 20
-15.26755553
  0
VERTEX
  8
0
 10
12.79597701
 20
-15.30853841
  0
VERTEX
  8
0
 10
12.79884477
 20
-15.35894515
  0
VERTEX
  8
0
 10
12.76748611
 20
-15.49102417
  0
VERTEX
  8
0
 10
12.60805304
 20
-15.90120202
  0
VERTEX
  8
0
 10
12.42069542
 20
-16.03242107
  0
VERTEX
  8
0
 10
12.24224928
 20
-16.11406935
  0
VERTEX
  8
0
 10
12.05624601
 20
-16.16768007
  0
VERTEX
  8
0
 10
12.23287432
 20
-16.17866441
  0
VERTEX
  8
0
 10
12.29697104
 20
-16.20502303
  0
VERTEX
  8
0
 10
12.34126328
 20
-16.24875910
  0
VERTEX
  8
0
 10
12.36300639
 20
-16.31247250
  0
VERTEX
  8
0
 10
12.35945573
 20
-16.39876310
  0
VERTEX
  8
0
 10
12.32786664
 20
-16.51023076
  0
VERTEX
  8
0
 10
12.26549449
 20
-16.64947536
  0
VERTEX
  8
0
 10
12.22978228
 20
-16.71392324
  0
VERTEX
  8
0
 10
12.12838783
 20
-16.85958894
  0
VERTEX
  8
0
 10
12.05575140
 20
-16.94052943
  0
VERTEX
  8
0
 10
11.96992437
 20
-17.01495554
  0
VERTEX
  8
0
 10
11.87198340
 20
-17.07392765
  0
VERTEX
  8
0
 10
11.76300513
 20
-17.10850614
  0
VERTEX
  8
0
 10
11.62376639
 20
-17.06214420
  0
VERTEX
  8
0
 10
11.57590789
 20
-17.06148735
  0
VERTEX
  8
0
 10
11.54485439
 20
-17.07359186
  0
VERTEX
  8
0
 10
11.53232925
 20
-17.09676672
  0
VERTEX
  8
0
 10
11.54005578
 20
-17.12932090
  0
VERTEX
  8
0
 10
11.62315719
 20
-17.21580310
  0
VERTEX
  8
0
 10
11.62923234
 20
-17.28861840
  0
VERTEX
  8
0
 10
11.61472228
 20
-17.36660433
  0
VERTEX
  8
0
 10
11.54832690
 20
-17.51974373
  0
VERTEX
  8
0
 10
11.43669769
 20
-17.68628181
  0
VERTEX
  8
0
 10
11.21627352
 20
-17.83587380
  0
VERTEX
  8
0
 10
11.12166344
 20
-17.87439363
  0
VERTEX
  8
0
 10
11.03785656
 20
-17.88888572
  0
VERTEX
  8
0
 10
10.96515428
 20
-17.87946737
  0
VERTEX
  8
0
 10
10.90385800
 20
-17.84625585
  0
VERTEX
  8
0
 10
10.85426910
 20
-17.78936847
  0
VERTEX
  8
0
 10
10.81668899
 20
-17.70892250
  0
VERTEX
  8
0
 10
10.83180197
 20
-17.86405137
  0
VERTEX
  8
0
 10
10.82966263
 20
-18.02206103
  0
VERTEX
  8
0
 10
10.80236556
 20
-18.20178847
  0
VERTEX
  8
0
 10
10.72110957
 20
-18.28690101
  0
VERTEX
  8
0
 10
10.62220981
 20
-18.36656226
  0
VERTEX
  8
0
 10
10.40212086
 20
-18.50004209
  0
VERTEX
  8
0
 10
10.20338246
 20
-18.58325035
  0
VERTEX
  8
0
 10
10.13117089
 20
-18.60007212
  0
VERTEX
  8
0
 10
10.08727836
 20
-18.59720940
  0
VERTEX
  8
0
 10
10.04554694
 20
-18.54559095
  0
VERTEX
  8
0
 10
10.01973537
 20
-18.47953699
  0
VERTEX
  8
0
 10
10.00310454
 20
-18.33040497
  0
VERTEX
  8
0
 10
10.02044129
 20
-18.14802152
  0
VERTEX
  8
0
 10
9.93580732
 20
-18.37419336
  0
VERTEX
  8
0
 10
9.88046213
 20
-18.47541037
  0
VERTEX
  8
0
 10
9.81411571
 20
-18.56719084
  0
VERTEX
  8
0
 10
9.73503123
 20
-18.64839182
  0
VERTEX
  8
0
 10
9.64147188
 20
-18.71787035
  0
VERTEX
  8
0
 10
9.53170083
 20
-18.77448349
  0
VERTEX
  8
0
 10
9.40398125
 20
-18.81708827
  0
VERTEX
  8
0
 10
9.36126676
 20
-18.81122579
  0
VERTEX
  8
0
 10
9.26514842
 20
-18.78279961
  0
VERTEX
  8
0
 10
9.16366393
 20
-18.71555164
  0
VERTEX
  8
0
 10
9.12592116
 20
-18.66228882
  0
VERTEX
  8
0
 10
9.10485100
 20
-18.59322377
  0
VERTEX
  8
0
 10
9.12560348
 20
-18.51584821
  0
VERTEX
  8
0
 10
8.53660511
 20
-17.82632295
  0
VERTEX
  8
0
 10
8.44419787
 20
-16.92684548
  0
SEQEND
  0
POLYLINE
  8
pobeda_orden_002
 66
   1
 39
0.000000
 70
    1
  0
VERTEX
  8
0
 10
9.89169816
 20
-16.49003496
  0
VERTEX
  8
0
 10
10.15494169
 20
-16.65348874
  0
VERTEX
  8
0
 10
10.42812149
 20
-16.50725482
  0
VERTEX
  8
0
 10
10.70130130
 20
-16.36102090
  0
VERTEX
  8
0
 10
10.71123756
 20
-16.05131072
  0
VERTEX
  8
0
 10
10.72117382
 20
-15.74160054
  0
VERTEX
  8
0
 10
10.45795277
 20
-15.57814676
  0
VERTEX
  8
0
 10
10.19470923
 20
-15.41469298
  0
VERTEX
  8
0
 10
9.92152943
 20
-15.56092690
  0
VERTEX
  8
0
 10
9.64834962
 20
-15.70718330
  0
VERTEX
  8
0
 10
9.63841336
 20
-16.01687100
  0
VERTEX
  8
0
 10
9.62845462
 20
-16.32658118
  0
VERTEX
  8
0
 10
9.89169816
 20
-16.49003496
  0
SEQEND
  0
POLYLINE
  8
pobeda_orden_002
 66
   1
 39
0.000000
 70
    1
  0
VERTEX
  8
0
 10
10.77424522
 20
-19.80081139
  0
VERTEX
  8
0
 10
10.96487066
 20
-19.57189324
  0
VERTEX
  8
0
 10
11.07350217
 20
-19.46920940
  0
VERTEX
  8
0
 10
11.13248364
 20
-19.43309983
  0
VERTEX
  8
0
 10
11.19508452
 20
-19.41182649
  0
VERTEX
  8
0
 10
11.03076664
 20
-19.36915886
  0
VERTEX
  8
0
 10
10.88621916
 20
-19.32224492
  0
VERTEX
  8
0
 10
10.75416811
 20
-19.26398479
  0
VERTEX
  8
0
 10
10.76675381
 20
-19.11584488
  0
VERTEX
  8
0
 10
10.83752267
 20
-18.94879942
  0
VERTEX
  8
0
 10
10.89972607
 20
-18.86072413
  0
VERTEX
  8
0
 10
10.98247559
 20
-18.77096687
  0
VERTEX
  8
0
 10
11.08777135
 20
-18.68054247
  0
VERTEX
  8
0
 10
11.21761345
 20
-18.59046573
  0
VERTEX
  8
0
 10
11.30958996
 20
-18.55331862
  0
VERTEX
  8
0
 10
11.39669396
 20
-18.53361969
  0
VERTEX
  8
0
 10
11.54717225
 20
-18.53116130
  0
VERTEX
  8
0
 10
11.65082384
 20
-18.55228037
  0
VERTEX
  8
0
 10
11.68942425
 20
-18.56616677
  0
VERTEX
  8
0
 10
11.62889057
 20
-18.51606255
  0
VERTEX
  8
0
 10
11.58303841
 20
-18.45904645
  0
VERTEX
  8
0
 10
11.55480573
 20
-18.39347662
  0
VERTEX
  8
0
 10
11.54713048
 20
-18.31771118
  0
VERTEX
  8
0
 10
11.56295063
 20
-18.23010828
  0
VERTEX
  8
0
 10
11.60520413
 20
-18.12902606
  0
VERTEX
  8
0
 10
11.67682894
 20
-18.01282265
  0
VERTEX
  8
0
 10
11.78076302
 20
-17.87985621
  0
VERTEX
  8
0
 10
11.92997411
 20
-17.75925158
  0
VERTEX
  8
0
 10
12.07792567
 20
-17.67443566
  0
VERTEX
  8
0
 10
12.15899063
 20
-17.64513176
  0
VERTEX
  8
0
 10
12.24049701
 20
-17.63189056
  0
VERTEX
  8
0
 10
12.27576514
 20
-17.69194073
  0
VERTEX
  8
0
 10
12.32386782
 20
-17.73407411
  0
VERTEX
  8
0
 10
12.34421176
 20
-17.73517999
  0
VERTEX
  8
0
 10
12.35753993
 20
-17.71591625
  0
VERTEX
  8
0
 10
12.34951634
 20
-17.59509266
  0
VERTEX
  8
0
 10
12.38370849
 20
-17.50285453
  0
VERTEX
  8
0
 10
12.44026945
 20
-17.41194660
  0
VERTEX
  8
0
 10
12.58729918
 20
-17.24764378
  0
VERTEX
  8
0
 10
12.78459962
 20
-17.08374760
  0
VERTEX
  8
0
 10
12.97961919
 20
-16.99160938
  0
VERTEX
  8
0
 10
13.04629846
 20
-16.96485676
  0
VERTEX
  8
0
 10
13.09752343
 20
-16.95728724
  0
VERTEX
  8
0
 10
13.13711864
 20
-16.97362990
  0
VERTEX
  8
0
 10
13.16890860
 20
-17.01861384
  0
VERTEX
  8
0
 10
13.22437097
 20
-17.21342186
  0
VERTEX
  8
0
 10
13.26778413
 20
-17.10690879
  0
VERTEX
  8
0
 10
13.42400816
 20
-16.80620993
  0
VERTEX
  8
0
 10
13.55534119
 20
-16.72777629
  0
VERTEX
  8
0
 10
13.69876704
 20
-16.68810936
  0
VERTEX
  8
0
 10
13.84283444
 20
-16.69793920
  0
VERTEX
  8
0
 10
13.91153020
 20
-16.72476857
  0
VERTEX
  8
0
 10
13.97609210
 20
-16.76799591
  0
VERTEX
  8
0
 10
14.00151088
 20
-16.80063288
  0
VERTEX
  8
0
 10
14.00566577
 20
-16.86423731
  0
VERTEX
  8
0
 10
13.97222124
 20
-17.04080451
  0
VERTEX
  8
0
 10
13.89257608
 20
-17.28656397
  0
VERTEX
  8
0
 10
14.05085386
 20
-17.06171953
  0
VERTEX
  8
0
 10
14.21714843
 20
-16.89618318
  0
VERTEX
  8
0
 10
14.30471607
 20
-16.84137832
  0
VERTEX
  8
0
 10
14.39598478
 20
-16.80826781
  0
VERTEX
  8
0
 10
14.49152018
 20
-16.79914078
  0
VERTEX
  8
0
 10
14.59188790
 20
-16.81628633
  0
VERTEX
  8
0
 10
14.61673562
 20
-16.83867379
  0
VERTEX
  8
0
 10
14.66555603
 20
-16.90760136
  0
VERTEX
  8
0
 10
14.69976506
 20
-17.02571683
  0
VERTEX
  8
0
 10
14.69933276
 20
-17.10404747
  0
VERTEX
  8
0
 10
14.68077858
 20
-17.19566802
  0
VERTEX
  8
0
 10
14.60996868
 20
-17.27844335
  0
VERTEX
  8
0
 10
14.60624742
 20
-17.30307453
  0
VERTEX
  8
0
 10
14.66584423
 20
-17.28754130
  0
VERTEX
  8
0
 10
14.75090113
 20
-17.25185178
  0
VERTEX
  8
0
 10
14.82542200
 20
-17.24537438
  0
VERTEX
  8
0
 10
14.88915877
 20
-17.26057205
  0
VERTEX
  8
0
 10
14.94186334
 20
-17.28990776
  0
VERTEX
  8
0
 10
15.01318357
 20
-17.36084511
  0
VERTEX
  8
0
 10
15.03739801
 20
-17.39789008
  0
VERTEX
  8
0
 10
15.03679593
 20
-17.50374982
  0
VERTEX
  8
0
 10
15.01815513
 20
-17.60745389
  0
VERTEX
  8
0
 10
14.98185232
 20
-17.70857606
  0
VERTEX
  8
0
 10
14.92826417
 20
-17.80669008
  0
VERTEX
  8
0
 10
14.85776737
 20
-17.90136973
  0
VERTEX
  8
0
 10
14.77073862
 20
-17.99218876
  0
VERTEX
  8
0
 10
14.54859200
 20
-18.16054004
  0
VERTEX
  8
0
 10
14.76952860
 20
-18.06768307
  0
VERTEX
  8
0
 10
14.94390620
 20
-18.02376707
  0
VERTEX
  8
0
 10
15.01738264
 20
-18.02348245
  0
VERTEX
  8
0
 10
15.07040717
 20
-18.04566399
  0
VERTEX
  8
0
 10
15.08900563
 20
-18.08624379
  0
VERTEX
  8
0
 10
15.09299229
 20
-18.13657440
  0
VERTEX
  8
0
 10
15.06457505
 20
-18.26931735
  0
VERTEX
  8
0
 10
14.91429200
 20
-18.68293527
  0
VERTEX
  8
0
 10
14.72989518
 20
-18.81828344
  0
VERTEX
  8
0
 10
14.55330660
 20
-18.90387515
  0
VERTEX
  8
0
 10
14.36853999
 20
-18.96160406
  0
VERTEX
  8
0
 10
14.54536871
 20
-18.96866250
  0
VERTEX
  8
0
 10
14.61003509
 20
-18.99359093
  0
VERTEX
  8
0
 10
14.65528785
 20
-19.03633242
  0
VERTEX
  8
0
 10
14.67844077
 20
-19.09954715
  0
VERTEX
  8
0
 10
14.67680763
 20
-19.18589533
  0
VERTEX
  8
0
 10
14.64770220
 20
-19.29803713
  0
VERTEX
  8
0
 10
14.58843827
 20
-19.43863276
  0
VERTEX
  8
0
 10
14.55416637
 20
-19.50385796
  0
VERTEX
  8
0
 10
14.45603240
 20
-19.65173985
  0
VERTEX
  8
0
 10
14.38521170
 20
-19.73427375
  0
VERTEX
  8
0
 10
14.30105896
 20
-19.81058785
  0
VERTEX
  8
0
 10
14.20445201
 20
-19.87172082
  0
VERTEX
  8
0
 10
14.09626867
 20
-19.90871136
  0
VERTEX
  8
0
 10
13.95603452
 20
-19.86545357
  0
VERTEX
  8
0
 10
13.90817323
 20
-19.86585989
  0
VERTEX
  8
0
 10
13.87739626
 20
-19.87865116
  0
VERTEX
  8
0
 10
13.86538895
 20
-19.90209851
  0
VERTEX
  8
0
 10
13.87383665
 20
-19.93447304
  0
VERTEX
  8
0
 10
13.95883847
 20
-20.01908809
  0
VERTEX
  8
0
 10
13.96652946
 20
-20.09175049
  0
VERTEX
  8
0
 10
13.95375517
 20
-20.17003947
  0
VERTEX
  8
0
 10
13.89077763
 20
-20.32461583
  0
VERTEX
  8
0
 10
13.78287504
 20
-20.49359228
  0
VERTEX
  8
0
 10
13.56582791
 20
-20.64804334
  0
VERTEX
  8
0
 10
13.47209676
 20
-20.68865509
  0
VERTEX
  8
0
 10
13.38863245
 20
-20.70500509
  0
VERTEX
  8
0
 10
13.31573891
 20
-20.69720389
  0
VERTEX
  8
0
 10
13.25372007
 20
-20.66536206
  0
VERTEX
  8
0
 10
13.20287985
 20
-20.60959016
  0
VERTEX
  8
0
 10
13.16352218
 20
-20.52999874
  0
VERTEX
  8
0
 10
13.18207709
 20
-20.68475366
  0
VERTEX
  8
0
 10
13.18344791
 20
-20.84277186
  0
VERTEX
  8
0
 10
13.16014960
 20
-21.02306127
  0
VERTEX
  8
0
 10
13.08080414
 20
-21.10995763
  0
VERTEX
  8
0
 10
12.98369818
 20
-21.19179595
  0
VERTEX
  8
0
 10
12.76662832
 20
-21.33013137
  0
VERTEX
  8
0
 10
12.56978714
 20
-21.41773339
  0
VERTEX
  8
0
 10
12.49796702
 20
-21.43615494
  0
VERTEX
  8
0
 10
12.45402174
 20
-21.43426784
  0
VERTEX
  8
0
 10
12.41115408
 20
-21.38358905
  0
VERTEX
  8
0
 10
12.38388172
 20
-21.31812470
  0
VERTEX
  8
0
 10
12.36394253
 20
-21.16939887
  0
VERTEX
  8
0
 10
12.37722399
 20
-20.98667534
  0
VERTEX
  8
0
 10
12.29763453
 20
-21.21467123
  0
VERTEX
  8
0
 10
12.24455118
 20
-21.31709257
  0
VERTEX
  8
0
 10
12.18025972
 20
-21.41032406
  0
VERTEX
  8
0
 10
12.10299835
 20
-21.49326160
  0
VERTEX
  8
0
 10
12.01100530
 20
-21.56480109
  0
VERTEX
  8
0
 10
11.90251880
 20
-21.62383844
  0
VERTEX
  8
0
 10
11.77577705
 20
-21.66926956
  0
VERTEX
  8
0
 10
11.73294288
 20
-21.66435728
  0
VERTEX
  8
0
 10
11.63621687
 20
-21.63807306
  0
VERTEX
  8
0
 10
11.53326373
 20
-21.57309580
  0
VERTEX
  8
0
 10
11.49434723
 20
-21.52068445
  0
VERTEX
  8
0
 10
11.47174822
 20
-21.45210444
  0
VERTEX
  8
0
 10
11.49077695
 20
-21.37428702
  0
VERTEX
  8
0
 10
10.88660846
 20
-20.69801444
  0
VERTEX
  8
0
 10
10.77424522
 20
-19.80081139
  0
SEQEND
  0
POLYLINE
  8
pobeda_orden_002
 66
   1
 39
0.000000
 70
    1
  0
VERTEX
  8
0
 10
12.73758014
 20
-19.25214435
  0
VERTEX
  8
0
 10
13.00082367
 20
-19.41559813
  0
VERTEX
  8
0
 10
13.27400348
 20
-19.26936421
  0
VERTEX
  8
0
 10
13.54718328
 20
-19.12313029
  0
VERTEX
  8
0
 10
13.55711954
 20
-18.81342010
  0
VERTEX
  8
0
 10
13.56705580
 20
-18.50370992
  0
VERTEX
  8
0
 10
13.30383475
 20
-18.34025614
  0
VERTEX
  8
0
 10
13.04059121
 20
-18.17680236
  0
VERTEX
  8
0
 10
12.76741141
 20
-18.32303628
  0
VERTEX
  8
0
 10
12.49423161
 20
-18.46929269
  0
VERTEX
  8
0
 10
12.48429534
 20
-18.77898039
  0
VERTEX
  8
0
 10
12.47433660
 20
-19.08869057
  0
VERTEX
  8
0
 10
12.73758014
 20
-19.25214435
  0
SEQEND
  0
POLYLINE
  8
pobeda_orden_002
 66
   1
 39
0.000000
 70
    1
  0
VERTEX
  8
0
 10
-36.06557377
 20
-20.78881148
  0
VERTEX
  8
0
 10
-36.43442623
 20
-20.46094262
  0
VERTEX
  8
0
 10
-22.37704918
 20
-14.47733607
  0
VERTEX
  8
0
 10
-22.62295082
 20
-14.96913934
  0
VERTEX
  8
0
 10
-36.06557377
 20
-20.78881148
  0
SEQEND
  0
POLYLINE
  8
pobeda_orden_002
 66
   1
 39
0.000000
 70
    1
  0
VERTEX
  8
0
 10
-37.90983607
 20
-9.56954918
  0
VERTEX
  8
0
 10
-26.92622951
 20
-8.63717213
  0
VERTEX
  8
0
 10
-26.61885246
 20
-8.98553279
  0
VERTEX
  8
0
 10
-37.90983607
 20
-9.80520492
  0
VERTEX
  8
0
 10
-37.90983607
 20
-9.56954918
  0
SEQEND
  0
POLYLINE
  8
pobeda_orden_002
 66
   1
 39
0.000000
 70
    1
  0
VERTEX
  8
0
 10
-33.43089092
 20
-6.37865227
  0
VERTEX
  8
0
 10
-33.16512959
 20
-5.78751205
  0
VERTEX
  8
0
 10
-32.52039649
 20
-5.72211705
  0
VERTEX
  8
0
 10
-31.87566338
 20
-5.65663213
  0
VERTEX
  8
0
 10
-31.49669160
 20
-6.18230991
  0
VERTEX
  8
0
 10
-31.11771982
 20
-6.70787530
  0
VERTEX
  8
0
 10
-31.38343618
 20
-7.29903801
  0
VERTEX
  8
0
 10
-31.64908511
 20
-7.88993095
  0
VERTEX
  8
0
 10
-32.29375077
 20
-7.95534843
  0
VERTEX
  8
0
 10
-32.93843892
 20
-8.02083335
  0
VERTEX
  8
0
 10
-33.31752310
 20
-7.49529045
  0
VERTEX
  8
0
 10
-33.69649488
 20
-6.96974754
  0
VERTEX
  8
0
 10
-33.43089092
 20
-6.37865227
  0
SEQEND
  0
POLYLINE
  8
pobeda_orden_002
 66
   1
 39
0.000000
 70
    1
  0
VERTEX
  8
0
 10
-28.64392745
 20
-10.28153559
  0
VERTEX
  8
0
 10
-28.37818861
 20
-9.69046280
  0
VERTEX
  8
0
 10
-27.73352294
 20
-9.62504532
  0
VERTEX
  8
0
 10
-27.08874488
 20
-9.55956040
  0
VERTEX
  8
0
 10
-26.70988550
 20
-10.08512578
  0
VERTEX
  8
0
 10
-26.33071139
 20
-10.61071365
  0
VERTEX
  8
0
 10
-26.59649520
 20
-11.20187636
  0
VERTEX
  8
0
 10
-26.86212164
 20
-11.79279178
  0
VERTEX
  8
0
 10
-27.50683227
 20
-11.85827670
  0
VERTEX
  8
0
 10
-28.15145297
 20
-11.92376163
  0
VERTEX
  8
0
 10
-28.53044723
 20
-11.39819624
  0
VERTEX
  8
0
 10
-28.90959886
 20
-10.87251845
  0
VERTEX
  8
0
 10
-28.64392745
 20
-10.28153559
  0
SEQEND
  0
POLYLINE
  8
pobeda_orden_002
 66
   1
 39
0.000000
 70
    1
  0
VERTEX
  8
0
 10
-32.08612333
 20
-10.74424624
  0
VERTEX
  8
0
 10
-31.82049689
 20
-10.15324089
  0
VERTEX
  8
0
 10
-31.17589867
 20
-10.08771101
  0
VERTEX
  8
0
 10
-30.53116556
 20
-10.02227105
  0
VERTEX
  8
0
 10
-30.15208138
 20
-10.54783644
  0
VERTEX
  8
0
 10
-29.77315456
 20
-11.07342430
  0
VERTEX
  8
0
 10
-30.03878100
 20
-11.66460949
  0
VERTEX
  8
0
 10
-30.30442992
 20
-12.25552492
  0
VERTEX
  8
0
 10
-30.94907311
 20
-12.32089744
  0
VERTEX
  8
0
 10
-31.59385117
 20
-12.38642732
  0
VERTEX
  8
0
 10
-31.97286791
 20
-11.86092937
  0
VERTEX
  8
0
 10
-32.35192962
 20
-11.33513918
  0
VERTEX
  8
0
 10
-32.08612333
 20
-10.74424624
  0
SEQEND
  0
POLYLINE
  8
pobeda_orden_002
 66
   1
 39
0.000000
 70
    1
  0
VERTEX
  8
0
 10
-35.52843161
 20
-11.20702433
  0
VERTEX
  8
0
 10
-35.26271525
 20
-10.61590658
  0
VERTEX
  8
0
 10
-34.61809455
 20
-10.55053406
  0
VERTEX
  8
0
 10
-33.97333896
 20
-10.48502666
  0
VERTEX
  8
0
 10
-33.59441214
 20
-11.01068197
  0
VERTEX
  8
0
 10
-33.21546284
 20
-11.53622488
  0
VERTEX
  8
0
 10
-33.48104432
 20
-12.12745502
  0
VERTEX
  8
0
 10
-33.74687309
 20
-12.71828053
  0
VERTEX
  8
0
 10
-34.39142635
 20
-12.78381041
  0
VERTEX
  8
0
 10
-35.03609201
 20
-12.84909301
  0
VERTEX
  8
0
 10
-35.41513124
 20
-12.32368499
  0
VERTEX
  8
0
 10
-35.79421542
 20
-11.79807464
  0
VERTEX
  8
0
 10
-35.52843161
 20
-11.20702433
  0
SEQEND
  0
POLYLINE
  8
pobeda_orden_002
 66
   1
 39
0.000000
 70
    1
  0
VERTEX
  8
0
 10
-35.23694326
 20
-16.41797143
  0
VERTEX
  8
0
 10
-35.10966018
 20
-15.78270250
  0
VERTEX
  8
0
 10
-34.49583740
 20
-15.57498514
  0
VERTEX
  8
0
 10
-33.88196965
 20
-15.36738018
  0
VERTEX
  8
0
 10
-33.39540747
 20
-15.79522399
  0
VERTEX
  8
0
 10
-32.90859801
 20
-16.22313524
  0
VERTEX
  8
0
 10
-33.03581365
 20
-16.85851657
  0
VERTEX
  8
0
 10
-33.16296185
 20
-17.49392038
  0
VERTEX
  8
0
 10
-33.77680712
 20
-17.70143542
  0
VERTEX
  8
0
 10
-34.39056246
 20
-17.90895045
  0
VERTEX
  8
0
 10
-34.87748433
 20
-17.48133145
  0
VERTEX
  8
0
 10
-35.36411395
 20
-17.05339772
  0
VERTEX
  8
0
 10
-35.23694326
 20
-16.41797143
  0
SEQEND
  0
POLYLINE
  8
pobeda_orden_002
 66
   1
 39
0.000000
 70
    1
  0
VERTEX
  8
0
 10
-32.26248077
 20
-15.45461955
  0
VERTEX
  8
0
 10
-32.13546745
 20
-14.81937310
  0
VERTEX
  8
0
 10
-31.52146482
 20
-14.61163326
  0
VERTEX
  8
0
 10
-30.90759708
 20
-14.40411822
  0
VERTEX
  8
0
 10
-30.42094497
 20
-14.83182715
  0
VERTEX
  8
0
 10
-29.93422543
 20
-15.25982832
  0
VERTEX
  8
0
 10
-30.06144108
 20
-15.89518717
  0
VERTEX
  8
0
 10
-30.18854432
 20
-16.53061346
  0
VERTEX
  8
0
 10
-30.80250198
 20
-16.73815098
  0
VERTEX
  8
0
 10
-31.41632477
 20
-16.94582338
  0
VERTEX
  8
0
 10
-31.90304431
 20
-16.51793461
  0
VERTEX
  8
0
 10
-32.38969641
 20
-16.09011328
  0
VERTEX
  8
0
 10
-32.26248077
 20
-15.45461955
  0
SEQEND
  0
POLYLINE
  8
pobeda_orden_002
 66
   1
 39
0.000000
 70
    1
  0
VERTEX
  8
0
 10
-29.30331767
 20
-14.54882349
  0
VERTEX
  8
0
 10
-29.17605707
 20
-13.91357704
  0
VERTEX
  8
0
 10
-28.56227924
 20
-13.70592712
  0
VERTEX
  8
0
 10
-27.94836654
 20
-13.49838960
  0
VERTEX
  8
0
 10
-27.46173692
 20
-13.92616597
  0
VERTEX
  8
0
 10
-26.97492745
 20
-14.35407722
  0
VERTEX
  8
0
 10
-27.10209814
 20
-14.98954847
  0
VERTEX
  8
0
 10
-27.22938122
 20
-15.62488484
  0
VERTEX
  8
0
 10
-27.84311408
 20
-15.83246732
  0
VERTEX
  8
0
 10
-28.45700431
 20
-16.03995988
  0
VERTEX
  8
0
 10
-28.94374633
 20
-15.61216103
  0
VERTEX
  8
0
 10
-29.43039843
 20
-15.18431722
  0
VERTEX
  8
0
 10
-29.30331767
 20
-14.54882349
  0
SEQEND
  0
POLYLINE
  8
pobeda_orden_002
 66
   1
 39
0.000000
 70
    1
  0
VERTEX
  8
0
 10
-26.25980874
 20
-13.60586760
  0
VERTEX
  8
0
 10
-26.13263805
 20
-12.97053123
  0
VERTEX
  8
0
 10
-25.51872535
 20
-12.76285883
  0
VERTEX
  8
0
 10
-24.90494753
 20
-12.55532131
  0
VERTEX
  8
0
 10
-24.41829542
 20
-12.98307520
  0
VERTEX
  8
0
 10
-23.93144100
 20
-13.41105389
  0
VERTEX
  8
0
 10
-24.05852176
 20
-14.04643522
  0
VERTEX
  8
0
 10
-24.18591725
 20
-14.68183903
  0
VERTEX
  8
0
 10
-24.79974003
 20
-14.88930911
  0
VERTEX
  8
0
 10
-25.41360778
 20
-15.09691407
  0
VERTEX
  8
0
 10
-25.90034980
 20
-14.66925010
  0
VERTEX
  8
0
 10
-26.38700190
 20
-14.24113653
  0
VERTEX
  8
0
 10
-26.25980874
 20
-13.60586760
  0
SEQEND
  0
POLYLINE
  8
pobeda_orden_002
 66
   1
 39
0.000000
 70
    1
  0
VERTEX
  8
0
 10
-26.21561260
 20
-17.75286377
  0
VERTEX
  8
0
 10
-26.24420745
 20
-17.10554544
  0
VERTEX
  8
0
 10
-25.69764553
 20
-16.75710181
  0
VERTEX
  8
0
 10
-25.15151073
 20
-16.40874811
  0
VERTEX
  8
0
 10
-24.57644387
 20
-16.70762282
  0
VERTEX
  8
0
 10
-24.00162429
 20
-17.00663241
  0
VERTEX
  8
0
 10
-23.97282711
 20
-17.65395074
  0
VERTEX
  8
0
 10
-23.94459194
 20
-18.30140396
  0
VERTEX
  8
0
 10
-24.49074922
 20
-18.64984758
  0
VERTEX
  8
0
 10
-25.03719874
 20
-18.99815632
  0
VERTEX
  8
0
 10
-25.61208576
 20
-18.69930409
  0
VERTEX
  8
0
 10
-26.18699526
 20
-18.40031698
  0
VERTEX
  8
0
 10
-26.21561260
 20
-17.75286377
  0
SEQEND
  0
POLYLINE
  8
pobeda_orden_002
 66
   1
 39
0.000000
 70
    1
  0
VERTEX
  8
0
 10
-29.45197946
 20
-19.63153691
  0
VERTEX
  8
0
 10
-29.48052935
 20
-18.98412866
  0
VERTEX
  8
0
 10
-28.93405735
 20
-18.63566255
  0
VERTEX
  8
0
 10
-28.38769775
 20
-18.28733133
  0
VERTEX
  8
0
 10
-27.81276577
 20
-18.58640836
  0
VERTEX
  8
0
 10
-27.23790123
 20
-18.88535051
  0
VERTEX
  8
0
 10
-27.20930637
 20
-19.53264636
  0
VERTEX
  8
0
 10
-27.18084640
 20
-20.18005461
  0
VERTEX
  8
0
 10
-27.72716104
 20
-20.52843080
  0
VERTEX
  8
0
 10
-28.27356560
 20
-20.87687442
  0
VERTEX
  8
0
 10
-28.84849758
 20
-20.57793227
  0
VERTEX
  8
0
 10
-29.42340708
 20
-20.27908004
  0
VERTEX
  8
0
 10
-29.45197946
 20
-19.63153691
  0
SEQEND
  0
POLYLINE
  8
pobeda_orden_002
 66
   1
 39
0.000000
 70
    1
  0
VERTEX
  8
0
 10
-32.51803606
 20
-21.00409006
  0
VERTEX
  8
0
 10
-32.54654100
 20
-20.35681669
  0
VERTEX
  8
0
 10
-32.00015892
 20
-20.00832811
  0
VERTEX
  8
0
 10
-31.45382180
 20
-19.65990696
  0
VERTEX
  8
0
 10
-30.87893478
 20
-19.95884911
  0
VERTEX
  8
0
 10
-30.30402528
 20
-20.25792614
  0
VERTEX
  8
0
 10
-30.27534050
 20
-20.90508711
  0
VERTEX
  8
0
 10
-30.24699293
 20
-21.55240545
  0
VERTEX
  8
0
 10
-30.79339749
 20
-21.90091651
  0
VERTEX
  8
0
 10
-31.33980205
 20
-22.24938262
  0
VERTEX
  8
0
 10
-31.91455419
 20
-21.95039551
  0
VERTEX
  8
0
 10
-32.48948617
 20
-21.65147584
  0
VERTEX
  8
0
 10
-32.51803606
 20
-21.00409006
  0
SEQEND
  0
POLYLINE
  8
pobeda_orden_002
 66
   1
 39
0.000000
 70
    1
  0
VERTEX
  8
0
 10
-27.89920227
 20
-24.36117578
  0
VERTEX
  8
0
 10
-27.92793201
 20
-23.71374505
  0
VERTEX
  8
0
 10
-27.38123520
 20
-23.36536886
  0
VERTEX
  8
0
 10
-26.83501048
 20
-23.01699268
  0
VERTEX
  8
0
 10
-26.26012346
 20
-23.31591235
  0
VERTEX
  8
0
 10
-25.68521396
 20
-23.61498938
  0
VERTEX
  8
0
 10
-25.65666406
 20
-24.26226275
  0
VERTEX
  8
0
 10
-25.62811417
 20
-24.90967100
  0
VERTEX
  8
0
 10
-26.17445129
 20
-25.25818207
  0
VERTEX
  8
0
 10
-26.72074345
 20
-25.60651329
  0
VERTEX
  8
0
 10
-27.29581031
 20
-25.30766106
  0
VERTEX
  8
0
 10
-27.87071981
 20
-25.00849411
  0
VERTEX
  8
0
 10
-27.89920227
 20
-24.36117578
  0
SEQEND
  0
POLYLINE
  8
pobeda_orden_002
 66
   1
 39
0.000000
 70
    1
  0
VERTEX
  8
0
 10
-38.14366961
 20
-9.61737956
  0
VERTEX
  8
0
 10
-35.23495216
 20
-7.79947049
  0
VERTEX
  8
0
 10
-35.72277324
 20
-4.40437070
  0
VERTEX
  8
0
 10
-32.35368308
 20
-3.76006472
  0
VERTEX
  8
0
 10
-21.70380719
 20
-12.89371627
  0
VERTEX
  8
0
 10
-25.10819132
 20
-26.82053584
  0
VERTEX
  8
0
 10
-28.24036230
 20
-28.21891878
  0
VERTEX
  8
0
 10
-29.78207921
 20
-25.15493035
  0
VERTEX
  8
0
 10
-33.20775212
 20
-25.32735375
  0
VERTEX
  8
0
 10
-33.53852628
 20
-21.91325816
  0
VERTEX
  8
0
 10
-36.79519279
 20
-20.83645496
  0
VERTEX
  8
0
 10
-35.87019861
 20
-17.53336677
  0
VERTEX
  8
0
 10
-38.51798799
 20
-15.35300889
  0
VERTEX
  8
0
 10
-36.46253029
 20
-12.60704833
  0
VERTEX
  8
0
 10
-38.14366961
 20
-9.61737956
  0
SEQEND
  0
POLYLINE
  8
pobeda_orden_002
 66
   1
 39
0.000000
 70
    1
  0
VERTEX
  8
0
 10
-38.05327869
 20
-15.14331967
  0
VERTEX
  8
0
 10
-23.79098361
 20
-11.32159836
  0
VERTEX
  8
0
 10
-23.50409836
 20
-11.56750000
  0
VERTEX
  8
0
 10
-37.96106557
 20
-15.40971311
  0
VERTEX
  8
0
 10
-38.05327869
 20
-15.14331967
  0
SEQEND
  0
POLYLINE
  8
pobeda_orden_002
 66
   1
 39
0.000000
 70
    1
  0
VERTEX
  8
0
 10
-32.91145947
 20
-25.01846497
  0
VERTEX
  8
0
 10
-23.49148824
 20
-19.29368706
  0
VERTEX
  8
0
 10
-23.44870895
 20
-18.83107953
  0
VERTEX
  8
0
 10
-33.05044089
 20
-24.82815524
  0
VERTEX
  8
0
 10
-32.91145947
 20
-25.01846497
  0
SEQEND
  0
POLYLINE
  8
pobeda_orden_002
 66
   1
 39
0.000000
 70
    1
  0
VERTEX
  8
0
 10
-38.40866496
 20
-9.19337783
 42
0.40070519
  0
VERTEX
  8
0
 10
-38.57949160
 20
-9.86244934
  0
VERTEX
  8
0
 10
-37.05800775
 20
-12.56819340
  0
VERTEX
  8
0
 10
-38.91826858
 20
-15.05338338
 42
0.40071094
  0
VERTEX
  8
0
 10
-38.83582645
 20
-15.73898650
  0
VERTEX
  8
0
 10
-36.43952851
 20
-17.71225036
  0
VERTEX
  8
0
 10
-37.27666990
 20
-20.70162250
 42
0.40072112
  0
VERTEX
  8
0
 10
-36.95215797
 20
-21.31117797
  0
VERTEX
  8
0
 10
-34.00478199
 20
-22.28571554
  0
VERTEX
  8
0
 10
-33.70542184
 20
-25.37557041
 42
0.40071870
  0
VERTEX
  8
0
 10
-33.18261758
 20
-25.82672160
  0
VERTEX
  8
0
 10
-30.08229908
 20
-25.67067418
  0
VERTEX
  8
0
 10
-28.68700753
 20
-28.44365870
 42
0.40072297
  0
VERTEX
  8
0
 10
-28.03652565
 20
-28.67548271
  0
VERTEX
  8
0
 10
-24.90435468
 20
-27.27709977
 42
0.23180952
  0
VERTEX
  8
0
 10
-24.62249222
 20
-26.93926404
  0
VERTEX
  8
0
 10
-21.21810810
 20
-13.01244448
 42
0.28259020
  0
VERTEX
  8
0
 10
-21.37830497
 20
-12.51417932
  0
VERTEX
  8
0
 10
-32.02818085
 20
-3.38052776
 42
0.22831393
  0
VERTEX
  8
0
 10
-32.44760124
 20
-3.26896455
  0
VERTEX
  8
0
 10
-35.81669140
 20
-3.91327053
 42
0.40073074
  0
VERTEX
  8
0
 10
-36.21769054
 20
-4.47548233
  0
VERTEX
  8
0
 10
-35.77620152
 20
-7.54812379
  0
VERTEX
  8
0
 10
-38.40866496
 20
-9.19337783
  0
SEQEND
  0
POLYLINE
  8
pobeda_orden_002
 66
   1
 39
0.000000
 70
    1
  0
VERTEX
  8
0
 10
0.46050120
 20
41.70243582
 42
0.66280342
  0
VERTEX
  8
0
 10
-0.46050146
 20
41.70243519
  0
VERTEX
  8
0
 10
-12.99228409
 20
12.07429785
  0
VERTEX
  8
0
 10
-45.04293047
 20
9.31141209
 42
0.66280389
  0
VERTEX
  8
0
 10
-45.32753488
 20
8.43548590
  0
VERTEX
  8
0
 10
-21.02200730
 20
-12.63851622
  0
VERTEX
  8
0
 10
-28.29852992
 20
-43.97426490
 42
0.66280350
  0
VERTEX
  8
0
 10
-27.55342251
 20
-44.51561591
  0
VERTEX
  8
0
 10
-0.00002206
 20
-27.91193224
  0
VERTEX
  8
0
 10
27.55346808
 20
-44.51561628
 42
0.66280388
  0
VERTEX
  8
0
 10
28.29857460
 20
-43.97426369
  0
VERTEX
  8
0
 10
21.02198537
 20
-12.63858274
  0
VERTEX
  8
0
 10
45.32753530
 20
8.43548626
 42
0.66280392
  0
VERTEX
  8
0
 10
45.04292987
 20
9.31141214
  0
VERTEX
  8
0
 10
12.99235091
 20
12.07425331
  0
VERTEX
  8
0
 10
0.46050120
 20
41.70243582
  0
SEQEND
  0
POLYLINE
  8
pobeda_orden_002
 66
   1
 39
0.000000
 70
    1
  0
VERTEX
  8
0
 10
-25.52155644
 20
23.87509619
  0
VERTEX
  8
0
 10
-25.32828974
 20
24.32918661
  0
VERTEX
  8
0
 10
-15.17780622
 20
12.91073307
  0
VERTEX
  8
0
 10
-15.72232557
 20
12.98713174
  0
VERTEX
  8
0
 10
-25.52155644
 20
23.87509619
  0
SEQEND
  0
POLYLINE
  8
pobeda_orden_002
 66
   1
 39
0.000000
 70
    1
  0
VERTEX
  8
0
 10
-15.47452341
 20
29.19771559
  0
VERTEX
  8
0
 10
-11.09135012
 20
19.08353090
  0
VERTEX
  8
0
 10
-11.32362688
 20
18.68118365
  0
VERTEX
  8
0
 10
-15.69789891
 20
29.12263554
  0
VERTEX
  8
0
 10
-15.47452341
 20
29.19771559
  0
SEQEND
  0
POLYLINE
  8
pobeda_orden_002
 66
   1
 39
0.000000
 70
    1
  0
VERTEX
  8
0
 10
-11.02291267
 20
25.96879403
  0
VERTEX
  8
0
 10
-10.37790560
 20
25.90521939
  0
VERTEX
  8
0
 10
-10.11050606
 20
25.31491881
  0
VERTEX
  8
0
 10
-9.84302129
 20
24.72464688
  0
VERTEX
  8
0
 10
-10.22056489
 20
24.19794243
  0
VERTEX
  8
0
 10
-10.59800195
 20
23.67127380
  0
VERTEX
  8
0
 10
-11.24301600
 20
23.73479866
  0
VERTEX
  8
0
 10
-11.88775285
 20
23.79834554
  0
VERTEX
  8
0
 10
-12.15515222
 20
24.38857503
  0
VERTEX
  8
0
 10
-12.42262266
 20
24.97880434
  0
VERTEX
  8
0
 10
-12.04524273
 20
25.50557235
  0
VERTEX
  8
0
 10
-11.66782698
 20
26.03223383
  0
VERTEX
  8
0
 10
-11.02291267
 20
25.96879403
  0
SEQEND
  0
POLYLINE
  8
pobeda_orden_002
 66
   1
 39
0.000000
 70
    1
  0
VERTEX
  8
0
 10
-13.19728380
 20
20.18782287
  0
VERTEX
  8
0
 10
-12.55234782
 20
20.12424805
  0
VERTEX
  8
0
 10
-12.28494846
 20
19.53401856
  0
VERTEX
  8
0
 10
-12.01744936
 20
18.94370402
  0
VERTEX
  8
0
 10
-12.39492223
 20
18.41714192
  0
VERTEX
  8
0
 10
-12.77231614
 20
17.89027434
  0
VERTEX
  8
0
 10
-13.41735168
 20
17.95386313
  0
VERTEX
  8
0
 10
-14.06210268
 20
18.01738154
  0
VERTEX
  8
0
 10
-14.32958029
 20
18.60763216
  0
VERTEX
  8
0
 10
-14.59702926
 20
19.19779754
  0
VERTEX
  8
0
 10
-14.21959936
 20
19.72448749
  0
VERTEX
  8
0
 10
-13.84211306
 20
20.25136241
  0
VERTEX
  8
0
 10
-13.19728380
 20
20.18782287
  0
SEQEND
  0
POLYLINE
  8
pobeda_orden_002
 66
   1
 39
0.000000
 70
    1
  0
VERTEX
  8
0
 10
-14.73256773
 20
23.30322282
  0
VERTEX
  8
0
 10
-14.08773149
 20
23.23973306
  0
VERTEX
  8
0
 10
-13.82024707
 20
22.64960331
  0
VERTEX
  8
0
 10
-13.55280491
 20
22.05931706
  0
VERTEX
  8
0
 10
-13.93020616
 20
21.53254188
  0
VERTEX
  8
0
 10
-14.30767885
 20
21.00590870
  0
VERTEX
  8
0
 10
-14.95268556
 20
21.06934116
  0
VERTEX
  8
0
 10
-15.59744373
 20
21.13288088
  0
VERTEX
  8
0
 10
-15.86479331
 20
21.72310338
  0
VERTEX
  8
0
 10
-16.13233503
 20
22.31340360
  0
VERTEX
  8
0
 10
-15.75497622
 20
22.84009337
  0
VERTEX
  8
0
 10
-15.37735472
 20
23.36691887
  0
VERTEX
  8
0
 10
-14.73256773
 20
23.30322282
  0
SEQEND
  0
POLYLINE
  8
pobeda_orden_002
 66
   1
 39
0.000000
 70
    1
  0
VERTEX
  8
0
 10
-16.26795139
 20
26.41870784
  0
VERTEX
  8
0
 10
-15.62297996
 20
26.35516865
  0
VERTEX
  8
0
 10
-15.35563754
 20
25.76496746
  0
VERTEX
  8
0
 10
-15.08812430
 20
25.17468138
  0
VERTEX
  8
0
 10
-15.46566091
 20
24.64802671
  0
VERTEX
  8
0
 10
-15.84308382
 20
24.12138655
  0
VERTEX
  8
0
 10
-16.48811883
 20
24.18476207
  0
VERTEX
  8
0
 10
-17.13284906
 20
24.24850091
  0
VERTEX
  8
0
 10
-17.40031915
 20
24.83858804
  0
VERTEX
  8
0
 10
-17.66759066
 20
25.42886050
  0
VERTEX
  8
0
 10
-17.29032425
 20
25.95554293
  0
VERTEX
  8
0
 10
-16.91288039
 20
26.48233244
  0
VERTEX
  8
0
 10
-16.26795139
 20
26.41870784
  0
SEQEND
  0
POLYLINE
  8
pobeda_orden_002
 66
   1
 39
0.000000
 70
    1
  0
VERTEX
  8
0
 10
-21.11448281
 20
24.48219852
  0
VERTEX
  8
0
 10
-20.47176588
 20
24.56394531
  0
VERTEX
  8
0
 10
-20.07930857
 20
24.04828828
  0
VERTEX
  8
0
 10
-19.68694349
 20
23.53255281
  0
VERTEX
  8
0
 10
-19.93747297
 20
22.93503456
  0
VERTEX
  8
0
 10
-20.18798760
 20
22.33726043
  0
VERTEX
  8
0
 10
-20.83078959
 20
22.25541390
  0
VERTEX
  8
0
 10
-21.47359140
 20
22.17349627
  0
VERTEX
  8
0
 10
-21.86586408
 20
22.68923908
  0
VERTEX
  8
0
 10
-22.25810812
 20
23.20489665
  0
VERTEX
  8
0
 10
-22.00790632
 20
23.80268422
  0
VERTEX
  8
0
 10
-21.75731309
 20
24.40029504
  0
VERTEX
  8
0
 10
-21.11448281
 20
24.48219852
  0
SEQEND
  0
POLYLINE
  8
pobeda_orden_002
 66
   1
 39
0.000000
 70
    1
  0
VERTEX
  8
0
 10
-19.25366666
 20
21.96966250
  0
VERTEX
  8
0
 10
-18.61105698
 20
22.05165784
  0
VERTEX
  8
0
 10
-18.21852107
 20
21.53583750
  0
VERTEX
  8
0
 10
-17.82624122
 20
21.02007338
  0
VERTEX
  8
0
 10
-18.07661420
 20
20.42251287
  0
VERTEX
  8
0
 10
-18.32724271
 20
19.82479532
  0
VERTEX
  8
0
 10
-18.97002339
 20
19.74295595
  0
VERTEX
  8
0
 10
-19.61283219
 20
19.66098855
  0
VERTEX
  8
0
 10
-20.00516199
 20
20.17683073
  0
VERTEX
  8
0
 10
-20.39757668
 20
20.69250209
  0
VERTEX
  8
0
 10
-20.14705471
 20
21.29018383
  0
VERTEX
  8
0
 10
-19.89657519
 20
21.88778015
  0
VERTEX
  8
0
 10
-19.25366666
 20
21.96966250
  0
SEQEND
  0
POLYLINE
  8
pobeda_orden_002
 66
   1
 39
0.000000
 70
    1
  0
VERTEX
  8
0
 10
-17.45228143
 20
19.45329130
  0
VERTEX
  8
0
 10
-16.80959297
 20
19.53505224
  0
VERTEX
  8
0
 10
-16.41721392
 20
19.01941634
  0
VERTEX
  8
0
 10
-16.02489844
 20
18.50361677
  0
VERTEX
  8
0
 10
-16.27534251
 20
17.90605608
  0
VERTEX
  8
0
 10
-16.52585714
 20
17.30828195
  0
VERTEX
  8
0
 10
-17.16873003
 20
17.22636414
  0
VERTEX
  8
0
 10
-17.81151089
 20
17.14459586
  0
VERTEX
  8
0
 10
-18.20381169
 20
17.66021063
  0
VERTEX
  8
0
 10
-18.59607739
 20
18.17600322
  0
VERTEX
  8
0
 10
-18.34564783
 20
18.77367761
  0
VERTEX
  8
0
 10
-18.09514699
 20
19.37128110
  0
VERTEX
  8
0
 10
-17.45228143
 20
19.45329130
  0
SEQEND
  0
POLYLINE
  8
pobeda_orden_002
 66
   1
 39
0.000000
 70
    1
  0
VERTEX
  8
0
 10
-15.58880019
 20
16.86880874
  0
VERTEX
  8
0
 10
-14.94605514
 20
16.95068357
  0
VERTEX
  8
0
 10
-14.55361181
 20
16.43492698
  0
VERTEX
  8
0
 10
-14.16133930
 20
15.91925526
  0
VERTEX
  8
0
 10
-14.41175490
 20
15.32168042
  0
VERTEX
  8
0
 10
-14.66231913
 20
14.72384219
  0
VERTEX
  8
0
 10
-15.30507814
 20
14.64186780
  0
VERTEX
  8
0
 10
-15.94795874
 20
14.56018457
  0
VERTEX
  8
0
 10
-16.34018164
 20
15.07592039
  0
VERTEX
  8
0
 10
-16.73254672
 20
15.59165586
  0
VERTEX
  8
0
 10
-16.48224501
 20
16.18928728
  0
VERTEX
  8
0
 10
-16.23148847
 20
16.78697671
  0
VERTEX
  8
0
 10
-15.58880019
 20
16.86880874
  0
SEQEND
  0
POLYLINE
  8
pobeda_orden_002
 66
   1
 39
0.000000
 70
    1
  0
VERTEX
  8
0
 10
-19.50561159
 20
15.50568037
  0
VERTEX
  8
0
 10
-18.90113596
 20
15.73902111
  0
VERTEX
  8
0
 10
-18.39671512
 20
15.33195538
  0
VERTEX
  8
0
 10
-17.89251560
 20
14.92526586
  0
VERTEX
  8
0
 10
-17.99259904
 20
14.28494462
  0
VERTEX
  8
0
 10
-18.09288912
 20
13.64481480
  0
VERTEX
  8
0
 10
-18.69730029
 20
13.41128229
  0
VERTEX
  8
0
 10
-19.30201837
 20
13.17823951
  0
VERTEX
  8
0
 10
-19.80631029
 20
13.58492169
  0
VERTEX
  8
0
 10
-20.31056746
 20
13.99192385
  0
VERTEX
  8
0
 10
-20.21044803
 20
14.63206746
  0
VERTEX
  8
0
 10
-20.11020791
 20
15.27227535
  0
VERTEX
  8
0
 10
-19.50561159
 20
15.50568037
  0
SEQEND
  0
POLYLINE
  8
pobeda_orden_002
 66
   1
 39
0.000000
 70
    1
  0
VERTEX
  8
0
 10
-22.31749363
 20
17.97485080
  0
VERTEX
  8
0
 10
-21.71291844
 20
18.20817757
  0
VERTEX
  8
0
 10
-21.20850494
 20
17.80120423
  0
VERTEX
  8
0
 10
-20.70425511
 20
17.39429447
  0
VERTEX
  8
0
 10
-20.80457330
 20
16.75403662
  0
VERTEX
  8
0
 10
-20.90478513
 20
16.11388567
  0
VERTEX
  8
0
 10
-21.50923945
 20
15.88055209
  0
VERTEX
  8
0
 10
-22.11384329
 20
15.64731056
  0
VERTEX
  8
0
 10
-22.61812142
 20
16.05416338
  0
VERTEX
  8
0
 10
-23.12249212
 20
16.46107996
  0
VERTEX
  8
0
 10
-23.02230178
 20
17.10129483
  0
VERTEX
  8
0
 10
-22.92218951
 20
17.74145975
  0
VERTEX
  8
0
 10
-22.31749363
 20
17.97485080
  0
SEQEND
  0
POLYLINE
  8
pobeda_orden_002
 66
   1
 39
0.000000
 70
    1
  0
VERTEX
  8
0
 10
-24.59536913
 20
20.44383612
  0
VERTEX
  8
0
 10
-23.99090747
 20
20.67707730
  0
VERTEX
  8
0
 10
-23.48650131
 20
20.27019636
  0
VERTEX
  8
0
 10
-22.98217340
 20
19.86333655
  0
VERTEX
  8
0
 10
-23.08237807
 20
19.22316429
  0
VERTEX
  8
0
 10
-23.18270342
 20
18.58292775
  0
VERTEX
  8
0
 10
-23.78700124
 20
18.34955191
  0
VERTEX
  8
0
 10
-24.39155566
 20
18.11644557
  0
VERTEX
  8
0
 10
-24.89599029
 20
18.52334066
  0
VERTEX
  8
0
 10
-25.40038230
 20
18.93025007
  0
VERTEX
  8
0
 10
-25.30009205
 20
19.57030880
  0
VERTEX
  8
0
 10
-25.19992302
 20
20.21051651
  0
VERTEX
  8
0
 10
-24.59536913
 20
20.44383612
  0
SEQEND
  0
POLYLINE
  8
pobeda_orden_002
 66
   1
 39
0.000000
 70
    1
  0
VERTEX
  8
0
 10
-26.30595090
 20
14.99612466
  0
VERTEX
  8
0
 10
-25.70141170
 20
15.22962906
  0
VERTEX
  8
0
 10
-25.19701182
 20
14.82241399
  0
VERTEX
  8
0
 10
-24.69276234
 20
14.41564640
  0
VERTEX
  8
0
 10
-24.79294569
 20
13.77548130
  0
VERTEX
  8
0
 10
-24.89327105
 20
13.13524476
  0
VERTEX
  8
0
 10
-25.49771838
 20
12.90196096
  0
VERTEX
  8
0
 10
-26.10229357
 20
12.66863419
  0
VERTEX
  8
0
 10
-26.60670672
 20
13.07546535
  0
VERTEX
  8
0
 10
-27.11093507
 20
13.48231119
  0
VERTEX
  8
0
 10
-27.01087294
 20
14.12262527
  0
VERTEX
  8
0
 10
-26.91046235
 20
14.76289046
  0
VERTEX
  8
0
 10
-26.30595090
 20
14.99612466
  0
SEQEND
  0
POLYLINE
  8
pobeda_orden_002
 66
   1
 39
0.000000
 70
    1
  0
VERTEX
  8
0
 10
-15.59436081
 20
29.40412506
  0
VERTEX
  8
0
 10
-12.94446565
 20
27.22617046
  0
VERTEX
  8
0
 10
-9.88170776
 20
28.77025144
  0
VERTEX
  8
0
 10
-8.19758313
 20
25.78200397
  0
VERTEX
  8
0
 10
-13.46221506
 20
12.77711652
  0
VERTEX
  8
0
 10
-27.74793374
 20
11.56700239
  0
VERTEX
  8
0
 10
-30.07135709
 20
14.09042741
  0
VERTEX
  8
0
 10
-27.65822785
 20
16.52799246
  0
VERTEX
  8
0
 10
-28.91308743
 20
19.72021616
  0
VERTEX
  8
0
 10
-25.78228839
 20
21.12148616
  0
VERTEX
  8
0
 10
-25.79917421
 20
24.55151484
  0
VERTEX
  8
0
 10
-22.37350936
 20
24.72708875
  0
VERTEX
  8
0
 10
-21.15035917
 20
27.93156260
  0
VERTEX
  8
0
 10
-17.89262320
 20
26.85808132
  0
VERTEX
  8
0
 10
-15.59436081
 20
29.40412506
  0
SEQEND
  0
POLYLINE
  8
pobeda_orden_002
 66
   1
 39
0.000000
 70
    1
  0
VERTEX
  8
0
 10
-20.80354041
 20
27.55787684
  0
VERTEX
  8
0
 10
-12.63699727
 20
15.25640588
  0
VERTEX
  8
0
 10
-12.77868294
 20
14.90612609
  0
VERTEX
  8
0
 10
-21.02667269
 20
27.38559594
  0
VERTEX
  8
0
 10
-20.80354041
 20
27.55787684
  0
SEQEND
  0
POLYLINE
  8
pobeda_orden_002
 66
   1
 39
0.000000
 70
    1
  0
VERTEX
  8
0
 10
-28.52589613
 20
19.53777574
  0
VERTEX
  8
0
 10
-20.09823358
 20
12.43260551
  0
VERTEX
  8
0
 10
-19.64610345
 20
12.53944251
  0
VERTEX
  8
0
 10
-28.38978317
 20
19.73014749
  0
VERTEX
  8
0
 10
-28.52589613
 20
19.53777574
  0
SEQEND
  0
POLYLINE
  8
pobeda_orden_002
 66
   1
 39
0.000000
 70
    1
  0
VERTEX
  8
0
 10
-15.27688187
 20
29.79039845
 42
0.40070519
  0
VERTEX
  8
0
 10
-15.96551290
 20
29.73915659
  0
VERTEX
  8
0
 10
-18.04551250
 20
27.43490709
  0
VERTEX
  8
0
 10
-20.99387705
 20
28.40644505
 42
0.40071094
  0
VERTEX
  8
0
 10
-21.61748664
 20
28.10986552
  0
VERTEX
  8
0
 10
-22.72445999
 20
25.20975792
  0
VERTEX
  8
0
 10
-25.82476687
 20
25.05085943
 42
0.40072112
  0
VERTEX
  8
0
 10
-26.29916815
 20
24.54905340
  0
VERTEX
  8
0
 10
-26.28388600
 20
21.44477971
  0
VERTEX
  8
0
 10
-29.11734933
 20
20.17658999
 42
0.40071870
  0
VERTEX
  8
0
 10
-29.37842488
 20
19.53729253
  0
VERTEX
  8
0
 10
-28.24274600
 20
16.64825132
  0
VERTEX
  8
0
 10
-30.42668703
 20
14.44219528
 42
0.40072297
  0
VERTEX
  8
0
 10
-30.43918658
 20
13.75175136
  0
VERTEX
  8
0
 10
-28.11576323
 20
11.22832634
 42
0.23180952
  0
VERTEX
  8
0
 10
-27.70573090
 20
11.06878665
  0
VERTEX
  8
0
 10
-13.42001222
 20
12.27890078
 42
0.28259020
  0
VERTEX
  8
0
 10
-12.99875093
 20
12.58949721
  0
VERTEX
  8
0
 10
-7.73411900
 20
25.59438466
 42
0.22831393
  0
VERTEX
  8
0
 10
-7.76199703
 20
26.02749277
  0
VERTEX
  8
0
 10
-9.44612166
 20
29.01574024
 42
0.40073074
  0
VERTEX
  8
0
 10
-10.10679463
 20
29.21672193
  0
VERTEX
  8
0
 10
-12.87865921
 20
27.81929402
  0
VERTEX
  8
0
 10
-15.27688187
 20
29.79039845
  0
SEQEND
  0
POLYLINE
  8
pobeda_orden_002
 66
   1
 39
0.000000
 70
    1
  0
VERTEX
  8
0
 10
3.13378962
 20
-44.86982914
  0
VERTEX
  8
0
 10
2.71101960
 20
-45.12441829
  0
VERTEX
  8
0
 10
1.18117747
 20
-29.92333346
  0
VERTEX
  8
0
 10
1.57753780
 20
-30.30443262
  0
VERTEX
  8
0
 10
3.13378962
 20
-44.86982914
  0
SEQEND
  0
POLYLINE
  8
pobeda_orden_002
 66
   1
 39
0.000000
 70
    1
  0
VERTEX
  8
0
 10
-8.12607323
 20
-43.29228723
  0
VERTEX
  8
0
 10
-5.74806723
 20
-32.52873636
  0
VERTEX
  8
0
 10
-5.32402545
 20
-32.33893550
  0
VERTEX
  8
0
 10
-7.90109110
 20
-43.36240618
  0
VERTEX
  8
0
 10
-8.12607323
 20
-43.29228723
  0
SEQEND
  0
POLYLINE
  8
pobeda_orden_002
 66
   1
 39
0.000000
 70
    1
  0
VERTEX
  8
0
 10
-9.83974196
 20
-38.06676217
  0
VERTEX
  8
0
 10
-10.32503074
 20
-37.63714530
  0
VERTEX
  8
0
 10
-10.19562460
 20
-37.00215606
  0
VERTEX
  8
0
 10
-10.06630430
 20
-36.36714007
  0
VERTEX
  8
0
 10
-9.45167376
 20
-36.16174763
  0
VERTEX
  8
0
 10
-8.83715054
 20
-35.95632175
  0
VERTEX
  8
0
 10
-8.35182692
 20
-36.38590238
  0
VERTEX
  8
0
 10
-7.86674078
 20
-36.81533836
  0
VERTEX
  8
0
 10
-7.99610540
 20
-37.45026991
  0
VERTEX
  8
0
 10
-8.12541232
 20
-38.08524298
  0
VERTEX
  8
0
 10
-8.73994753
 20
-38.29078286
  0
VERTEX
  8
0
 10
-9.35444929
 20
-38.49621543
  0
VERTEX
  8
0
 10
-9.83974196
 20
-38.06676217
  0
SEQEND
  0
POLYLINE
  8
pobeda_orden_002
 66
   1
 39
0.000000
 70
    1
  0
VERTEX
  8
0
 10
-4.68928026
 20
-34.65791168
  0
VERTEX
  8
0
 10
-5.17451134
 20
-34.22833634
  0
VERTEX
  8
0
 10
-5.04514673
 20
-33.59340480
  0
VERTEX
  8
0
 10
-4.91581305
 20
-32.95834588
  0
VERTEX
  8
0
 10
-4.30132328
 20
-32.75302731
  0
VERTEX
  8
0
 10
-3.68671839
 20
-32.54741496
  0
VERTEX
  8
0
 10
-3.20141484
 20
-32.97705998
  0
VERTEX
  8
0
 10
-2.71630055
 20
-33.40648119
  0
VERTEX
  8
0
 10
-2.84561416
 20
-34.04147572
  0
VERTEX
  8
0
 10
-2.97490101
 20
-34.67638440
  0
VERTEX
  8
0
 10
-3.58943092
 20
-34.88183175
  0
VERTEX
  8
0
 10
-4.20411497
 20
-35.08739588
  0
VERTEX
  8
0
 10
-4.68928026
 20
-34.65791168
  0
SEQEND
  0
POLYLINE
  8
pobeda_orden_002
 66
   1
 39
0.000000
 70
    1
  0
VERTEX
  8
0
 10
-5.27174656
 20
-38.08187819
  0
VERTEX
  8
0
 10
-5.75694670
 20
-37.65243022
  0
VERTEX
  8
0
 10
-5.62770946
 20
-37.01752962
  0
VERTEX
  8
0
 10
-5.49834624
 20
-36.38252701
  0
VERTEX
  8
0
 10
-4.88378957
 20
-36.17699382
  0
VERTEX
  8
0
 10
-4.26925826
 20
-35.97161755
  0
VERTEX
  8
0
 10
-3.78388643
 20
-36.40111902
  0
VERTEX
  8
0
 10
-3.29877882
 20
-36.83056169
  0
VERTEX
  8
0
 10
-3.42817967
 20
-37.46545839
  0
VERTEX
  8
0
 10
-3.55747042
 20
-38.10053069
  0
VERTEX
  8
0
 10
-4.17194264
 20
-38.30601956
  0
VERTEX
  8
0
 10
-4.78670724
 20
-38.51146440
  0
VERTEX
  8
0
 10
-5.27174656
 20
-38.08187819
  0
SEQEND
  0
POLYLINE
  8
pobeda_orden_002
 66
   1
 39
0.000000
 70
    1
  0
VERTEX
  8
0
 10
-5.85418191
 20
-41.50597207
  0
VERTEX
  8
0
 10
-6.33946260
 20
-41.07640482
  0
VERTEX
  8
0
 10
-6.21006844
 20
-40.44152958
  0
VERTEX
  8
0
 10
-6.08076292
 20
-39.80648543
  0
VERTEX
  8
0
 10
-5.46616722
 20
-39.60112923
  0
VERTEX
  8
0
 10
-4.85167215
 20
-39.39571812
  0
VERTEX
  8
0
 10
-4.36624401
 20
-39.82519005
  0
VERTEX
  8
0
 10
-3.88127577
 20
-40.25477766
  0
VERTEX
  8
0
 10
-4.01049963
 20
-40.88963533
  0
VERTEX
  8
0
 10
-4.13999302
 20
-41.52452674
  0
VERTEX
  8
0
 10
-4.75438608
 20
-41.73006383
  0
VERTEX
  8
0
 10
-5.36898567
 20
-41.93558365
  0
VERTEX
  8
0
 10
-5.85418191
 20
-41.50597207
  0
SEQEND
  0
POLYLINE
  8
pobeda_orden_002
 66
   1
 39
0.000000
 70
    1
  0
VERTEX
  8
0
 10
-0.79252350
 20
-42.77819425
  0
VERTEX
  8
0
 10
-1.36114620
 20
-42.46765308
  0
VERTEX
  8
0
 10
-1.37681349
 20
-41.81982637
  0
VERTEX
  8
0
 10
-1.39236010
 20
-41.17199018
  0
VERTEX
  8
0
 10
-0.83911899
 20
-40.83477013
  0
VERTEX
  8
0
 10
-0.28573992
 20
-40.49733407
  0
VERTEX
  8
0
 10
0.28301016
 20
-40.80784430
  0
VERTEX
  8
0
 10
0.85180176
 20
-41.11829683
  0
VERTEX
  8
0
 10
0.86726921
 20
-41.76608480
  0
VERTEX
  8
0
 10
0.88276340
 20
-42.41378693
  0
VERTEX
  8
0
 10
0.32962990
 20
-42.75141726
  0
VERTEX
  8
0
 10
-0.22371712
 20
-43.08867494
  0
VERTEX
  8
0
 10
-0.79252350
 20
-42.77819425
  0
SEQEND
  0
POLYLINE
  8
pobeda_orden_002
 66
   1
 39
0.000000
 70
    1
  0
VERTEX
  8
0
 10
-0.82719603
 20
-39.65181107
  0
VERTEX
  8
0
 10
-1.39587753
 20
-39.34153413
  0
VERTEX
  8
0
 10
-1.41151278
 20
-38.69352904
  0
VERTEX
  8
0
 10
-1.42697353
 20
-38.04571960
  0
VERTEX
  8
0
 10
-0.87383444
 20
-37.70837357
  0
VERTEX
  8
0
 10
-0.32039628
 20
-37.37105011
  0
VERTEX
  8
0
 10
0.24833234
 20
-37.68155365
  0
VERTEX
  8
0
 10
0.81715878
 20
-37.99196995
  0
VERTEX
  8
0
 10
0.83261424
 20
-38.63987192
  0
VERTEX
  8
0
 10
0.84823861
 20
-39.28768525
  0
VERTEX
  8
0
 10
0.29490776
 20
-39.62504216
  0
VERTEX
  8
0
 10
-0.25833864
 20
-39.96235474
  0
VERTEX
  8
0
 10
-0.82719603
 20
-39.65181107
  0
SEQEND
  0
POLYLINE
  8
pobeda_orden_002
 66
   1
 39
0.000000
 70
    1
  0
VERTEX
  8
0
 10
-0.81147193
 20
-36.55715996
  0
VERTEX
  8
0
 10
-1.38007986
 20
-36.24664694
  0
VERTEX
  8
0
 10
-1.39569614
 20
-35.59888322
  0
VERTEX
  8
0
 10
-1.41116498
 20
-34.95102417
  0
VERTEX
  8
0
 10
-0.85796820
 20
-34.61371967
  0
VERTEX
  8
0
 10
-0.30458913
 20
-34.27628361
  0
VERTEX
  8
0
 10
0.26426018
 20
-34.58677767
  0
VERTEX
  8
0
 10
0.83294726
 20
-34.89733891
  0
VERTEX
  8
0
 10
0.84851254
 20
-35.54503964
  0
VERTEX
  8
0
 10
0.86394514
 20
-36.19286384
  0
VERTEX
  8
0
 10
0.31069345
 20
-36.53026897
  0
VERTEX
  8
0
 10
-0.24257441
 20
-36.86757486
  0
VERTEX
  8
0
 10
-0.81147193
 20
-36.55715996
  0
SEQEND
  0
POLYLINE
  8
pobeda_orden_002
 66
   1
 39
0.000000
 70
    1
  0
VERTEX
  8
0
 10
-0.80612762
 20
-33.37092647
  0
VERTEX
  8
0
 10
-1.37484815
 20
-33.06047254
  0
VERTEX
  8
0
 10
-1.39044576
 20
-32.41257336
  0
VERTEX
  8
0
 10
-1.40595473
 20
-31.76484309
  0
VERTEX
  8
0
 10
-0.85277272
 20
-31.42751043
  0
VERTEX
  8
0
 10
-0.29931589
 20
-31.09005151
  0
VERTEX
  8
0
 10
0.26947432
 20
-31.40043297
  0
VERTEX
  8
0
 10
0.83819235
 20
-31.71112158
  0
VERTEX
  8
0
 10
0.85362356
 20
-32.35887471
  0
VERTEX
  8
0
 10
0.86917016
 20
-33.00671091
  0
VERTEX
  8
0
 10
0.31604724
 20
-33.34415616
  0
VERTEX
  8
0
 10
-0.23747816
 20
-33.68138179
  0
VERTEX
  8
0
 10
-0.80612762
 20
-33.37092647
  0
SEQEND
  0
POLYLINE
  8
pobeda_orden_002
 66
   1
 39
0.000000
 70
    1
  0
VERTEX
  8
0
 10
3.16618825
 20
-34.56266349
  0
VERTEX
  8
0
 10
2.53968070
 20
-34.39735477
  0
VERTEX
  8
0
 10
2.36964774
 20
-33.77186960
  0
VERTEX
  8
0
 10
2.19957354
 20
-33.14681898
  0
VERTEX
  8
0
 10
2.65602138
 20
-32.68672838
  0
VERTEX
  8
0
 10
3.11252441
 20
-32.22691400
  0
VERTEX
  8
0
 10
3.73909217
 20
-32.39202956
  0
VERTEX
  8
0
 10
4.36562147
 20
-32.55772181
  0
VERTEX
  8
0
 10
4.53577483
 20
-33.18282066
  0
VERTEX
  8
0
 10
4.70571246
 20
-33.80815837
  0
VERTEX
  8
0
 10
4.24933960
 20
-34.26808396
  0
VERTEX
  8
0
 10
3.79283127
 20
-34.72799088
  0
VERTEX
  8
0
 10
3.16618825
 20
-34.56266349
  0
SEQEND
  0
POLYLINE
  8
pobeda_orden_002
 66
   1
 39
0.000000
 70
    1
  0
VERTEX
  8
0
 10
3.99679502
 20
-38.21144076
  0
VERTEX
  8
0
 10
3.37021499
 20
-38.04606236
  0
VERTEX
  8
0
 10
3.20013382
 20
-37.42065636
  0
VERTEX
  8
0
 10
3.03014797
 20
-36.79539780
  0
VERTEX
  8
0
 10
3.48674883
 20
-36.33549618
  0
VERTEX
  8
0
 10
3.94320086
 20
-35.87561881
  0
VERTEX
  8
0
 10
4.56968695
 20
-36.04092084
  0
VERTEX
  8
0
 10
5.19624022
 20
-36.20638509
  0
VERTEX
  8
0
 10
5.36628237
 20
-36.83161410
  0
VERTEX
  8
0
 10
5.53636215
 20
-37.45694903
  0
VERTEX
  8
0
 10
5.07989006
 20
-37.91689078
  0
VERTEX
  8
0
 10
4.62351051
 20
-38.37683783
  0
VERTEX
  8
0
 10
3.99679502
 20
-38.21144076
  0
SEQEND
  0
POLYLINE
  8
pobeda_orden_002
 66
   1
 39
0.000000
 70
    1
  0
VERTEX
  8
0
 10
4.39488111
 20
-41.54702658
  0
VERTEX
  8
0
 10
3.76844324
 20
-41.38164539
  0
VERTEX
  8
0
 10
3.59831384
 20
-40.75631855
  0
VERTEX
  8
0
 10
3.42823546
 20
-40.13105469
  0
VERTEX
  8
0
 10
3.88469417
 20
-39.67115586
  0
VERTEX
  8
0
 10
4.34128835
 20
-39.21127570
  0
VERTEX
  8
0
 10
4.96767242
 20
-39.37645175
  0
VERTEX
  8
0
 10
5.59410640
 20
-39.54199655
  0
VERTEX
  8
0
 10
5.76425057
 20
-40.16735155
  0
VERTEX
  8
0
 10
5.93435181
 20
-40.79269317
  0
VERTEX
  8
0
 10
5.47789031
 20
-41.25244985
  0
VERTEX
  8
0
 10
5.02143968
 20
-41.71239829
  0
VERTEX
  8
0
 10
4.39488111
 20
-41.54702658
  0
SEQEND
  0
POLYLINE
  8
pobeda_orden_002
 66
   1
 39
0.000000
 70
    1
  0
VERTEX
  8
0
 10
8.97423946
 20
-38.13628952
  0
VERTEX
  8
0
 10
8.34758446
 20
-37.97107612
  0
VERTEX
  8
0
 10
8.17765602
 20
-37.34548226
  0
VERTEX
  8
0
 10
8.00758711
 20
-36.72033909
  0
VERTEX
  8
0
 10
8.46402436
 20
-36.26043357
  0
VERTEX
  8
0
 10
8.92061854
 20
-35.80055341
  0
VERTEX
  8
0
 10
9.54706979
 20
-35.96589168
  0
VERTEX
  8
0
 10
10.17364982
 20
-36.13127008
  0
VERTEX
  8
0
 10
10.34381405
 20
-36.75656069
  0
VERTEX
  8
0
 10
10.51381997
 20
-37.38175486
  0
VERTEX
  8
0
 10
10.05739359
 20
-37.84185214
  0
VERTEX
  8
0
 10
9.60071357
 20
-38.30170555
  0
VERTEX
  8
0
 10
8.97423946
 20
-38.13628952
  0
SEQEND
  0
POLYLINE
  8
pobeda_orden_002
 66
   1
 39
0.000000
 70
    1
  0
VERTEX
  8
0
 10
-8.14998600
 20
-43.52976155
  0
VERTEX
  8
0
 10
-9.02007240
 20
-40.21187363
  0
VERTEX
  8
0
 10
-12.40654751
 20
-39.66739379
  0
VERTEX
  8
0
 10
-12.01920399
 20
-36.25918844
  0
VERTEX
  8
0
 10
-0.13039313
 20
-28.80938150
  0
VERTEX
  8
0
 10
12.15266757
 20
-36.20347065
  0
VERTEX
  8
0
 10
12.55574132
 20
-39.60986192
  0
VERTEX
  8
0
 10
9.17179564
 20
-40.17006518
  0
VERTEX
  8
0
 10
8.31710651
 20
-43.49188264
  0
VERTEX
  8
0
 10
4.95922501
 20
-42.79181687
  0
VERTEX
  8
0
 10
2.96217833
 20
-45.58057761
  0
VERTEX
  8
0
 10
0.08392799
 20
-43.71465134
  0
VERTEX
  8
0
 10
-2.78551952
 20
-45.59375220
  0
VERTEX
  8
0
 10
-4.79550890
 20
-42.81433708
  0
VERTEX
  8
0
 10
-8.14998600
 20
-43.52976155
  0
SEQEND
  0
POLYLINE
  8
pobeda_orden_002
 66
   1
 39
0.000000
 70
    1
  0
VERTEX
  8
0
 10
-2.84743781
 20
-45.08769843
  0
VERTEX
  8
0
 10
-2.25234042
 20
-30.33424209
  0
VERTEX
  8
0
 10
-1.93221426
 20
-30.13351839
  0
VERTEX
  8
0
 10
-2.56567233
 20
-45.07892684
  0
VERTEX
  8
0
 10
-2.84743781
 20
-45.08769843
  0
SEQEND
  0
POLYLINE
  8
pobeda_orden_002
 66
   1
 39
0.000000
 70
    1
  0
VERTEX
  8
0
 10
8.11036964
 20
-43.11710072
  0
VERTEX
  8
0
 10
5.44778109
 20
-32.42039272
  0
VERTEX
  8
0
 10
5.01885544
 20
-32.24190298
  0
VERTEX
  8
0
 10
7.88732598
 20
-43.19316090
  0
VERTEX
  8
0
 10
8.11036964
 20
-43.11710072
  0
SEQEND
  0
POLYLINE
  8
pobeda_orden_002
 66
   1
 39
0.000000
 70
    1
  0
VERTEX
  8
0
 10
-8.63363223
 20
-43.65659344
 42
0.40070519
  0
VERTEX
  8
0
 10
-8.04569428
 20
-44.01876384
  0
VERTEX
  8
0
 10
-5.00978723
 20
-43.37128224
  0
VERTEX
  8
0
 10
-3.19067681
 20
-45.88674976
 42
0.40071094
  0
VERTEX
  8
0
 10
-2.51159635
 20
-46.01204169
  0
VERTEX
  8
0
 10
0.08530626
 20
-44.31142096
  0
VERTEX
  8
0
 10
2.69019020
 20
-46.00012791
 42
0.40072112
  0
VERTEX
  8
0
 10
3.36869489
 20
-45.87168632
  0
VERTEX
  8
0
 10
5.17607904
 20
-43.34777840
  0
VERTEX
  8
0
 10
8.21505853
 20
-43.98135808
 42
0.40071870
  0
VERTEX
  8
0
 10
8.80133512
 20
-43.61647255
  0
VERTEX
  8
0
 10
9.57484987
 20
-40.61014579
  0
VERTEX
  8
0
 10
12.63740355
 20
-40.10314812
 42
0.40072297
  0
VERTEX
  8
0
 10
13.05227724
 20
-39.55110748
  0
VERTEX
  8
0
 10
12.64920348
 20
-36.14471622
 42
0.23180952
  0
VERTEX
  8
0
 10
12.41053710
 20
-35.77509780
  0
VERTEX
  8
0
 10
0.12747640
 20
-28.38100864
 42
0.28259020
  0
VERTEX
  8
0
 10
-0.39588702
 20
-28.38569177
  0
VERTEX
  8
0
 10
-12.28469788
 20
-35.83549870
 42
0.22831393
  0
VERTEX
  8
0
 10
-12.51600584
 20
-36.20272676
  0
VERTEX
  8
0
 10
-12.90334936
 20
-39.61093211
 42
0.40073074
  0
VERTEX
  8
0
 10
-12.48591852
 20
-40.16105383
  0
VERTEX
  8
0
 10
-9.42108259
 20
-40.65382030
  0
VERTEX
  8
0
 10
-8.63363223
 20
-43.65659344
  0
SEQEND
  0
POLYLINE
  8
pobeda_orden_002
 66
   1
 39
0.000000
 70
    1
  0
VERTEX
  8
0
 10
20.33351423
 20
27.59631382
  0
VERTEX
  8
0
 10
20.82500929
 20
27.55178594
  0
VERTEX
  8
0
 10
13.07416000
 20
14.38600711
  0
VERTEX
  8
0
 10
12.97970177
 20
14.92768573
  0
VERTEX
  8
0
 10
20.33351423
 20
27.59631382
  0
SEQEND
  0
POLYLINE
  8
pobeda_orden_002
 66
   1
 39
0.000000
 70
    1
  0
VERTEX
  8
0
 10
28.48354278
 20
19.66850300
  0
VERTEX
  8
0
 10
20.20341292
 20
12.39193860
  0
VERTEX
  8
0
 10
19.74918623
 20
12.48947788
  0
VERTEX
  8
0
 10
28.34351206
 20
19.85804197
  0
VERTEX
  8
0
 10
28.48354278
 20
19.66850300
  0
SEQEND
  0
POLYLINE
  8
pobeda_orden_002
 66
   1
 39
0.000000
 70
    1
  0
VERTEX
  8
0
 10
26.77719316
 20
14.44058337
  0
VERTEX
  8
0
 10
26.91470589
 20
13.80720662
  0
VERTEX
  8
0
 10
26.43500298
 20
13.37149755
  0
VERTEX
  8
0
 10
25.95535350
 20
12.93571615
  0
VERTEX
  8
0
 10
25.33817793
 20
13.13332957
  0
VERTEX
  8
0
 10
24.72106915
 20
13.33085259
  0
VERTEX
  8
0
 10
24.58350690
 20
13.96422070
  0
VERTEX
  8
0
 10
24.44605071
 20
14.59733176
  0
VERTEX
  8
0
 10
24.92568602
 20
15.03301884
  0
VERTEX
  8
0
 10
25.40529934
 20
15.46877353
  0
VERTEX
  8
0
 10
26.02248516
 20
15.27133538
  0
VERTEX
  8
0
 10
26.63958058
 20
15.07383044
  0
VERTEX
  8
0
 10
26.77719316
 20
14.44058337
  0
SEQEND
  0
POLYLINE
  8
pobeda_orden_002
 66
   1
 39
0.000000
 70
    1
  0
VERTEX
  8
0
 10
20.60785590
 20
14.73519345
  0
VERTEX
  8
0
 10
20.74534663
 20
14.10188430
  0
VERTEX
  8
0
 10
20.26571132
 20
13.66619722
  0
VERTEX
  8
0
 10
19.78602568
 20
13.23038910
  0
VERTEX
  8
0
 10
19.16900731
 20
13.42797891
  0
VERTEX
  8
0
 10
18.55172244
 20
13.62539979
  0
VERTEX
  8
0
 10
18.41421444
 20
14.25880798
  0
VERTEX
  8
0
 10
18.27672680
 20
14.89192376
  0
VERTEX
  8
0
 10
18.75635820
 20
15.32769180
  0
VERTEX
  8
0
 10
19.23591728
 20
15.76340641
  0
VERTEX
  8
0
 10
19.85304413
 20
15.56589675
  0
VERTEX
  8
0
 10
20.47036435
 20
15.36839019
  0
VERTEX
  8
0
 10
20.60785590
 20
14.73519345
  0
SEQEND
  0
POLYLINE
  8
pobeda_orden_002
 66
   1
 39
0.000000
 70
    1
  0
VERTEX
  8
0
 10
23.10147893
 20
17.15276615
  0
VERTEX
  8
0
 10
23.23902000
 20
16.51957804
  0
VERTEX
  8
0
 10
22.75950572
 20
16.08384063
  0
VERTEX
  8
0
 10
22.27982953
 20
15.64809539
  0
VERTEX
  8
0
 10
21.66263034
 20
15.84555162
  0
VERTEX
  8
0
 10
21.04554437
 20
16.04311943
  0
VERTEX
  8
0
 10
20.90789644
 20
16.67645219
  0
VERTEX
  8
0
 10
20.77042689
 20
17.30958133
  0
VERTEX
  8
0
 10
21.25007083
 20
17.74521890
  0
VERTEX
  8
0
 10
21.72972976
 20
18.18106318
  0
VERTEX
  8
0
 10
22.34683462
 20
17.98362112
  0
VERTEX
  8
0
 10
22.96414930
 20
17.78597072
  0
VERTEX
  8
0
 10
23.10147893
 20
17.15276615
  0
SEQEND
  0
POLYLINE
  8
pobeda_orden_002
 66
   1
 39
0.000000
 70
    1
  0
VERTEX
  8
0
 10
25.59515230
 20
19.57045988
  0
VERTEX
  8
0
 10
25.73268783
 20
18.93712794
  0
VERTEX
  8
0
 10
25.25306197
 20
18.50150373
  0
VERTEX
  8
0
 10
24.77340777
 20
18.06569089
  0
VERTEX
  8
0
 10
24.15628172
 20
18.26331295
  0
VERTEX
  8
0
 10
23.53920438
 20
18.46083125
  0
VERTEX
  8
0
 10
23.40149357
 20
19.09417345
  0
VERTEX
  8
0
 10
23.26422210
 20
19.72733714
  0
VERTEX
  8
0
 10
23.74370021
 20
20.16304784
  0
VERTEX
  8
0
 10
24.22341567
 20
20.59862643
  0
VERTEX
  8
0
 10
24.84048519
 20
20.40127005
  0
VERTEX
  8
0
 10
25.45771108
 20
20.20377766
  0
VERTEX
  8
0
 10
25.59515230
 20
19.57045988
  0
SEQEND
  0
POLYLINE
  8
pobeda_orden_002
 66
   1
 39
0.000000
 70
    1
  0
VERTEX
  8
0
 10
22.26427185
 20
23.58844079
  0
VERTEX
  8
0
 10
22.53938530
 20
23.00185730
  0
VERTEX
  8
0
 10
22.16911411
 20
22.47004516
  0
VERTEX
  8
0
 10
21.79873997
 20
21.93829670
  0
VERTEX
  8
0
 10
21.15316360
 20
21.99328973
  0
VERTEX
  8
0
 10
20.50734826
 20
22.04819007
  0
VERTEX
  8
0
 10
20.23211379
 20
22.63482389
  0
VERTEX
  8
0
 10
19.95681171
 20
23.22143571
  0
VERTEX
  8
0
 10
20.32722120
 20
23.75309849
  0
VERTEX
  8
0
 10
20.69755837
 20
24.28470783
  0
VERTEX
  8
0
 10
21.34329046
 20
24.23010934
  0
VERTEX
  8
0
 10
21.98897450
 20
24.17508405
  0
VERTEX
  8
0
 10
22.26427185
 20
23.58844079
  0
SEQEND
  0
POLYLINE
  8
pobeda_orden_002
 66
   1
 39
0.000000
 70
    1
  0
VERTEX
  8
0
 10
20.44433858
 20
21.04613536
  0
VERTEX
  8
0
 10
20.71965564
 20
20.45973025
  0
VERTEX
  8
0
 10
20.34925316
 20
19.92779316
  0
VERTEX
  8
0
 10
19.97882559
 20
19.39611703
  0
VERTEX
  8
0
 10
19.33325704
 20
19.45094814
  0
VERTEX
  8
0
 10
18.68746060
 20
19.50597424
  0
VERTEX
  8
0
 10
18.41223948
 20
20.09258997
  0
VERTEX
  8
0
 10
18.13688789
 20
20.67919316
  0
VERTEX
  8
0
 10
18.50737443
 20
21.21094081
  0
VERTEX
  8
0
 10
18.87767233
 20
21.74271679
  0
VERTEX
  8
0
 10
19.52340198
 20
21.68778110
  0
VERTEX
  8
0
 10
20.16903732
 20
21.63285958
  0
VERTEX
  8
0
 10
20.44433858
 20
21.04613536
  0
SEQEND
  0
POLYLINE
  8
pobeda_orden_002
 66
   1
 39
0.000000
 70
    1
  0
VERTEX
  8
0
 10
18.60251003
 20
18.55921351
  0
VERTEX
  8
0
 10
18.87762819
 20
17.97266146
  0
VERTEX
  8
0
 10
18.50735309
 20
17.44093027
  0
VERTEX
  8
0
 10
18.13690271
 20
16.90920934
  0
VERTEX
  8
0
 10
17.49131218
 20
16.96410806
  0
VERTEX
  8
0
 10
16.84549684
 20
17.01900840
  0
VERTEX
  8
0
 10
16.57017277
 20
17.60568782
  0
VERTEX
  8
0
 10
16.29501926
 20
18.19232555
  0
VERTEX
  8
0
 10
16.66529827
 20
18.72397578
  0
VERTEX
  8
0
 10
17.03575728
 20
19.25564719
  0
VERTEX
  8
0
 10
17.68145158
 20
19.20079718
  0
VERTEX
  8
0
 10
18.32710027
 20
19.14585758
  0
VERTEX
  8
0
 10
18.60251003
 20
18.55921351
  0
SEQEND
  0
POLYLINE
  8
pobeda_orden_002
 66
   1
 39
0.000000
 70
    1
  0
VERTEX
  8
0
 10
16.71492274
 20
15.99228408
  0
VERTEX
  8
0
 10
16.99016667
 20
15.40571314
  0
VERTEX
  8
0
 10
16.61979644
 20
14.87388373
  0
VERTEX
  8
0
 10
16.24945455
 20
14.34224294
  0
VERTEX
  8
0
 10
15.60385929
 20
14.39711022
  0
VERTEX
  8
0
 10
14.95796772
 20
14.45203809
  0
VERTEX
  8
0
 10
14.68262475
 20
15.03859175
  0
VERTEX
  8
0
 10
14.40752157
 20
15.62535052
  0
VERTEX
  8
0
 10
14.77793970
 20
16.15696377
  0
VERTEX
  8
0
 10
15.14831384
 20
16.68871223
  0
VERTEX
  8
0
 10
15.79392799
 20
16.63397071
  0
VERTEX
  8
0
 10
16.43973698
 20
16.57881414
  0
VERTEX
  8
0
 10
16.71492274
 20
15.99228408
  0
SEQEND
  0
POLYLINE
  8
pobeda_orden_002
 66
   1
 39
0.000000
 70
    1
  0
VERTEX
  8
0
 10
14.21515861
 20
19.30146976
  0
VERTEX
  8
0
 10
14.62280536
 20
18.79782025
  0
VERTEX
  8
0
 10
14.39025436
 20
18.19278890
  0
VERTEX
  8
0
 10
14.15799348
 20
17.58808368
  0
VERTEX
  8
0
 10
13.51786807
 20
17.48675527
  0
VERTEX
  8
0
 10
12.87786140
 20
17.38568229
  0
VERTEX
  8
0
 10
12.47005193
 20
17.88921157
  0
VERTEX
  8
0
 10
12.06261434
 20
18.39318329
  0
VERTEX
  8
0
 10
12.29483987
 20
18.99797419
  0
VERTEX
  8
0
 10
12.52738061
 20
19.60283026
  0
VERTEX
  8
0
 10
13.16734801
 20
19.70406989
  0
VERTEX
  8
0
 10
13.80741364
 20
19.80521439
  0
VERTEX
  8
0
 10
14.21515861
 20
19.30146976
  0
SEQEND
  0
POLYLINE
  8
pobeda_orden_002
 66
   1
 39
0.000000
 70
    1
  0
VERTEX
  8
0
 10
15.70184300
 20
22.73560032
  0
VERTEX
  8
0
 10
16.10950701
 20
22.23185178
  0
VERTEX
  8
0
 10
15.87704170
 20
21.62685578
  0
VERTEX
  8
0
 10
15.64458665
 20
21.02203506
  0
VERTEX
  8
0
 10
15.00444950
 20
20.92094953
  0
VERTEX
  8
0
 10
14.36444675
 20
20.81979558
  0
VERTEX
  8
0
 10
13.95681336
 20
21.32342701
  0
VERTEX
  8
0
 10
13.54922167
 20
21.82722898
  0
VERTEX
  8
0
 10
13.78161385
 20
22.43205915
  0
VERTEX
  8
0
 10
14.01403827
 20
23.03699699
  0
VERTEX
  8
0
 10
14.65409527
 20
23.13819101
  0
VERTEX
  8
0
 10
15.29408075
 20
23.23944400
  0
VERTEX
  8
0
 10
15.70184300
 20
22.73560032
  0
SEQEND
  0
POLYLINE
  8
pobeda_orden_002
 66
   1
 39
0.000000
 70
    1
  0
VERTEX
  8
0
 10
17.35229134
 20
25.66145500
  0
VERTEX
  8
0
 10
17.75983904
 20
25.15778822
  0
VERTEX
  8
0
 10
17.52745941
 20
24.55282758
  0
VERTEX
  8
0
 10
17.29507587
 20
23.94794789
  0
VERTEX
  8
0
 10
16.65505504
 20
23.84678059
  0
VERTEX
  8
0
 10
16.01493597
 20
23.74570841
  0
VERTEX
  8
0
 10
15.60731041
 20
24.24917792
  0
VERTEX
  8
0
 10
15.19986256
 20
24.75297436
  0
VERTEX
  8
0
 10
15.43224691
 20
25.35796644
  0
VERTEX
  8
0
 10
15.66465798
 20
25.96292237
  0
VERTEX
  8
0
 10
16.30459704
 20
26.06397336
  0
VERTEX
  8
0
 10
16.94464068
 20
26.16518546
  0
VERTEX
  8
0
 10
17.35229134
 20
25.66145500
  0
SEQEND
  0
POLYLINE
  8
pobeda_orden_002
 66
   1
 39
0.000000
 70
    1
  0
VERTEX
  8
0
 10
11.64250391
 20
25.61698316
  0
VERTEX
  8
0
 10
12.05032593
 20
25.11332340
  0
VERTEX
  8
0
 10
11.81762638
 20
24.50826615
  0
VERTEX
  8
0
 10
11.58530653
 20
23.90348941
  0
VERTEX
  8
0
 10
10.94529905
 20
23.80230403
  0
VERTEX
  8
0
 10
10.30517999
 20
23.70123185
  0
VERTEX
  8
0
 10
9.89759612
 20
24.20487191
  0
VERTEX
  8
0
 10
9.48993211
 20
24.70862046
  0
VERTEX
  8
0
 10
9.72226222
 20
25.31357247
  0
VERTEX
  8
0
 10
9.95466303
 20
25.91835311
  0
VERTEX
  8
0
 10
10.59477508
 20
26.01969961
  0
VERTEX
  8
0
 10
11.23494758
 20
26.12069946
  0
VERTEX
  8
0
 10
11.64250391
 20
25.61698316
  0
SEQEND
  0
POLYLINE
  8
pobeda_orden_002
 66
   1
 39
0.000000
 70
    1
  0
VERTEX
  8
0
 10
28.64319452
 20
19.84592113
  0
VERTEX
  8
0
 10
27.38393298
 20
16.65535834
  0
VERTEX
  8
0
 10
29.79371679
 20
14.21453594
  0
VERTEX
  8
0
 10
27.46680011
 20
11.69434598
  0
VERTEX
  8
0
 10
13.47368274
 20
12.71224249
  0
VERTEX
  8
0
 10
7.93628682
 20
25.93659053
  0
VERTEX
  8
0
 10
9.62456274
 20
28.92250652
  0
VERTEX
  8
0
 10
12.68524764
 20
27.37424166
  0
VERTEX
  8
0
 10
15.33807489
 20
29.54851677
  0
VERTEX
  8
0
 10
17.63283280
 20
26.99909598
  0
VERTEX
  8
0
 10
20.89203953
 20
28.06818596
  0
VERTEX
  8
0
 10
22.11081476
 20
24.86184961
  0
VERTEX
  8
0
 10
25.53605016
 20
24.68154022
  0
VERTEX
  8
0
 10
25.51453357
 20
21.25156314
  0
VERTEX
  8
0
 10
28.64319452
 20
19.84592113
  0
SEQEND
  0
POLYLINE
  8
pobeda_orden_002
 66
   1
 39
0.000000
 70
    1
  0
VERTEX
  8
0
 10
25.28688334
 20
24.23674792
  0
VERTEX
  8
0
 10
16.08658788
 20
12.68801733
  0
VERTEX
  8
0
 10
15.70972576
 20
12.71532495
  0
VERTEX
  8
0
 10
25.05442031
 20
24.39621474
  0
VERTEX
  8
0
 10
25.28688334
 20
24.23674792
  0
SEQEND
  0
POLYLINE
  8
pobeda_orden_002
 66
   1
 39
0.000000
 70
    1
  0
VERTEX
  8
0
 10
15.28331244
 20
29.12401390
  0
VERTEX
  8
0
 10
11.10854917
 20
18.92203901
  0
VERTEX
  8
0
 10
11.34903100
 20
18.52454148
  0
VERTEX
  8
0
 10
15.50818116
 20
29.05353209
  0
VERTEX
  8
0
 10
15.28331244
 20
29.12401390
  0
SEQEND
  0
POLYLINE
  8
pobeda_orden_002
 66
   1
 39
0.000000
 70
    1
  0
VERTEX
  8
0
 10
29.10828065
 20
19.66235945
 42
0.40070519
  0
VERTEX
  8
0
 10
28.84810341
 20
20.30200484
  0
VERTEX
  8
0
 10
26.01656706
 20
21.57415497
  0
VERTEX
  8
0
 10
26.03604032
 20
24.67840373
 42
0.40071094
  0
VERTEX
  8
0
 10
25.56233450
 20
25.18084888
  0
VERTEX
  8
0
 10
22.46243365
 20
25.34403218
  0
VERTEX
  8
0
 10
21.35941353
 20
28.24584163
 42
0.40072112
  0
VERTEX
  8
0
 10
20.73619870
 20
28.54327925
  0
VERTEX
  8
0
 10
17.78652374
 20
27.57572235
  0
VERTEX
  8
0
 10
15.70970173
 20
29.88302162
 42
0.40071870
  0
VERTEX
  8
0
 10
15.02112604
 20
29.93522522
  0
VERTEX
  8
0
 10
12.62025192
 20
27.96745260
  0
VERTEX
  8
0
 10
9.85025717
 20
29.36867019
 42
0.40072297
  0
VERTEX
  8
0
 10
9.18931781
 20
29.16859969
  0
VERTEX
  8
0
 10
7.50104189
 20
26.18268370
 42
0.23180952
  0
VERTEX
  8
0
 10
7.47508648
 20
25.74347334
  0
VERTEX
  8
0
 10
13.01248240
 20
12.51912531
 42
0.28259020
  0
VERTEX
  8
0
 10
13.43740726
 20
12.21356014
  0
VERTEX
  8
0
 10
27.43052463
 20
11.19566363
 42
0.22831393
  0
VERTEX
  8
0
 10
27.83415915
 20
11.35515970
  0
VERTEX
  8
0
 10
30.16107583
 20
13.87534966
 42
0.40073074
  0
VERTEX
  8
0
 10
30.14952526
 20
14.56581979
  0
VERTEX
  8
0
 10
27.96861686
 20
16.77481879
  0
VERTEX
  8
0
 10
29.10828065
 20
19.66235945
  0
SEQEND
  0
POLYLINE
  8
pobeda_orden_002
 66
   1
 39
0.000000
 70
    1
  0
VERTEX
  8
0
 10
38.02431127
 20
-14.93185713
  0
VERTEX
  8
0
 10
38.12891308
 20
-15.41415225
  0
VERTEX
  8
0
 10
23.24695125
 20
-11.95863357
  0
VERTEX
  8
0
 10
23.73553583
 20
-11.70639718
  0
VERTEX
  8
0
 10
38.02431127
 20
-14.93185713
  0
SEQEND
  0
POLYLINE
  8
pobeda_orden_002
 66
   1
 39
0.000000
 70
    1
  0
VERTEX
  8
0
 10
32.89888594
 20
-25.08090462
  0
VERTEX
  8
0
 10
23.47783290
 20
-19.35790719
  0
VERTEX
  8
0
 10
23.43496617
 20
-18.89530776
  0
VERTEX
  8
0
 10
33.03783138
 20
-24.89056863
  0
VERTEX
  8
0
 10
32.89888594
 20
-25.08090462
  0
SEQEND
  0
POLYLINE
  8
pobeda_orden_002
 66
   1
 39
0.000000
 70
    1
  0
VERTEX
  8
0
 10
27.39991073
 20
-25.01730977
  0
VERTEX
  8
0
 10
26.83671550
 20
-25.33806978
  0
VERTEX
  8
0
 10
26.27741550
 20
-25.01074609
  0
VERTEX
  8
0
 10
25.71806249
 20
-24.68349503
  0
VERTEX
  8
0
 10
25.72191796
 20
-24.03546580
  0
VERTEX
  8
0
 10
25.72570715
 20
-23.38752736
  0
VERTEX
  8
0
 10
26.28887932
 20
-23.06672268
  0
VERTEX
  8
0
 10
26.85183796
 20
-22.74609612
  0
VERTEX
  8
0
 10
27.41109674
 20
-23.07336189
  0
VERTEX
  8
0
 10
27.97041344
 20
-23.40058644
  0
VERTEX
  8
0
 10
27.96672829
 20
-24.04857300
  0
VERTEX
  8
0
 10
27.96295235
 20
-24.69649329
  0
VERTEX
  8
0
 10
27.39991073
 20
-25.01730977
  0
SEQEND
  0
POLYLINE
  8
pobeda_orden_002
 66
   1
 39
0.000000
 70
    1
  0
VERTEX
  8
0
 10
25.83473097
 20
-19.04255206
  0
VERTEX
  8
0
 10
25.27159366
 20
-19.36327085
  0
VERTEX
  8
0
 10
24.71233488
 20
-19.03600508
  0
VERTEX
  8
0
 10
24.15294555
 20
-18.70872751
  0
VERTEX
  8
0
 10
24.15682553
 20
-18.06085534
  0
VERTEX
  8
0
 10
24.16046457
 20
-17.41277945
  0
VERTEX
  8
0
 10
24.72369121
 20
-17.09201454
  0
VERTEX
  8
0
 10
25.28664495
 20
-16.77135657
  0
VERTEX
  8
0
 10
25.84597981
 20
-17.09859437
  0
VERTEX
  8
0
 10
26.40524204
 20
-17.42577916
  0
VERTEX
  8
0
 10
26.40147100
 20
-18.07373086
  0
VERTEX
  8
0
 10
26.39776079
 20
-18.72186613
  0
VERTEX
  8
0
 10
25.83473097
 20
-19.04255206
  0
SEQEND
  0
POLYLINE
  8
pobeda_orden_002
 66
   1
 39
0.000000
 70
    1
  0
VERTEX
  8
0
 10
28.88776637
 20
-20.69838674
  0
VERTEX
  8
0
 10
28.32475961
 20
-21.01911734
  0
VERTEX
  8
0
 10
27.76548903
 20
-20.69198212
  0
VERTEX
  8
0
 10
27.20616252
 20
-20.36469474
  0
VERTEX
  8
0
 10
27.20986093
 20
-19.71669003
  0
VERTEX
  8
0
 10
27.21369969
 20
-19.06875993
  0
VERTEX
  8
0
 10
27.77681249
 20
-18.74788408
  0
VERTEX
  8
0
 10
28.33978439
 20
-18.42723937
  0
VERTEX
  8
0
 10
28.89899850
 20
-18.75452819
  0
VERTEX
  8
0
 10
29.45841434
 20
-19.08176945
  0
VERTEX
  8
0
 10
29.45470122
 20
-19.72967993
  0
VERTEX
  8
0
 10
29.45085211
 20
-20.37785297
  0
VERTEX
  8
0
 10
28.88776637
 20
-20.69838674
  0
SEQEND
  0
POLYLINE
  8
pobeda_orden_002
 66
   1
 39
0.000000
 70
    1
  0
VERTEX
  8
0
 10
31.94093231
 20
-22.35423323
  0
VERTEX
  8
0
 10
31.37778665
 20
-22.67500159
  0
VERTEX
  8
0
 10
30.81859069
 20
-22.34772602
  0
VERTEX
  8
0
 10
30.25920627
 20
-22.02047986
  0
VERTEX
  8
0
 10
30.26308479
 20
-21.37249530
  0
VERTEX
  8
0
 10
30.26687889
 20
-20.72458826
  0
VERTEX
  8
0
 10
30.82998188
 20
-20.40364959
  0
VERTEX
  8
0
 10
31.39304602
 20
-20.08318354
  0
VERTEX
  8
0
 10
31.95228029
 20
-20.41029225
  0
VERTEX
  8
0
 10
32.51145954
 20
-20.73766696
  0
VERTEX
  8
0
 10
32.50781760
 20
-21.38551807
  0
VERTEX
  8
0
 10
32.50409268
 20
-22.03355910
  0
VERTEX
  8
0
 10
31.94093231
 20
-22.35423323
  0
SEQEND
  0
POLYLINE
  8
pobeda_orden_002
 66
   1
 39
0.000000
 70
    1
  0
VERTEX
  8
0
 10
34.77793785
 20
-17.97355581
  0
VERTEX
  8
0
 10
34.30057084
 20
-18.41160641
  0
VERTEX
  8
0
 10
33.68232173
 20
-18.21745969
  0
VERTEX
  8
0
 10
33.06410258
 20
-18.02319567
  0
VERTEX
  8
0
 10
32.92337464
 20
-17.39074905
  0
VERTEX
  8
0
 10
32.78248673
 20
-16.75810216
  0
VERTEX
  8
0
 10
33.25986554
 20
-16.31992101
  0
VERTEX
  8
0
 10
33.73720314
 20
-15.88168194
  0
VERTEX
  8
0
 10
34.35535112
 20
-16.07600533
  0
VERTEX
  8
0
 10
34.97342646
 20
-16.27027570
  0
VERTEX
  8
0
 10
35.11457747
 20
-16.90275283
  0
VERTEX
  8
0
 10
35.25530686
 20
-17.53531184
  0
VERTEX
  8
0
 10
34.77793785
 20
-17.97355581
  0
SEQEND
  0
POLYLINE
  8
pobeda_orden_002
 66
   1
 39
0.000000
 70
    1
  0
VERTEX
  8
0
 10
31.80750041
 20
-16.99786356
  0
VERTEX
  8
0
 10
31.33036453
 20
-17.43605506
  0
VERTEX
  8
0
 10
30.71195691
 20
-17.24182046
  0
VERTEX
  8
0
 10
30.09379078
 20
-17.04748381
  0
VERTEX
  8
0
 10
29.95291068
 20
-16.41509312
  0
VERTEX
  8
0
 10
29.81214842
 20
-15.78242662
  0
VERTEX
  8
0
 10
30.28951398
 20
-15.34426362
  0
VERTEX
  8
0
 10
30.76682852
 20
-14.90597989
  0
VERTEX
  8
0
 10
31.38508053
 20
-15.10035139
  0
VERTEX
  8
0
 10
32.00330313
 20
-15.29453443
  0
VERTEX
  8
0
 10
32.14413167
 20
-15.92711015
  0
VERTEX
  8
0
 10
32.28494549
 20
-16.55959163
  0
VERTEX
  8
0
 10
31.80750041
 20
-16.99786356
  0
SEQEND
  0
POLYLINE
  8
pobeda_orden_002
 66
   1
 39
0.000000
 70
    1
  0
VERTEX
  8
0
 10
28.88335568
 20
-15.98470496
  0
VERTEX
  8
0
 10
28.40602008
 20
-16.42275066
  0
VERTEX
  8
0
 10
27.78784705
 20
-16.22857597
  0
VERTEX
  8
0
 10
27.16963135
 20
-16.03423098
  0
VERTEX
  8
0
 10
27.02880917
 20
-15.40179906
  0
VERTEX
  8
0
 10
26.88792126
 20
-14.76915217
  0
VERTEX
  8
0
 10
27.36531678
 20
-14.33087188
  0
VERTEX
  8
0
 10
27.84272355
 20
-13.89276681
  0
VERTEX
  8
0
 10
28.46082051
 20
-14.08696946
  0
VERTEX
  8
0
 10
29.07899154
 20
-14.28133752
  0
VERTEX
  8
0
 10
29.21989125
 20
-14.91385386
  0
VERTEX
  8
0
 10
29.36069183
 20
-15.54635350
  0
VERTEX
  8
0
 10
28.88335568
 20
-15.98470496
  0
SEQEND
  0
POLYLINE
  8
pobeda_orden_002
 66
   1
 39
0.000000
 70
    1
  0
VERTEX
  8
0
 10
25.86917607
 20
-14.95182854
  0
VERTEX
  8
0
 10
25.39186008
 20
-15.38999988
  0
VERTEX
  8
0
 10
24.77356485
 20
-15.19576383
  0
VERTEX
  8
0
 10
24.15545809
 20
-15.00149836
  0
VERTEX
  8
0
 10
24.01460450
 20
-14.36907135
  0
VERTEX
  8
0
 10
23.87372004
 20
-13.73634347
  0
VERTEX
  8
0
 10
24.35098991
 20
-13.29808280
  0
VERTEX
  8
0
 10
24.82852724
 20
-12.85998953
  0
VERTEX
  8
0
 10
25.44663055
 20
-13.05433598
  0
VERTEX
  8
0
 10
26.06484970
 20
-13.24859999
  0
VERTEX
  8
0
 10
26.20582894
 20
-13.88100740
  0
VERTEX
  8
0
 10
26.34647045
 20
-14.51372492
  0
VERTEX
  8
0
 10
25.86917607
 20
-14.95182854
  0
SEQEND
  0
POLYLINE
  8
pobeda_orden_002
 66
   1
 39
0.000000
 70
    1
  0
VERTEX
  8
0
 10
28.27859803
 20
-11.57629652
  0
VERTEX
  8
0
 10
27.92002707
 20
-12.11598677
  0
VERTEX
  8
0
 10
27.27312977
 20
-12.07516058
  0
VERTEX
  8
0
 10
26.62663047
 20
-12.03451360
  0
VERTEX
  8
0
 10
26.33837675
 20
-11.45405018
  0
VERTEX
  8
0
 10
26.05040229
 20
-10.87362362
  0
VERTEX
  8
0
 10
26.40880983
 20
-10.33381408
  0
VERTEX
  8
0
 10
26.76775082
 20
-9.79422697
  0
VERTEX
  8
0
 10
27.41432130
 20
-9.83481458
  0
VERTEX
  8
0
 10
28.06104828
 20
-9.87568344
  0
VERTEX
  8
0
 10
28.34917000
 20
-10.45602266
  0
VERTEX
  8
0
 10
28.63723035
 20
-11.03648408
  0
VERTEX
  8
0
 10
28.27859803
 20
-11.57629652
  0
SEQEND
  0
POLYLINE
  8
pobeda_orden_002
 66
   1
 39
0.000000
 70
    1
  0
VERTEX
  8
0
 10
32.00025650
 20
-11.96711796
  0
VERTEX
  8
0
 10
31.64159622
 20
-12.50685432
  0
VERTEX
  8
0
 10
30.99475829
 20
-12.46609931
  0
VERTEX
  8
0
 10
30.34809067
 20
-12.42530162
  0
VERTEX
  8
0
 10
30.06006519
 20
-11.84475432
  0
VERTEX
  8
0
 10
29.77201464
 20
-11.26435572
  0
VERTEX
  8
0
 10
30.13057234
 20
-10.72468363
  0
VERTEX
  8
0
 10
30.48930526
 20
-10.18500029
  0
VERTEX
  8
0
 10
31.13596307
 20
-10.22573515
  0
VERTEX
  8
0
 10
31.78273327
 20
-10.26646856
  0
VERTEX
  8
0
 10
32.07083828
 20
-10.84690692
  0
VERTEX
  8
0
 10
32.35897816
 20
-11.42725940
  0
VERTEX
  8
0
 10
32.00025650
 20
-11.96711796
  0
SEQEND
  0
POLYLINE
  8
pobeda_orden_002
 66
   1
 39
0.000000
 70
    1
  0
VERTEX
  8
0
 10
35.28594326
 20
-12.66630878
  0
VERTEX
  8
0
 10
34.92732619
 20
-13.20590969
  0
VERTEX
  8
0
 10
34.28054763
 20
-13.16522585
  0
VERTEX
  8
0
 10
33.63384516
 20
-13.12451405
  0
VERTEX
  8
0
 10
33.34577646
 20
-12.54410220
  0
VERTEX
  8
0
 10
33.05776913
 20
-11.96356815
  0
VERTEX
  8
0
 10
33.41617467
 20
-11.42395199
  0
VERTEX
  8
0
 10
33.77494535
 20
-10.88440754
  0
VERTEX
  8
0
 10
34.42175532
 20
-10.92508648
  0
VERTEX
  8
0
 10
35.06853878
 20
-10.96580173
  0
VERTEX
  8
0
 10
35.35647202
 20
-11.54617037
  0
VERTEX
  8
0
 10
35.64459029
 20
-12.12659058
  0
VERTEX
  8
0
 10
35.28594326
 20
-12.66630878
  0
SEQEND
  0
POLYLINE
  8
pobeda_orden_002
 66
   1
 39
0.000000
 70
    1
  0
VERTEX
  8
0
 10
33.53475080
 20
-7.23151577
  0
VERTEX
  8
0
 10
33.17622251
 20
-7.77137633
  0
VERTEX
  8
0
 10
32.52925603
 20
-7.73041614
  0
VERTEX
  8
0
 10
31.88267085
 20
-7.68973429
  0
VERTEX
  8
0
 10
31.59458890
 20
-7.10934060
  0
VERTEX
  8
0
 10
31.30658157
 20
-6.52880655
  0
VERTEX
  8
0
 10
31.66516233
 20
-5.98917913
  0
VERTEX
  8
0
 10
32.02382261
 20
-5.44944277
  0
VERTEX
  8
0
 10
32.67057811
 20
-5.49008194
  0
VERTEX
  8
0
 10
33.31719125
 20
-5.53083986
  0
VERTEX
  8
0
 10
33.60545823
 20
-6.11128512
  0
VERTEX
  8
0
 10
33.89341254
 20
-6.69189180
  0
VERTEX
  8
0
 10
33.53475080
 20
-7.23151577
  0
SEQEND
  0
POLYLINE
  8
pobeda_orden_002
 66
   1
 39
0.000000
 70
    1
  0
VERTEX
  8
0
 10
33.11595154
 20
-25.18014372
  0
VERTEX
  8
0
 10
29.69475834
 20
-24.93342997
  0
VERTEX
  8
0
 10
28.08697342
 20
-27.96323189
  0
VERTEX
  8
0
 10
24.98591376
 20
-26.49717333
  0
VERTEX
  8
0
 10
21.76946150
 20
-12.84075060
  0
VERTEX
  8
0
 10
32.73055665
 20
-3.59951002
  0
VERTEX
  8
0
 10
36.08487266
 20
-4.31682029
  0
VERTEX
  8
0
 10
35.52353257
 20
-7.70057758
  0
VERTEX
  8
0
 10
38.39206573
 20
-9.58113127
  0
VERTEX
  8
0
 10
36.64623598
 20
-12.53367910
  0
VERTEX
  8
0
 10
38.64170598
 20
-15.32356823
  0
VERTEX
  8
0
 10
35.94706019
 20
-17.44604082
  0
VERTEX
  8
0
 10
36.80007921
 20
-20.76825508
  0
VERTEX
  8
0
 10
33.52086225
 20
-21.77420830
  0
VERTEX
  8
0
 10
33.11595154
 20
-25.18014372
  0
SEQEND
  0
POLYLINE
  8
pobeda_orden_002
 66
   1
 39
0.000000
 70
    1
  0
VERTEX
  8
0
 10
36.30110444
 20
-20.66362010
  0
VERTEX
  8
0
 10
22.52830648
 20
-15.34115345
  0
VERTEX
  8
0
 10
22.44157965
 20
-14.97339100
  0
VERTEX
  8
0
 10
36.38369390
 20
-20.39408771
  0
VERTEX
  8
0
 10
36.30110444
 20
-20.66362010
  0
SEQEND
  0
POLYLINE
  8
pobeda_orden_002
 66
   1
 39
0.000000
 70
    1
  0
VERTEX
  8
0
 10
37.97062960
 20
-9.65591892
  0
VERTEX
  8
0
 10
26.98684701
 20
-8.72561779
  0
VERTEX
  8
0
 10
26.67953581
 20
-9.07403654
  0
VERTEX
  8
0
 10
37.97067413
 20
-9.89157465
  0
VERTEX
  8
0
 10
37.97062960
 20
-9.65591892
  0
SEQEND
  0
POLYLINE
  8
pobeda_orden_002
 66
   1
 39
0.000000
 70
    1
  0
VERTEX
  8
0
 10
33.07998824
 20
-25.67884869
 42
0.40070519
  0
VERTEX
  8
0
 10
33.61245521
 20
-25.23916999
  0
VERTEX
  8
0
 10
33.97891211
 20
-22.15669154
  0
VERTEX
  8
0
 10
36.94671771
 20
-21.24626883
 42
0.40071094
  0
VERTEX
  8
0
 10
37.28437011
 20
-20.64390749
  0
VERTEX
  8
0
 10
36.51237225
 20
-17.63724266
  0
VERTEX
  8
0
 10
38.95108978
 20
-15.71635528
 42
0.40072112
  0
VERTEX
  8
0
 10
39.04838703
 20
-15.03268934
  0
VERTEX
  8
0
 10
37.24242982
 20
-12.50776019
  0
VERTEX
  8
0
 10
38.82245605
 20
-9.83561934
 42
0.40071870
  0
VERTEX
  8
0
 10
38.66619817
 20
-9.16297889
  0
VERTEX
  8
0
 10
36.07010488
 20
-7.46103141
  0
VERTEX
  8
0
 10
36.57813140
 20
-4.39864823
 42
0.40072297
  0
VERTEX
  8
0
 10
36.18943208
 20
-3.82787517
  0
VERTEX
  8
0
 10
32.83511608
 20
-3.11056490
 42
0.23180952
  0
VERTEX
  8
0
 10
32.40826755
 20
-3.21724083
  0
VERTEX
  8
0
 10
21.44717240
 20
-12.45848141
 42
0.28259020
  0
VERTEX
  8
0
 10
21.28277817
 20
-12.95537752
  0
VERTEX
  8
0
 10
24.49923043
 20
-26.61180026
 42
0.22831393
  0
VERTEX
  8
0
 10
24.77221167
 20
-26.94920366
  0
VERTEX
  8
0
 10
27.87327133
 20
-28.41526222
 42
0.40073074
  0
VERTEX
  8
0
 10
28.52863979
 20
-28.19760514
  0
VERTEX
  8
0
 10
29.98372119
 20
-25.45556645
  0
VERTEX
  8
0
 10
33.07998824
 20
-25.67884869
  0
SEQEND
  0
POLYLINE
  8
pobeda_orden_002
 66
   1
 39
0.000000
 70
    1
  0
VERTEX
  8
0
 10
-21.00000000
 20
-5.40983607
  0
VERTEX
  8
0
 10
-20.97267493
 20
-4.32917885
  0
VERTEX
  8
0
 10
-20.89157937
 20
-3.26270806
  0
VERTEX
  8
0
 10
-20.75803278
 20
-2.21174315
  0
VERTEX
  8
0
 10
-20.57335464
 20
-1.17760360
  0
VERTEX
  8
0
 10
-20.33886441
 20
-0.16160888
  0
VERTEX
  8
0
 10
-20.05588157
 20
0.83492155
  0
VERTEX
  8
0
 10
-19.72572557
 20
1.81066821
  0
VERTEX
  8
0
 10
-19.34971590
 20
2.76431164
  0
VERTEX
  8
0
 10
-18.92917202
 20
3.69453236
  0
VERTEX
  8
0
 10
-18.46541340
 20
4.60001092
  0
VERTEX
  8
0
 10
-17.95975951
 20
5.47942783
  0
VERTEX
  8
0
 10
-17.41352982
 20
6.33146363
  0
VERTEX
  8
0
 10
-16.82804379
 20
7.15479885
  0
VERTEX
  8
0
 10
-16.20462090
 20
7.94811402
  0
VERTEX
  8
0
 10
-15.54458061
 20
8.71008967
  0
VERTEX
  8
0
 10
-14.84924240
 20
9.43940634
  0
VERTEX
  8
0
 10
-14.11992574
 20
10.13474455
  0
VERTEX
  8
0
 10
-13.35795009
 20
10.79478483
  0
VERTEX
  8
0
 10
-12.56463491
 20
11.41820772
  0
VERTEX
  8
0
 10
-11.74129969
 20
12.00369375
  0
VERTEX
  8
0
 10
-10.88926389
 20
12.54992344
  0
VERTEX
  8
0
 10
-10.00984698
 20
13.05557734
  0
VERTEX
  8
0
 10
-9.10436843
 20
13.51933596
  0
VERTEX
  8
0
 10
-8.17414771
 20
13.93987984
  0
VERTEX
  8
0
 10
-7.22050428
 20
14.31588951
  0
VERTEX
  8
0
 10
-6.24475762
 20
14.64604550
  0
VERTEX
  8
0
 10
-5.24822719
 20
14.92902834
  0
VERTEX
  8
0
 10
-4.23223247
 20
15.16351857
  0
VERTEX
  8
0
 10
-3.19809292
 20
15.34819671
  0
VERTEX
  8
0
 10
-2.14712801
 20
15.48174330
  0
VERTEX
  8
0
 10
-1.08065721
 20
15.56283886
  0
VERTEX
  8
0
 10
0.00000000
 20
15.59016393
  0
VERTEX
  8
0
 10
1.08065721
 20
15.56283886
  0
VERTEX
  8
0
 10
2.14712801
 20
15.48174330
  0
VERTEX
  8
0
 10
3.19809292
 20
15.34819671
  0
VERTEX
  8
0
 10
4.23223247
 20
15.16351857
  0
VERTEX
  8
0
 10
5.24822719
 20
14.92902834
  0
VERTEX
  8
0
 10
6.24475762
 20
14.64604550
  0
VERTEX
  8
0
 10
7.22050428
 20
14.31588951
  0
VERTEX
  8
0
 10
8.17414771
 20
13.93987984
  0
VERTEX
  8
0
 10
9.10436843
 20
13.51933596
  0
VERTEX
  8
0
 10
10.00984698
 20
13.05557734
  0
VERTEX
  8
0
 10
10.88926389
 20
12.54992344
  0
VERTEX
  8
0
 10
11.74129969
 20
12.00369375
  0
VERTEX
  8
0
 10
12.56463491
 20
11.41820772
  0
VERTEX
  8
0
 10
13.35795009
 20
10.79478483
  0
VERTEX
  8
0
 10
14.11992574
 20
10.13474455
  0
VERTEX
  8
0
 10
14.84924240
 20
9.43940634
  0
VERTEX
  8
0
 10
15.54458061
 20
8.71008967
  0
VERTEX
  8
0
 10
16.20462090
 20
7.94811402
  0
VERTEX
  8
0
 10
16.82804379
 20
7.15479885
  0
VERTEX
  8
0
 10
17.41352982
 20
6.33146363
  0
VERTEX
  8
0
 10
17.95975951
 20
5.47942783
  0
VERTEX
  8
0
 10
18.46541340
 20
4.60001092
  0
VERTEX
  8
0
 10
18.92917202
 20
3.69453236
  0
VERTEX
  8
0
 10
19.34971590
 20
2.76431164
  0
VERTEX
  8
0
 10
19.72572557
 20
1.81066821
  0
VERTEX
  8
0
 10
20.05588157
 20
0.83492155
  0
VERTEX
  8
0
 10
20.33886441
 20
-0.16160888
  0
VERTEX
  8
0
 10
20.57335464
 20
-1.17760360
  0
VERTEX
  8
0
 10
20.75803278
 20
-2.21174315
  0
VERTEX
  8
0
 10
20.89157937
 20
-3.26270806
  0
VERTEX
  8
0
 10
20.97267493
 20
-4.32917885
  0
VERTEX
  8
0
 10
21.00000000
 20
-5.40983607
  0
VERTEX
  8
0
 10
20.97267493
 20
-6.49049328
  0
VERTEX
  8
0
 10
20.89157937
 20
-7.55696408
  0
VERTEX
  8
0
 10
20.75803278
 20
-8.60792898
  0
VERTEX
  8
0
 10
20.57335464
 20
-9.64206853
  0
VERTEX
  8
0
 10
20.33886441
 20
-10.65806325
  0
VERTEX
  8
0
 10
20.05588157
 20
-11.65459368
  0
VERTEX
  8
0
 10
19.72572557
 20
-12.63034034
  0
VERTEX
  8
0
 10
19.34971590
 20
-13.58398377
  0
VERTEX
  8
0
 10
18.92917202
 20
-14.51420450
  0
VERTEX
  8
0
 10
18.46541340
 20
-15.41968305
  0
VERTEX
  8
0
 10
17.95975951
 20
-16.29909996
  0
VERTEX
  8
0
 10
17.41352982
 20
-17.15113576
  0
VERTEX
  8
0
 10
16.82804379
 20
-17.97447098
  0
VERTEX
  8
0
 10
16.20462090
 20
-18.76778615
  0
VERTEX
  8
0
 10
15.54458061
 20
-19.52976180
  0
VERTEX
  8
0
 10
14.84924240
 20
-20.25907847
  0
VERTEX
  8
0
 10
14.11992574
 20
-20.95441668
  0
VERTEX
  8
0
 10
13.35795009
 20
-21.61445697
  0
VERTEX
  8
0
 10
12.56463491
 20
-22.23787986
  0
VERTEX
  8
0
 10
11.74129969
 20
-22.82336588
  0
VERTEX
  8
0
 10
10.88926389
 20
-23.36959558
  0
VERTEX
  8
0
 10
10.00984698
 20
-23.87524947
  0
VERTEX
  8
0
 10
9.10436843
 20
-24.33900809
  0
VERTEX
  8
0
 10
8.17414771
 20
-24.75955197
  0
VERTEX
  8
0
 10
7.22050428
 20
-25.13556164
  0
VERTEX
  8
0
 10
6.24475762
 20
-25.46571763
  0
VERTEX
  8
0
 10
5.24822719
 20
-25.74870048
  0
VERTEX
  8
0
 10
4.23223247
 20
-25.98319070
  0
VERTEX
  8
0
 10
3.19809292
 20
-26.16786885
  0
VERTEX
  8
0
 10
2.14712801
 20
-26.30141543
  0
VERTEX
  8
0
 10
1.08065721
 20
-26.38251100
  0
VERTEX
  8
0
 10
0.00000000
 20
-26.40983607
  0
VERTEX
  8
0
 10
-1.08065721
 20
-26.38251100
  0
VERTEX
  8
0
 10
-2.14712801
 20
-26.30141543
  0
VERTEX
  8
0
 10
-3.19809292
 20
-26.16786885
  0
VERTEX
  8
0
 10
-4.23223247
 20
-25.98319070
  0
VERTEX
  8
0
 10
-5.24822719
 20
-25.74870048
  0
VERTEX
  8
0
 10
-6.24475762
 20
-25.46571763
  0
VERTEX
  8
0
 10
-7.22050428
 20
-25.13556164
  0
VERTEX
  8
0
 10
-8.17414771
 20
-24.75955197
  0
VERTEX
  8
0
 10
-9.10436843
 20
-24.33900809
  0
VERTEX
  8
0
 10
-10.00984698
 20
-23.87524947
  0
VERTEX
  8
0
 10
-10.88926389
 20
-23.36959558
  0
VERTEX
  8
0
 10
-11.74129969
 20
-22.82336588
  0
VERTEX
  8
0
 10
-12.56463491
 20
-22.23787986
  0
VERTEX
  8
0
 10
-13.35795009
 20
-21.61445697
  0
VERTEX
  8
0
 10
-14.11992574
 20
-20.95441668
  0
VERTEX
  8
0
 10
-14.84924240
 20
-20.25907847
  0
VERTEX
  8
0
 10
-15.54458061
 20
-19.52976180
  0
VERTEX
  8
0
 10
-16.20462090
 20
-18.76778615
  0
VERTEX
  8
0
 10
-16.82804379
 20
-17.97447098
  0
VERTEX
  8
0
 10
-17.41352982
 20
-17.15113576
  0
VERTEX
  8
0
 10
-17.95975951
 20
-16.29909996
  0
VERTEX
  8
0
 10
-18.46541340
 20
-15.41968305
  0
VERTEX
  8
0
 10
-18.92917202
 20
-14.51420450
  0
VERTEX
  8
0
 10
-19.34971590
 20
-13.58398377
  0
VERTEX
  8
0
 10
-19.72572557
 20
-12.63034034
  0
VERTEX
  8
0
 10
-20.05588157
 20
-11.65459368
  0
VERTEX
  8
0
 10
-20.33886441
 20
-10.65806325
  0
VERTEX
  8
0
 10
-20.57335464
 20
-9.64206853
  0
VERTEX
  8
0
 10
-20.75803278
 20
-8.60792898
  0
VERTEX
  8
0
 10
-20.89157937
 20
-7.55696408
  0
VERTEX
  8
0
 10
-20.97267493
 20
-6.49049328
  0
VERTEX
  8
0
 10
-21.00000000
 20
-5.40983607
  0
SEQEND
  0
POLYLINE
  8
pobeda_orden_002
 66
   1
 39
0.000000
 70
    1
  0
VERTEX
  8
0
 10
-8.21721311
 20
-18.76012295
  0
VERTEX
  8
0
 10
-8.25819672
 20
-19.39536885
  0
VERTEX
  8
0
 10
-4.97950820
 20
-19.43635246
  0
VERTEX
  8
0
 10
-4.96968366
 20
-18.21333618
  0
VERTEX
  8
0
 10
-4.94806969
 20
-17.67864303
  0
VERTEX
  8
0
 10
-4.92645571
 20
-17.55855423
  0
VERTEX
  8
0
 10
-4.91663118
 20
-17.57935102
  0
VERTEX
  8
0
 10
-5.89653169
 20
-17.57935102
  0
VERTEX
  8
0
 10
-5.89653169
 20
-15.14768661
  0
VERTEX
  8
0
 10
-5.69633697
 20
-15.14768661
  0
VERTEX
  8
0
 10
-5.69633697
 20
-14.50308839
  0
VERTEX
  8
0
 10
-5.95057318
 20
-14.50308839
  0
VERTEX
  8
0
 10
-6.85366769
 20
-12.33597137
  0
VERTEX
  8
0
 10
-7.70726806
 20
-14.50308839
  0
VERTEX
  8
0
 10
-7.92260217
 20
-14.50308839
  0
VERTEX
  8
0
 10
-7.92260217
 20
-15.14768661
  0
VERTEX
  8
0
 10
-7.75834268
 20
-15.14768661
  0
VERTEX
  8
0
 10
-7.75834268
 20
-17.57935102
  0
VERTEX
  8
0
 10
-7.96728609
 20
-17.54473699
  0
VERTEX
  8
0
 10
-8.05327869
 20
-17.81750000
  0
VERTEX
  8
0
 10
-8.21721311
 20
-18.20684426
  0
VERTEX
  8
0
 10
-8.21721311
 20
-18.76012295
  0
SEQEND
  0
ENDSEC
  0
EOF
