0
SECTION
2
HEADER
9
$ACADVER
1
AC1009
9
$ANGDIR
70
0
9
$EXTMIN
10
0
20
0
9
$EXTMAX
10
24.00000
20
18.00000
9
$CECOLOR
62
256
0
ENDSEC
0
SECTION
2
ENTITIES
0
ARC
62
0
8
_____1
10
-35.33401
20
-505.00890
40
496.60449
50
87.83223
51
88.89176
0
ARC
62
0
8
_____1
10
-26.09359
20
-2.61945
40
5.88914
50
253.73190
51
273.54840
0
ARC
62
0
8
_____1
10
-27.51635
20
-6.85587
40
1.43500
50
179.55418
51
260.89900
0
LINE
62
0
8
_____1
10
-28.95130
20
-6.84470
11
-28.95130
21
-5.69780
0
ARC
62
0
8
_____1
10
-28.32093
20
-5.87940
40
0.65600
50
89.77009
51
163.92914
0
ARC
62
0
8
_____1
10
-19.29934
20
-808.81995
40
803.64716
50
90.45652
51
90.64302
0
ARC
62
0
8
_____1
10
58.09054
20
-16.90715
40
84.60716
50
167.58387
51
172.04526
0
ARC
62
0
8
_____1
10
275.62201
20
-65.93180
40
307.59375
50
166.15322
51
167.37775
0
ARC
62
0
8
_____1
10
587.44461
20
-144.66156
40
629.19925
50
164.79290
51
165.98799
0
ARC
62
0
8
_____1
10
973.72050
20
-251.66318
40
1030.01858
50
163.22575
51
164.68547
0
ARC
62
0
8
_____1
10
997.26601
20
-257.20268
40
1054.16197
50
160.45379
51
163.30681
0
ARC
62
0
8
_____1
10
730.67401
20
-161.11561
40
770.78678
50
158.60376
51
160.55465
0
ARC
62
0
8
_____1
10
498.80192
20
-68.22958
40
521.01253
50
155.92578
51
158.81202
0
ARC
62
0
8
_____1
10
275.52172
20
34.59790
40
275.22265
50
151.04438
51
156.50931
0
ARC
62
0
8
_____1
10
163.22369
20
98.03546
40
146.25472
50
146.35296
51
151.49116
0
ARC
62
0
8
_____1
10
98.78648
20
142.93233
40
67.75729
50
136.66656
51
147.76703
0
ARC
62
0
8
_____1
10
-2265.79263
20
196.13230
40
2315.30403
50
359.83415
51
360.00000
0
ARC
62
0
8
_____1
10
45.07614
20
208.28705
40
12.93868
50
260.74294
51
290.04701
0
ARC
62
0
8
_____1
10
43.94581
20
202.71027
40
7.25599
50
236.38534
51
262.46854
0
ARC
62
0
8
_____1
10
43.06176
20
201.48371
40
5.74541
50
204.03760
51
236.95571
0
ARC
62
0
8
_____1
10
39.08861
20
207.66646
40
8.61775
50
261.49847
51
284.76164
0
ARC
62
0
8
_____1
10
23.60088
20
254.23048
40
57.67516
50
287.85478
51
291.33746
0
ARC
62
0
8
_____1
10
52.45952
20
182.18214
40
19.94612
50
103.16909
51
113.24792
0
ARC
62
0
8
_____1
10
50.81587
20
189.72515
40
12.22758
50
87.28482
51
103.72231
0
ARC
62
0
8
_____1
10
37362.40257
20
153.07280
40
37311.03947
50
179.92496
51
180.00000
0
ARC
62
0
8
_____1
10
-2066.29001
20
-557.94109
40
2233.82977
50
17.41046
51
18.55976
0
ARC
62
0
8
_____1
10
-4681.36139
20
-1375.49496
40
4973.71848
50
16.86687
51
17.38315
0
ARC
62
0
8
_____1
10
-3902.23610
20
-1142.68734
40
4160.56239
50
16.29474
51
16.91190
0
ARC
62
0
8
_____1
10
-2155.23249
20
-634.34443
40
2341.10501
50
15.80132
51
16.34977
0
ARC
62
0
8
_____1
10
-675.08764
20
-219.85566
40
804.03708
50
14.50571
51
16.10212
0
LINE
62
0
8
_____1
10
103.31890
20
-18.46330
11
122.25630
21
-18.46330
0
ARC
62
0
8
_____1
10
122.34385
20
-19.70723
40
1.24701
50
68.72273
51
94.02603
0
ARC
62
0
8
_____1
10
122.76832
20
-18.83811
40
0.29423
50
-24.38033
51
84.52992
0
ARC
62
0
8
_____1
10
122.08640
20
-18.04474
40
1.31880
50
269.55244
51
316.07787
0
LINE
62
0
8
_____1
10
122.07610
20
-19.36350
11
118.56000
21
-19.36350
0
LINE
62
0
8
_____1
10
118.56000
20
-19.36350
11
118.54700
21
-26.85070
0
LINE
62
0
8
_____1
10
118.54700
20
-26.85070
11
106.65890
21
-35.80930
0
ARC
62
0
8
_____1
10
92.99015
20
-31.42869
40
14.35355
50
305.16374
51
342.23021
0
ARC
62
0
8
_____1
10
88.59601
20
-23.10600
40
23.71850
50
279.86368
51
302.26151
0
ARC
62
0
8
_____1
10
69.12467
20
127.86897
40
175.92415
50
272.60319
51
277.68785
0
ARC
62
0
8
_____1
10
57.42565
20
430.35827
40
478.63704
50
270.48823
51
272.35759
0
ARC
62
0
8
_____1
10
54.10379
20
448.02902
40
496.34559
50
267.24887
51
270.85429
0
ARC
62
0
8
_____1
10
314.67175
20
5018.78681
40
5074.50668
50
266.38078
51
266.78728
0
ARC
62
0
8
_____1
10
-452.70610
20
-6738.19592
40
6707.51080
50
86.17847
51
86.48600
0
ARC
62
0
8
_____1
10
-41.85900
20
-39.22373
40
4.08155
50
248.01769
51
273.82258
0
ARC
62
0
8
_____1
10
-43.25554
20
-42.48614
40
0.53865
50
162.01989
51
255.89444
0
ARC
62
0
8
_____1
10
-44.92188
20
-41.47673
40
1.42919
50
323.84733
51
360.22971
0
LINE
62
0
8
_____1
10
-43.49270
20
-41.47100
11
-43.49270
21
-40.37610
0
ARC
62
0
8
_____1
10
-44.38518
20
-40.46654
40
0.89705
50
5.78609
51
71.08234
0
ARC
62
0
8
_____1
10
-40.89879
20
-24.69493
40
15.26132
50
253.96125
51
257.91342
0
ARC
62
0
8
_____1
10
-29.16919
20
24.51213
40
65.83470
50
253.72662
51
255.98273
0
ARC
62
0
8
_____1
10
-46.64213
20
-32.66858
40
6.09491
50
236.31078
51
260.79193
0
ARC
62
0
8
_____1
10
-47.72379
20
-35.76108
40
3.03342
50
184.45609
51
220.71825
0
ARC
62
0
8
_____1
10
-148.17795
20
-33.24452
40
97.46878
50
358.38191
51
359.52674
0
ARC
62
0
8
_____1
10
-48.93342
20
-35.52578
40
2.31176
50
117.14721
51
140.31616
0
ARC
62
0
8
_____1
10
-50.05936
20
-32.78681
40
0.68558
50
275.95599
51
359.55749
0
ARC
62
0
8
_____1
10
-50.00733
20
-32.91209
40
0.64479
50
10.72440
51
66.55213
0
ARC
62
0
8
_____1
10
-49.66809
20
-31.72880
40
0.59749
50
198.50152
51
262.04749
0
ARC
62
0
8
_____1
10
-42.71268
20
-34.70827
40
8.02273
50
146.59784
51
159.65048
0
ARC
62
0
8
_____1
10
-45.89550
20
-32.16438
40
3.98255
50
125.45981
51
151.95079
0
ARC
62
0
8
_____1
10
-47.33937
20
-29.62974
40
1.11977
50
87.30905
51
140.70035
0
ARC
62
0
8
_____1
10
-47.84907
20
-26.55104
40
2.03921
50
286.00544
51
317.82773
0
ARC
62
0
8
_____1
10
-50.06464
20
-24.46976
40
5.07883
50
317.20671
51
330.16626
0
ARC
62
0
8
_____1
10
-20.23209
20
-14.80360
40
28.19907
50
201.20812
51
205.61890
0
ARC
62
0
8
_____1
10
-39.74783
20
-21.98772
40
7.41503
50
179.17211
51
204.00948
0
ARC
62
0
8
_____1
10
-43.96135
20
-21.76507
40
3.20282
50
124.62498
51
182.06678
0
ARC
62
0
8
_____1
10
-43.35040
20
-23.23110
40
4.76780
50
90.00000
51
120.65299
0
LINE
62
0
8
_____1
10
-43.35040
20
-18.46330
11
-40.90850
21
-18.46330
0
LINE
62
0
8
_____1
10
-40.90850
20
-18.46330
11
-40.27880
21
-18.46330
0
LINE
62
0
8
_____1
10
-40.27880
20
-18.46330
11
-15.38890
21
-18.46330
0
LINE
62
0
8
_____1
10
-15.38890
20
-18.46330
11
-16.54960
21
-8.75980
0
ARC
62
0
8
_____1
10
1221.80720
20
40309.97432
40
40337.74686
50
268.24782
51
268.32746
0
LINE
62
0
8
_____1
10
44.45910
20
-10.58710
11
44.45910
21
-18.41920
0
ARC
62
0
8
_____1
10
44.03645
20
-20.33659
40
1.96342
50
72.57232
51
77.56916
0
LINE
62
0
8
_____1
10
44.62450
20
-18.46330
11
16.27490
21
-18.46330
0
ARC
62
0
8
_____1
10
140.26639
20
716.65188
40
745.49864
50
259.58085
51
260.42606
0
ARC
62
0
8
_____1
10
4.40423
20
-21.03307
40
4.59802
50
76.92268
51
103.81272
0
ARC
62
0
8
_____1
10
3.81719
20
-17.65538
40
1.20133
50
115.15945
51
167.05027
0
ARC
62
0
8
_____1
10
6.31444
20
-18.39542
40
3.80434
50
164.61585
51
181.02238
0
LINE
62
0
8
_____1
10
2.51070
20
-18.46330
11
-10.83320
21
-18.46330
0
LINE
62
0
8
_____1
10
-10.83320
20
-18.46330
11
-11.58320
21
-8.91170
0
LINE
62
0
8
_____1
10
51.36310
20
14.47050
11
51.36310
21
149.79060
0
ARC
62
0
8
_____1
10
-275.59904
20
35.29409
40
346.42992
50
17.47774
51
19.29938
0
ARC
62
0
8
_____1
10
90.96228
20
135.04446
40
36.37918
50
173.22014
51
179.35968
0
ARC
62
0
8
_____1
10
390.05320
20
120.41320
40
335.80470
50
177.43336
51
178.09870
0
ARC
62
0
8
_____1
10
980.30878
20
99.47793
40
926.43089
50
178.01581
51
178.49915
0
ARC
62
0
8
_____1
10
2836.49061
20
47.73378
40
2783.33293
50
178.43514
51
178.75659
0
ARC
62
0
8
_____1
10
10390.26069
20
-126.74305
40
10339.11580
50
178.69829
51
178.87139
0
ARC
62
0
8
_____1
10
-18585.93402
20
464.55209
40
18643.11534
50
358.71257
51
358.80856
0
ARC
62
0
8
_____1
10
-3124.27094
20
119.95508
40
3177.61426
50
358.37895
51
358.66057
0
ARC
62
0
8
_____1
10
-428.91576
20
44.10527
40
481.19227
50
356.46914
51
358.32784
0
LINE
62
0
8
_____1
10
-18.32760
20
-19.36350
11
-18.32760
21
-26.37420
0
LINE
62
0
8
_____1
10
-18.32760
20
-26.37420
11
-36.53600
21
-26.37420
0
ARC
62
0
8
_____1
10
-107.49832
20
-75.03430
40
86.04334
50
34.43911
51
40.31288
0
LINE
62
0
8
_____1
10
-41.88830
20
-19.36760
11
-18.32760
21
-19.36350
0
ARC
62
0
8
_____1
10
151.41384
20
593.29465
40
621.28591
50
261.24708
51
263.27966
0
LINE
62
0
8
_____1
10
78.70890
20
-23.72250
11
78.70890
21
-26.36250
0
ARC
62
0
8
_____1
10
71.49639
20
-2199.43552
40
2173.08498
50
89.80983
51
90.26742
0
ARC
62
0
8
_____1
10
61.42602
20
-7.98244
40
18.39191
50
263.39585
51
269.77532
0
ARC
62
0
8
_____1
10
60.70592
20
-21.83395
40
4.63338
50
226.93132
51
252.47606
0
ARC
62
0
8
_____1
10
52.50446
20
-31.32013
40
7.91214
50
50.45590
51
56.50925
0
LINE
62
0
8
_____1
10
56.87040
20
-24.72160
11
56.87040
21
-20.75560
0
LINE
62
0
8
_____1
10
21.71020
20
-19.36350
11
48.66770
21
-19.36350
0
ARC
62
0
8
_____1
10
48.72760
20
-19.13317
40
0.23799
50
255.42295
51
262.27330
0
LINE
62
0
8
_____1
10
48.69560
20
-19.36900
11
48.46680
21
-19.36900
0
LINE
62
0
8
_____1
10
48.46680
20
-19.36900
11
48.46680
21
-22.94640
0
ARC
62
0
8
_____1
10
44.70674
20
63.87468
40
86.90246
50
270.54161
51
272.47983
0
ARC
62
0
8
_____1
10
46.31694
20
-4.63118
40
18.40962
50
258.16350
51
267.54448
0
ARC
62
0
8
_____1
10
92.78780
20
325.67047
40
351.92538
50
261.30091
51
261.79140
0
ARC
62
0
8
_____1
10
180.76651
20
906.52969
40
939.40932
50
260.98744
51
261.35492
0
ARC
62
0
8
_____1
10
312.73270
20
1747.73498
40
1790.90232
50
260.64794
51
261.03347
0
LINE
62
0
8
_____1
10
108.92690
20
-19.36350
11
117.43420
21
-19.36350
0
LINE
62
0
8
_____1
10
117.43420
20
-19.36350
11
117.43420
21
-26.21200
0
LINE
62
0
8
_____1
10
117.43420
20
-26.21200
11
111.67050
21
-29.85790
0
LINE
62
0
8
_____1
10
111.67050
20
-29.85790
11
108.92690
21
-19.36350
0
LINE
62
0
8
_____1
10
-10.76250
20
-19.36350
11
1.44960
21
-19.36350
0
ARC
62
0
8
_____1
10
7.68581
20
-28.18001
40
10.79913
50
125.27302
51
137.93653
0
ARC
62
0
8
_____1
10
-0.34242
20
-23.70828
40
2.76321
50
89.77354
51
134.96765
0
ARC
62
0
8
_____1
10
20.26650
20
-35.20605
40
26.26798
50
149.19387
51
157.65355
0
LINE
62
0
8
_____1
10
-4.02880
20
-25.21880
11
-10.30300
21
-25.21880
0
LINE
62
0
8
_____1
10
-10.30300
20
-25.21880
11
-10.76250
21
-19.36350
0
ARC
62
0
8
_____1
10
407.99259
20
2624.61207
40
2668.72710
50
262.93680
51
263.45764
0
ARC
62
0
8
_____1
10
84.85457
20
-485.14821
40
458.80866
50
87.61795
51
90.62684
0
LINE
62
0
8
_____1
10
79.83510
20
-26.36700
11
79.83510
21
-23.86240
0
LINE
62
0
8
_____1
10
-37.87370
20
-26.37420
11
-44.73910
21
-26.37420
0
ARC
62
0
8
_____1
10
-31.09254
20
-19.40163
40
15.32467
50
194.18919
51
207.06429
0
ARC
62
0
8
_____1
10
-41.12598
20
-22.15520
40
4.92684
50
171.73898
51
191.74485
0
ARC
62
0
8
_____1
10
-43.98343
20
-21.88590
40
2.06538
50
120.25278
51
167.73952
0
ARC
62
0
8
_____1
10
-43.95047
20
-22.11693
40
2.28324
50
64.13877
51
118.04580
0
ARC
62
0
8
_____1
10
-44.88492
20
-23.47399
40
3.91991
50
28.58766
51
60.49792
0
ARC
62
0
8
_____1
10
-743.84283
20
-550.24841
40
879.11126
50
36.57778
51
36.96636
0
ARC
62
0
8
_____1
10
23.93835
20
1238.15397
40
1247.56963
50
268.17451
51
268.33512
0
LINE
62
0
8
_____1
10
-12.30800
20
-8.88900
11
-11.55670
21
-18.46330
0
LINE
62
0
8
_____1
10
-11.55670
20
-18.46330
11
-14.64480
21
-18.46330
0
LINE
62
0
8
_____1
10
-14.64480
20
-18.46330
11
-15.80340
21
-8.78250
0
LINE
62
0
8
_____1
10
-11.48600
20
-19.36350
11
-11.02640
21
-25.21880
0
LINE
62
0
8
_____1
10
-11.02640
20
-25.21880
11
-13.61610
21
-25.21880
0
ARC
62
0
8
_____1
10
-13.61610
20
-29.60157
40
4.38277
50
90.00000
51
92.87071
0
LINE
62
0
8
_____1
10
-13.83560
20
-25.22430
11
-14.53700
21
-19.36350
0
LINE
62
0
8
_____1
10
-14.53700
20
-19.36350
11
-11.48600
21
-19.36350
0
LINE
62
0
8
_____1
10
103.55150
20
-19.36350
11
107.79550
21
-19.36350
0
LINE
62
0
8
_____1
10
107.79550
20
-19.36350
11
108.77220
21
-23.14140
0
LINE
62
0
8
_____1
10
108.77220
20
-23.14140
11
104.49920
21
-23.14140
0
ARC
62
0
8
_____1
10
-98.36740
20
-72.02341
40
208.67273
50
13.54754
51
14.61700
0
LINE
62
0
8
_____1
10
-15.28110
20
-19.36350
11
-14.56800
21
-25.31490
0
ARC
62
0
8
_____1
10
-14.06244
20
-27.56850
40
2.30961
50
102.64398
51
127.84230
0
ARC
62
0
8
_____1
10
884.03676
20
-1160.42156
40
1447.97137
50
128.40565
51
128.44574
0
LINE
62
0
8
_____1
10
-16.27300
20
-26.37420
11
-17.20210
21
-26.37420
0
LINE
62
0
8
_____1
10
-17.20210
20
-26.37420
11
-17.20210
21
-19.36350
0
LINE
62
0
8
_____1
10
-17.20210
20
-19.36350
11
-15.28110
21
-19.36350
0
LINE
62
0
8
_____1
10
104.77140
20
-24.26690
11
109.06360
21
-24.26690
0
LINE
62
0
8
_____1
10
109.06360
20
-24.26690
11
109.86980
21
-27.38610
0
ARC
62
0
8
_____1
10
108.46815
20
-30.43654
40
3.35705
50
65.32154
51
75.76928
0
ARC
62
0
8
_____1
10
107.42173
20
-33.90544
40
6.97862
50
74.44274
51
90.73452
0
ARC
62
0
8
_____1
10
102.63835
20
-85.49334
40
58.75375
50
85.41768
51
87.34845
0
ARC
62
0
8
_____1
10
22.47184
20
-44.58990
40
84.77170
50
12.11222
51
13.87108
0
ARC
62
0
8
_____1
10
-172.69720
20
-1407.61585
40
1405.72126
50
80.64748
51
80.79659
0
LINE
62
0
8
_____1
10
55.74420
20
-20.58060
11
55.74420
21
-24.03710
0
ARC
62
0
8
_____1
10
49.42001
20
-35.78153
40
13.33893
50
61.69826
51
76.83075
0
ARC
62
0
8
_____1
10
52.45900
20
-29.49071
40
6.69731
50
90.00000
51
92.78320
0
LINE
62
0
8
_____1
10
52.13380
20
-22.80130
11
52.13380
21
-19.99080
0
ENDSEC
0
EOF
