999
dxflib 2.2.0.0
  0
SECTION
  2
HEADER
  9
$ACADVER
  1
AC1015
  9
$HANDSEED
  5
FFFF
  9
$INSUNITS
 70
4
  9
$DIMEXE
 40
1.25
  9
$TEXTSTYLE
  7
Standard
  9
$LIMMIN
 10
0.0
 20
0.0
  0
ENDSEC
  0
SECTION
  2
TABLES
  0
TABLE
  2
VPORT
  5
8
100
AcDbSymbolTable
 70
1
  0
VPORT
  5
30
100
AcDbSymbolTableRecord
100
AcDbViewportTableRecord
  2
*Active
 70
0
 10
0.0
 20
0.0
 11
1.0
 21
1.0
 12
286.30555555555549
 22
148.5
 13
0.0
 23
0.0
 14
10.0
 24
10.0
 15
10.0
 25
10.0
 16
0.0
 26
0.0
 36
1.0
 17
0.0
 27
0.0
 37
0.0
 40
297.0
 41
1.92798353909465
 42
50.0
 43
0.0
 44
0.0
 50
0.0
 51
0.0
 71
0
 72
100
 73
1
 74
3
 75
1
 76
1
 77
0
 78
0
281
0
 65
1
110
0.0
120
0.0
130
0.0
111
1.0
121
0.0
131
0.0
112
0.0
122
1.0
132
0.0
 79
0
146
0.0
  0
ENDTAB
  0
TABLE
  2
LTYPE
  5
5
100
AcDbSymbolTable
 70
25
  0
LTYPE
  5
14
100
AcDbSymbolTableRecord
100
AcDbLinetypeTableRecord
  2
BYBLOCK
 70
0
  3

 72
65
 73
0
 40
0.0
  0
LTYPE
  5
15
100
AcDbSymbolTableRecord
100
AcDbLinetypeTableRecord
  2
BYLAYER
 70
0
  3

 72
65
 73
0
 40
0.0
  0
LTYPE
  5
16
100
AcDbSymbolTableRecord
100
AcDbLinetypeTableRecord
  2
CONTINUOUS
 70
0
  3
Solid line
 72
65
 73
0
 40
0.0
  0
LTYPE
  5
31
100
AcDbSymbolTableRecord
100
AcDbLinetypeTableRecord
  2
ACAD_ISO02W100
 70
0
  3
ISO Dashed __ __ __ __ __ __ __ __ __ __ _
 72
65
 73
2
 40
15.0
 49
12.0
 74
0
 49
-3.0
 74
0
  0
LTYPE
  5
32
100
AcDbSymbolTableRecord
100
AcDbLinetypeTableRecord
  2
ACAD_ISO03W100
 70
0
  3
ISO Dashed with Distance __    __    __    _
 72
65
 73
2
 40
30.0
 49
12.0
 74
0
 49
-18.0
 74
0
  0
LTYPE
  5
33
100
AcDbSymbolTableRecord
100
AcDbLinetypeTableRecord
  2
ACAD_ISO04W100
 70
0
  3
ISO Long Dashed Dotted ____ . ____ . __
 72
65
 73
4
 40
30.0
 49
24.0
 74
0
 49
-3.0
 74
0
 49
0.0
 74
0
 49
-3.0
 74
0
  0
LTYPE
  5
34
100
AcDbSymbolTableRecord
100
AcDbLinetypeTableRecord
  2
ACAD_ISO05W100
 70
0
  3
ISO Long Dashed Double Dotted ____ .. __
 72
65
 73
6
 40
33.0
 49
24.0
 74
0
 49
-3.0
 74
0
 49
0.0
 74
0
 49
-3.0
 74
0
 49
0.0
 74
0
 49
-3.0
 74
0
  0
LTYPE
  5
35
100
AcDbSymbolTableRecord
100
AcDbLinetypeTableRecord
  2
BORDER
 70
0
  3
Border __ __ . __ __ . __ __ . __ __ . __ __ .
 72
65
 73
6
 40
44.450000000000003
 49
12.699999999999999
 74
0
 49
-6.3499999999999996
 74
0
 49
12.699999999999999
 74
0
 49
-6.3499999999999996
 74
0
 49
0.0
 74
0
 49
-6.3499999999999996
 74
0
  0
LTYPE
  5
36
100
AcDbSymbolTableRecord
100
AcDbLinetypeTableRecord
  2
BORDER2
 70
0
  3
Border (.5x) __.__.__.__.__.__.__.__.__.__.__.
 72
65
 73
6
 40
22.225000000000001
 49
6.3499999999999996
 74
0
 49
-3.1749999999999998
 74
0
 49
6.3499999999999996
 74
0
 49
-3.1749999999999998
 74
0
 49
0.0
 74
0
 49
-3.1749999999999998
 74
0
  0
LTYPE
  5
37
100
AcDbSymbolTableRecord
100
AcDbLinetypeTableRecord
  2
BORDERX2
 70
0
  3
Border (2x) ____  ____  .  ____  ____  .  ___
 72
65
 73
6
 40
88.900000000000006
 49
25.399999999999999
 74
0
 49
-12.699999999999999
 74
0
 49
25.399999999999999
 74
0
 49
-12.699999999999999
 74
0
 49
0.0
 74
0
 49
-12.699999999999999
 74
0
  0
LTYPE
  5
38
100
AcDbSymbolTableRecord
100
AcDbLinetypeTableRecord
  2
CENTER
 70
0
  3
Center ____ _ ____ _ ____ _ ____ _ ____ _ ____
 72
65
 73
4
 40
50.799999999999997
 49
31.75
 74
0
 49
-6.3499999999999996
 74
0
 49
6.3499999999999996
 74
0
 49
-6.3499999999999996
 74
0
  0
LTYPE
  5
39
100
AcDbSymbolTableRecord
100
AcDbLinetypeTableRecord
  2
CENTER2
 70
0
  3
Center (.5x) ___ _ ___ _ ___ _ ___ _ ___ _ ___
 72
65
 73
4
 40
28.574999999999999
 49
19.050000000000001
 74
0
 49
-3.1749999999999998
 74
0
 49
3.1749999999999998
 74
0
 49
-3.1749999999999998
 74
0
  0
LTYPE
  5
3A
100
AcDbSymbolTableRecord
100
AcDbLinetypeTableRecord
  2
CENTERX2
 70
0
  3
Center (2x) ________  __  ________  __  _____
 72
65
 73
4
 40
101.59999999999999
 49
63.5
 74
0
 49
-12.699999999999999
 74
0
 49
12.699999999999999
 74
0
 49
-12.699999999999999
 74
0
  0
LTYPE
  5
3B
100
AcDbSymbolTableRecord
100
AcDbLinetypeTableRecord
  2
DASHDOT
 70
0
  3
Dash dot __ . __ . __ . __ . __ . __ . __ . __
 72
65
 73
4
 40
25.399999999999999
 49
12.699999999999999
 74
0
 49
-6.3499999999999996
 74
0
 49
0.0
 74
0
 49
-6.3499999999999996
 74
0
  0
LTYPE
  5
3C
100
AcDbSymbolTableRecord
100
AcDbLinetypeTableRecord
  2
DASHDOT2
 70
0
  3
Dash dot (.5x) _._._._._._._._._._._._._._._.
 72
65
 73
4
 40
12.699999999999999
 49
6.3499999999999996
 74
0
 49
-3.1749999999999998
 74
0
 49
0.0
 74
0
 49
-3.1749999999999998
 74
0
  0
LTYPE
  5
3D
100
AcDbSymbolTableRecord
100
AcDbLinetypeTableRecord
  2
DASHDOTX2
 70
0
  3
Dash dot (2x) ____  .  ____  .  ____  .  ___
 72
65
 73
4
 40
50.799999999999997
 49
25.399999999999999
 74
0
 49
-12.699999999999999
 74
0
 49
0.0
 74
0
 49
-12.699999999999999
 74
0
  0
LTYPE
  5
3E
100
AcDbSymbolTableRecord
100
AcDbLinetypeTableRecord
  2
DASHED
 70
0
  3
Dashed __ __ __ __ __ __ __ __ __ __ __ __ __ _
 72
65
 73
2
 40
19.050000000000001
 49
12.699999999999999
 74
0
 49
-6.3499999999999996
 74
0
  0
LTYPE
  5
3F
100
AcDbSymbolTableRecord
100
AcDbLinetypeTableRecord
  2
DASHED2
 70
0
  3
Dashed (.5x) _ _ _ _ _ _ _ _ _ _ _ _ _ _ _ _ _
 72
65
 73
2
 40
9.5250000000000004
 49
6.3499999999999996
 74
0
 49
-3.1749999999999998
 74
0
  0
LTYPE
  5
40
100
AcDbSymbolTableRecord
100
AcDbLinetypeTableRecord
  2
DASHEDX2
 70
0
  3
Dashed (2x) ____  ____  ____  ____  ____  ___
 72
65
 73
2
 40
38.100000000000001
 49
25.399999999999999
 74
0
 49
-12.699999999999999
 74
0
  0
LTYPE
  5
41
100
AcDbSymbolTableRecord
100
AcDbLinetypeTableRecord
  2
DIVIDE
 70
0
  3
Divide ____ . . ____ . . ____ . . ____ . . ____
 72
65
 73
6
 40
31.75
 49
12.699999999999999
 74
0
 49
-6.3499999999999996
 74
0
 49
0.0
 74
0
 49
-6.3499999999999996
 74
0
 49
0.0
 74
0
 49
-6.3499999999999996
 74
0
  0
LTYPE
  5
42
100
AcDbSymbolTableRecord
100
AcDbLinetypeTableRecord
  2
DIVIDE2
 70
0
  3
Divide (.5x) __..__..__..__..__..__..__..__.._
 72
65
 73
6
 40
15.875
 49
6.3499999999999996
 74
0
 49
-3.1749999999999998
 74
0
 49
0.0
 74
0
 49
-3.1749999999999998
 74
0
 49
0.0
 74
0
 49
-3.1749999999999998
 74
0
  0
LTYPE
  5
43
100
AcDbSymbolTableRecord
100
AcDbLinetypeTableRecord
  2
DIVIDEX2
 70
0
  3
Divide (2x) ________  .  .  ________  .  .  _
 72
65
 73
6
 40
63.5
 49
25.399999999999999
 74
0
 49
-12.699999999999999
 74
0
 49
0.0
 74
0
 49
-12.699999999999999
 74
0
 49
0.0
 74
0
 49
-12.699999999999999
 74
0
  0
LTYPE
  5
44
100
AcDbSymbolTableRecord
100
AcDbLinetypeTableRecord
  2
DOT
 70
0
  3
Dot . . . . . . . . . . . . . . . . . . . . . .
 72
65
 73
2
 40
6.3499999999999996
 49
0.0
 74
0
 49
-6.3499999999999996
 74
0
  0
LTYPE
  5
45
100
AcDbSymbolTableRecord
100
AcDbLinetypeTableRecord
  2
DOT2
 70
0
  3
Dot (.5x) .....................................
 72
65
 73
2
 40
3.1749999999999998
 49
0.0
 74
0
 49
-3.1749999999999998
 74
0
  0
LTYPE
  5
46
100
AcDbSymbolTableRecord
100
AcDbLinetypeTableRecord
  2
DOTX2
 70
0
  3
Dot (2x) .  .  .  .  .  .  .  .  .  .  .  .  .
 72
65
 73
2
 40
12.699999999999999
 49
0.0
 74
0
 49
-12.699999999999999
 74
0
  0
ENDTAB
  0
TABLE
  2
LAYER
  5
2
100
AcDbSymbolTable
 70
3
  0
LAYER
  5
10
100
AcDbSymbolTableRecord
100
AcDbLayerTableRecord
  2
0
 70
0
 62
250
  6
CONTINUOUS
370
100
390
F
  0
LAYER
  5
47
100
AcDbSymbolTableRecord
100
AcDbLayerTableRecord
  2
color#00000000
 70
0
 62
7
  6
CONTINUOUS
370
100
390
F
  0
LAYER
  5
48
100
AcDbSymbolTableRecord
100
AcDbLayerTableRecord
  2
color#373435ff
 70
0
 62
7
  6
CONTINUOUS
370
100
390
F
  0
ENDTAB
  0
TABLE
  2
STYLE
  5
3
100
AcDbSymbolTable
 70
1
  0
STYLE
  5
11
100
AcDbSymbolTableRecord
100
AcDbTextStyleTableRecord
  2
Standard
 70
0
 40
0.0
 41
0.75
 50
0.0
 71
0
 42
2.5
  3
txt
  4

  0
ENDTAB
  0
TABLE
  2
VIEW
  5
6
100
AcDbSymbolTable
 70
0
  0
ENDTAB
  0
TABLE
  2
UCS
  5
7
100
AcDbSymbolTable
 70
0
  0
ENDTAB
  0
TABLE
  2
APPID
  5
9
100
AcDbSymbolTable
 70
1
  0
APPID
  5
12
100
AcDbSymbolTableRecord
100
AcDbRegAppTableRecord
  2
ACAD
 70
0
  0
ENDTAB
  0
TABLE
  2
DIMSTYLE
  5
A
100
AcDbSymbolTable
 70
1
100
AcDbDimStyleTable
 71
0
  0
DIMSTYLE
105
27
100
AcDbSymbolTableRecord
100
AcDbDimStyleTableRecord
  2
Standard
 41
1.0
 42
1.0
 43
3.75
 44
1.0
 70
0
 73
0
 74
0
 77
1
 78
8
140
1.0
141
2.5
143
0.03937007874016
147
1.0
171
3
172
1
271
2
272
2
274
3
278
44
283
0
284
8
340
11
  0
ENDTAB
  0
TABLE
  2
BLOCK_RECORD
  5
1
100
AcDbSymbolTable
 70
1
  0
BLOCK_RECORD
  5
1F
100
AcDbSymbolTableRecord
100
AcDbBlockTableRecord
  2
*Model_Space
340
22
  0
BLOCK_RECORD
  5
1B
100
AcDbSymbolTableRecord
100
AcDbBlockTableRecord
  2
*Paper_Space
340
1E
  0
BLOCK_RECORD
  5
23
100
AcDbSymbolTableRecord
100
AcDbBlockTableRecord
  2
*Paper_Space0
340
26
  0
ENDTAB
  0
ENDSEC
  0
SECTION
  2
BLOCKS
  0
BLOCK
  5
20
100
AcDbEntity
  8
0
100
AcDbBlockBegin
  2
*Model_Space
 70
0
 10
0.0
 20
0.0
 30
0.0
  3
*Model_Space
  1

  0
ENDBLK
  5
21
100
AcDbEntity
  8
0
100
AcDbBlockEnd
  0
BLOCK
  5
1C
100
AcDbEntity
 67
1
  8
0
100
AcDbBlockBegin
  2
*Paper_Space
 70
0
 10
0.0
 20
0.0
 30
0.0
  3
*Paper_Space
  1

  0
ENDBLK
  5
1D
100
AcDbEntity
 67
1
  8
0
100
AcDbBlockEnd
  0
BLOCK
  5
24
100
AcDbEntity
  8
0
100
AcDbBlockBegin
  2
*Paper_Space0
 70
0
 10
0.0
 20
0.0
 30
0.0
  3
*Paper_Space0
  1

  0
ENDBLK
  5
25
100
AcDbEntity
  8
0
100
AcDbBlockEnd
  0
ENDSEC
  0
SECTION
  2
ENTITIES
  0
LINE
  5
49
100
AcDbEntity
100
AcDbLine
  8
color#373435ff
 62
256
370
-1
  6
BYLAYER
 10
7.8816439499557713
 20
16.789164237394562
 30
0.0
 11
8.5321309938919097
 21
16.789374945760891
 31
0.0
  0
LINE
  5
4A
100
AcDbEntity
100
AcDbLine
  8
color#373435ff
 62
256
370
-1
  6
BYLAYER
 10
8.5321309938919097
 20
16.789374945760891
 30
0.0
 11
8.5321594324433825
 21
15.867811771335735
 31
0.0
  0
LINE
  5
4B
100
AcDbEntity
100
AcDbLine
  8
color#373435ff
 62
256
370
-1
  6
BYLAYER
 10
8.5321594324433825
 20
15.867811771335735
 30
0.0
 11
9.8583282370093528
 21
16.633290401807368
 31
0.0
  0
LINE
  5
4C
100
AcDbEntity
100
AcDbLine
  8
color#373435ff
 62
256
370
-1
  6
BYLAYER
 10
9.8583282370093528
 20
16.633290401807368
 30
0.0
 11
9.9837673999318266
 21
16.607133006742615
 31
0.0
  0
LINE
  5
4D
100
AcDbEntity
100
AcDbLine
  8
color#373435ff
 62
256
370
-1
  6
BYLAYER
 10
9.9837673999318266
 20
16.607133006742615
 30
0.0
 11
10.757257504250962
 21
16.400718656851449
 31
0.0
  0
LINE
  5
4E
100
AcDbEntity
100
AcDbLine
  8
color#373435ff
 62
256
370
-1
  6
BYLAYER
 10
10.757257504250962
 20
16.400718656851449
 30
0.0
 11
8.5326117769345444
 21
15.118202756239697
 31
0.0
  0
LINE
  5
4F
100
AcDbEntity
100
AcDbLine
  8
color#373435ff
 62
256
370
-1
  6
BYLAYER
 10
8.5326117769345444
 20
15.118202756239697
 30
0.0
 11
8.5325107895447836
 21
14.084804715958104
 31
0.0
  0
LINE
  5
50
100
AcDbEntity
100
AcDbLine
  8
color#373435ff
 62
256
370
-1
  6
BYLAYER
 10
8.5325107895447836
 20
14.084804715958104
 30
0.0
 11
10.766725044734601
 21
15.37238717527077
 31
0.0
  0
LINE
  5
51
100
AcDbEntity
100
AcDbLine
  8
color#373435ff
 62
256
370
-1
  6
BYLAYER
 10
10.766725044734601
 20
15.37238717527077
 30
0.0
 11
10.766881581386654
 21
14.622919498823155
 31
0.0
  0
LINE
  5
52
100
AcDbEntity
100
AcDbLine
  8
color#373435ff
 62
256
370
-1
  6
BYLAYER
 10
10.766881581386654
 20
14.622919498823155
 30
0.0
 11
8.5319604355021745
 21
13.332261132257292
 31
0.0
  0
LINE
  5
53
100
AcDbEntity
100
AcDbLine
  8
color#373435ff
 62
256
370
-1
  6
BYLAYER
 10
8.5319604355021745
 20
13.332261132257292
 30
0.0
 11
8.5325120152274323
 21
12.29309952769874
 31
0.0
  0
LINE
  5
54
100
AcDbEntity
100
AcDbLine
  8
color#373435ff
 62
256
370
-1
  6
BYLAYER
 10
8.5325120152274323
 20
12.29309952769874
 30
0.0
 11
10.766685115178635
 21
13.587479912437862
 31
0.0
  0
LINE
  5
55
100
AcDbEntity
100
AcDbLine
  8
color#373435ff
 62
256
370
-1
  6
BYLAYER
 10
10.766685115178635
 20
13.587479912437862
 30
0.0
 11
10.767044176919322
 21
12.839645202579911
 31
0.0
  0
LINE
  5
56
100
AcDbEntity
100
AcDbLine
  8
color#373435ff
 62
256
370
-1
  6
BYLAYER
 10
10.767044176919322
 20
12.839645202579911
 30
0.0
 11
11.415446286627494
 21
13.213258183817441
 31
0.0
  0
LINE
  5
57
100
AcDbEntity
100
AcDbLine
  8
color#373435ff
 62
256
370
-1
  6
BYLAYER
 10
11.415446286627494
 20
13.213258183817441
 30
0.0
 11
11.410924338457765
 21
10.63170057478397
 31
0.0
  0
LINE
  5
58
100
AcDbEntity
100
AcDbLine
  8
color#373435ff
 62
256
370
-1
  6
BYLAYER
 10
11.410924338457765
 20
10.63170057478397
 30
0.0
 11
12.312058841287522
 21
11.151715958118093
 31
0.0
  0
LINE
  5
59
100
AcDbEntity
100
AcDbLine
  8
color#373435ff
 62
256
370
-1
  6
BYLAYER
 10
12.312058841287522
 20
11.151715958118093
 30
0.0
 11
12.310867311487783
 21
13.730810995948476
 31
0.0
  0
LINE
  5
5A
100
AcDbEntity
100
AcDbLine
  8
color#373435ff
 62
256
370
-1
  6
BYLAYER
 10
12.310867311487783
 20
13.730810995948476
 30
0.0
 11
12.961134732096005
 21
14.105073200707254
 31
0.0
  0
LINE
  5
5B
100
AcDbEntity
100
AcDbLine
  8
color#373435ff
 62
256
370
-1
  6
BYLAYER
 10
12.961134732096005
 20
14.105073200707254
 30
0.0
 11
12.962912948818257
 21
11.527579647865871
 31
0.0
  0
LINE
  5
5C
100
AcDbEntity
100
AcDbLine
  8
color#373435ff
 62
256
370
-1
  6
BYLAYER
 10
12.962912948818257
 20
11.527579647865871
 30
0.0
 11
13.857360528995047
 21
12.04394026228969
 31
0.0
  0
LINE
  5
5D
100
AcDbEntity
100
AcDbLine
  8
color#373435ff
 62
256
370
-1
  6
BYLAYER
 10
13.857360528995047
 20
12.04394026228969
 30
0.0
 11
13.856628319869646
 21
14.610262495805156
 31
0.0
  0
LINE
  5
5E
100
AcDbEntity
100
AcDbLine
  8
color#373435ff
 62
256
370
-1
  6
BYLAYER
 10
13.856628319869646
 20
14.610262495805156
 30
0.0
 11
13.880262003335442
 21
14.588745108470022
 31
0.0
  0
LINE
  5
5F
100
AcDbEntity
100
AcDbLine
  8
color#373435ff
 62
256
370
-1
  6
BYLAYER
 10
13.880262003335442
 20
14.588745108470022
 30
0.0
 11
14.506833697457482
 21
13.950405665561929
 31
0.0
  0
LINE
  5
60
100
AcDbEntity
100
AcDbLine
  8
color#373435ff
 62
256
370
-1
  6
BYLAYER
 10
14.506833697457482
 20
13.950405665561929
 30
0.0
 11
14.507848289801975
 21
12.419503105950348
 31
0.0
  0
LINE
  5
61
100
AcDbEntity
100
AcDbLine
  8
color#373435ff
 62
256
370
-1
  6
BYLAYER
 10
14.507848289801975
 20
12.419503105950348
 30
0.0
 11
15.307376958751732
 21
12.88065103333747
 31
0.0
  0
LINE
  5
62
100
AcDbEntity
100
AcDbLine
  8
color#373435ff
 62
256
370
-1
  6
BYLAYER
 10
15.307376958751732
 20
12.88065103333747
 30
0.0
 11
15.633486447129643
 21
12.317535320874146
 31
0.0
  0
LINE
  5
63
100
AcDbEntity
100
AcDbLine
  8
color#373435ff
 62
256
370
-1
  6
BYLAYER
 10
15.633486447129643
 20
12.317535320874146
 30
0.0
 11
14.833585206341294
 21
11.855119628663338
 31
0.0
  0
LINE
  5
64
100
AcDbEntity
100
AcDbLine
  8
color#373435ff
 62
256
370
-1
  6
BYLAYER
 10
14.833585206341294
 20
11.855119628663338
 30
0.0
 11
16.16106987945777
 21
11.089355478000259
 31
0.0
  0
LINE
  5
65
100
AcDbEntity
100
AcDbLine
  8
color#373435ff
 62
256
370
-1
  6
BYLAYER
 10
16.16106987945777
 20
11.089355478000259
 30
0.0
 11
16.170875330237525
 21
11.060673682498864
 31
0.0
  0
LINE
  5
66
100
AcDbEntity
100
AcDbLine
  8
color#373435ff
 62
256
370
-1
  6
BYLAYER
 10
16.170875330237525
 20
11.060673682498864
 30
0.0
 11
16.39769328752881
 21
10.243175517887721
 31
0.0
  0
LINE
  5
67
100
AcDbEntity
100
AcDbLine
  8
color#373435ff
 62
256
370
-1
  6
BYLAYER
 10
16.397693287528813
 20
10.243175517887718
 30
0.0
 11
16.416666666666668
 21
10.203532145638986
 31
0.0
  0
LINE
  5
68
100
AcDbEntity
100
AcDbLine
  8
color#373435ff
 62
256
370
-1
  6
BYLAYER
 10
16.416666666666668
 20
10.203532145638986
 30
0.0
 11
16.416666666666668
 21
10.197587286958916
 31
0.0
  0
LINE
  5
69
100
AcDbEntity
100
AcDbLine
  8
color#373435ff
 62
256
370
-1
  6
BYLAYER
 10
16.416666666666668
 20
10.197587286958916
 30
0.0
 11
16.387575291962339
 21
10.200791921833936
 31
0.0
  0
LINE
  5
6A
100
AcDbEntity
100
AcDbLine
  8
color#373435ff
 62
256
370
-1
  6
BYLAYER
 10
16.387575291962339
 20
10.200791921833936
 30
0.0
 11
16.123272870158718
 21
10.358669085187731
 31
0.0
  0
LINE
  5
6B
100
AcDbEntity
100
AcDbLine
  8
color#373435ff
 62
256
370
-1
  6
BYLAYER
 10
16.123272870158718
 20
10.358669085187731
 30
0.0
 11
14.182610604926793
 21
11.47951629279456
 31
0.0
  0
LINE
  5
6C
100
AcDbEntity
100
AcDbLine
  8
color#373435ff
 62
256
370
-1
  6
BYLAYER
 10
14.182610604926793
 20
11.47951629279456
 30
0.0
 11
13.288664169390508
 21
10.963505171359813
 31
0.0
  0
LINE
  5
6D
100
AcDbEntity
100
AcDbLine
  8
color#373435ff
 62
256
370
-1
  6
BYLAYER
 10
13.288664169390508
 20
10.963505171359813
 30
0.0
 11
15.521131911964066
 21
9.6732682282679185
 31
0.0
  0
LINE
  5
6E
100
AcDbEntity
100
AcDbLine
  8
color#373435ff
 62
256
370
-1
  6
BYLAYER
 10
15.521131911964066
 20
9.6732682282679185
 30
0.0
 11
14.871098374026317
 21
9.2971774082254601
 31
0.0
  0
LINE
  5
6F
100
AcDbEntity
100
AcDbLine
  8
color#373435ff
 62
256
370
-1
  6
BYLAYER
 10
14.871098374026317
 20
9.2971774082254601
 30
0.0
 11
12.637384794958518
 21
10.587518246358583
 31
0.0
  0
LINE
  5
70
100
AcDbEntity
100
AcDbLine
  8
color#373435ff
 62
256
370
-1
  6
BYLAYER
 10
12.637384794958518
 20
10.587518246358583
 30
0.0
 11
11.736821943186809
 21
10.067263509350864
 31
0.0
  0
LINE
  5
71
100
AcDbEntity
100
AcDbLine
  8
color#373435ff
 62
256
370
-1
  6
BYLAYER
 10
11.736821943186809
 20
10.067263509350864
 30
0.0
 11
13.974433698456307
 21
8.7799229367059706
 31
0.0
  0
LINE
  5
72
100
AcDbEntity
100
AcDbLine
  8
color#373435ff
 62
256
370
-1
  6
BYLAYER
 10
13.974433698456307
 20
8.7799229367059706
 30
0.0
 11
13.327293768409877
 21
8.4062238325051339
 31
0.0
  0
LINE
  5
73
100
AcDbEntity
100
AcDbLine
  8
color#373435ff
 62
256
370
-1
  6
BYLAYER
 10
13.327293768409877
 20
8.4062238325051339
 30
0.0
 11
13.974929937552483
 21
8.0316074131790867
 31
0.0
  0
LINE
  5
74
100
AcDbEntity
100
AcDbLine
  8
color#373435ff
 62
256
370
-1
  6
BYLAYER
 10
13.974929937552483
 20
8.0316074131790867
 30
0.0
 11
11.736545801291506
 21
6.7444037754776831
 31
0.0
  0
LINE
  5
75
100
AcDbEntity
100
AcDbLine
  8
color#373435ff
 62
256
370
-1
  6
BYLAYER
 10
11.736545801291506
 20
6.7444037754776831
 30
0.0
 11
12.637453963131843
 21
6.2234002700561737
 31
0.0
  0
LINE
  5
76
100
AcDbEntity
100
AcDbLine
  8
color#373435ff
 62
256
370
-1
  6
BYLAYER
 10
12.637453963131843
 20
6.2234002700561737
 30
0.0
 11
14.871016445298666
 21
7.5139482145546577
 31
0.0
  0
LINE
  5
77
100
AcDbEntity
100
AcDbLine
  8
color#373435ff
 62
256
370
-1
  6
BYLAYER
 10
14.871016445298666
 20
7.5139482145546577
 30
0.0
 11
15.520472227799928
 21
7.1380001925094776
 31
0.0
  0
LINE
  5
78
100
AcDbEntity
100
AcDbLine
  8
color#373435ff
 62
256
370
-1
  6
BYLAYER
 10
15.520472227799928
 20
7.1380001925094776
 30
0.0
 11
13.288639927497901
 21
5.8481024158699677
 31
0.0
  0
LINE
  5
79
100
AcDbEntity
100
AcDbLine
  8
color#373435ff
 62
256
370
-1
  6
BYLAYER
 10
13.288639927497901
 20
5.8481024158699677
 30
0.0
 11
14.182333418767328
 21
5.33154123610373
 31
0.0
  0
LINE
  5
7A
100
AcDbEntity
100
AcDbLine
  8
color#373435ff
 62
256
370
-1
  6
BYLAYER
 10
14.182333418767328
 20
5.33154123610373
 30
0.0
 11
16.410098831085644
 21
6.6187642299556702
 31
0.0
  0
LINE
  5
7B
100
AcDbEntity
100
AcDbLine
  8
color#373435ff
 62
256
370
-1
  6
BYLAYER
 10
16.410098831085644
 20
6.6187642299556702
 30
0.0
 11
16.194726333471554
 21
5.8162228323913201
 31
0.0
  0
LINE
  5
7C
100
AcDbEntity
100
AcDbLine
  8
color#373435ff
 62
256
370
-1
  6
BYLAYER
 10
16.194726333471554
 20
5.8162228323913201
 30
0.0
 11
16.164829520709468
 21
5.7250844590600103
 31
0.0
  0
LINE
  5
7D
100
AcDbEntity
100
AcDbLine
  8
color#373435ff
 62
256
370
-1
  6
BYLAYER
 10
16.164829520709468
 20
5.7250844590600103
 30
0.0
 11
14.833715668877241
 21
4.9553186129426114
 31
0.0
  0
LINE
  5
7E
100
AcDbEntity
100
AcDbLine
  8
color#373435ff
 62
256
370
-1
  6
BYLAYER
 10
14.833715668877241
 20
4.9553186129426114
 30
0.0
 11
15.635927898340739
 21
4.4924418999594611
 31
0.0
  0
LINE
  5
7F
100
AcDbEntity
100
AcDbLine
  8
color#373435ff
 62
256
370
-1
  6
BYLAYER
 10
15.635927898340739
 20
4.4924418999594611
 30
0.0
 11
15.309890822146555
 21
3.9290981787678576
 31
0.0
  0
LINE
  5
80
100
AcDbEntity
100
AcDbLine
  8
color#373435ff
 62
256
370
-1
  6
BYLAYER
 10
15.309890822146555
 20
3.9290981787678576
 30
0.0
 11
14.508076876929264
 21
4.3922898623410935
 31
0.0
  0
LINE
  5
81
100
AcDbEntity
100
AcDbLine
  8
color#373435ff
 62
256
370
-1
  6
BYLAYER
 10
14.508076876929264
 20
4.3922898623410935
 30
0.0
 11
14.507699169226726
 21
2.8884659094539682
 31
0.0
  0
LINE
  5
82
100
AcDbEntity
100
AcDbLine
  8
color#373435ff
 62
256
370
-1
  6
BYLAYER
 10
14.507699169226726
 20
2.8884659094539682
 30
0.0
 11
14.492967125550077
 21
2.8409106508972966
 31
0.0
  0
LINE
  5
83
100
AcDbEntity
100
AcDbLine
  8
color#373435ff
 62
256
370
-1
  6
BYLAYER
 10
14.492967125550077
 20
2.8409106508972966
 30
0.0
 11
13.856642435351111
 21
2.1955286824757314
 31
0.0
  0
LINE
  5
84
100
AcDbEntity
100
AcDbLine
  8
color#373435ff
 62
256
370
-1
  6
BYLAYER
 10
13.856642435351111
 20
2.1955286824757314
 30
0.0
 11
13.856594328493134
 21
4.7687727863464158
 31
0.0
  0
LINE
  5
85
100
AcDbEntity
100
AcDbLine
  8
color#373435ff
 62
256
370
-1
  6
BYLAYER
 10
13.856594328493134
 20
4.7687727863464158
 30
0.0
 11
12.963043024506078
 21
5.2846938727128023
 31
0.0
  0
LINE
  5
86
100
AcDbEntity
100
AcDbLine
  8
color#373435ff
 62
256
370
-1
  6
BYLAYER
 10
12.963043024506078
 20
5.2846938727128023
 30
0.0
 11
12.961359565661597
 21
2.7056655550454676
 31
0.0
  0
LINE
  5
87
100
AcDbEntity
100
AcDbLine
  8
color#373435ff
 62
256
370
-1
  6
BYLAYER
 10
12.961359565661597
 20
2.7056655550454676
 30
0.0
 11
12.311359383502746
 21
3.0798777316116648
 31
0.0
  0
LINE
  5
88
100
AcDbEntity
100
AcDbLine
  8
color#373435ff
 62
256
370
-1
  6
BYLAYER
 10
12.311359383502746
 20
3.0798777316116648
 30
0.0
 11
12.310953892401688
 21
5.6618388433335776
 31
0.0
  0
LINE
  5
89
100
AcDbEntity
100
AcDbLine
  8
color#373435ff
 62
256
370
-1
  6
BYLAYER
 10
12.310953892401688
 20
5.6618388433335776
 30
0.0
 11
11.410829102477635
 21
6.1799327406837241
 31
0.0
  0
LINE
  5
8A
100
AcDbEntity
100
AcDbLine
  8
color#373435ff
 62
256
370
-1
  6
BYLAYER
 10
11.410829102477635
 20
6.1799327406837241
 30
0.0
 11
11.415509497293119
 21
3.5975470755210037
 31
0.0
  0
LINE
  5
8B
100
AcDbEntity
100
AcDbLine
  8
color#373435ff
 62
256
370
-1
  6
BYLAYER
 10
11.415509497293119
 20
3.5975470755210037
 30
0.0
 11
10.766903503407782
 21
3.9722681155728008
 31
0.0
  0
LINE
  5
8C
100
AcDbEntity
100
AcDbLine
  8
color#373435ff
 62
256
370
-1
  6
BYLAYER
 10
10.766903503407782
 20
3.9722681155728008
 30
0.0
 11
10.766788739892617
 21
3.2232805311130694
 31
0.0
  0
LINE
  5
8D
100
AcDbEntity
100
AcDbLine
  8
color#373435ff
 62
256
370
-1
  6
BYLAYER
 10
10.766788739892617
 20
3.2232805311130694
 30
0.0
 11
8.5324316366648887
 21
4.5178947022048748
 31
0.0
  0
LINE
  5
8E
100
AcDbEntity
100
AcDbLine
  8
color#373435ff
 62
256
370
-1
  6
BYLAYER
 10
8.5324316366648887
 20
4.5178947022048748
 30
0.0
 11
8.5324592852314272
 21
3.4777355879913996
 31
0.0
  0
LINE
  5
8F
100
AcDbEntity
100
AcDbLine
  8
color#373435ff
 62
256
370
-1
  6
BYLAYER
 10
8.5324592852314272
 20
3.4777355879913996
 30
0.0
 11
10.766607962175359
 21
2.1897306094674951
 31
0.0
  0
LINE
  5
90
100
AcDbEntity
100
AcDbLine
  8
color#373435ff
 62
256
370
-1
  6
BYLAYER
 10
10.766607962175359
 20
2.1897306094674951
 30
0.0
 11
10.766657903600374
 21
1.438175944740951
 31
0.0
  0
LINE
  5
91
100
AcDbEntity
100
AcDbLine
  8
color#373435ff
 62
256
370
-1
  6
BYLAYER
 10
10.766657903600374
 20
1.438175944740951
 30
0.0
 11
8.5324005782748475
 21
2.726370348177197
 31
0.0
  0
LINE
  5
92
100
AcDbEntity
100
AcDbLine
  8
color#373435ff
 62
256
370
-1
  6
BYLAYER
 10
8.5324005782748475
 20
2.726370348177197
 30
0.0
 11
8.5338817602507753
 21
1.6920663004561052
 31
0.0
  0
LINE
  5
93
100
AcDbEntity
100
AcDbLine
  8
color#373435ff
 62
256
370
-1
  6
BYLAYER
 10
8.5338817602507753
 20
1.6920663004561052
 30
0.0
 11
10.763416119143317
 21
0.4066179976455039
 31
0.0
  0
LINE
  5
94
100
AcDbEntity
100
AcDbLine
  8
color#373435ff
 62
256
370
-1
  6
BYLAYER
 10
10.763416119143317
 20
0.4066179976455039
 30
0.0
 11
9.9578261106356702
 21
0.1932064954284303
 31
0.0
  0
LINE
  5
95
100
AcDbEntity
100
AcDbLine
  8
color#373435ff
 62
256
370
-1
  6
BYLAYER
 10
9.9578261106356702
 20
0.1932064954284303
 30
0.0
 11
9.8636032723261131
 21
0.1738256622240929
 31
0.0
  0
LINE
  5
96
100
AcDbEntity
100
AcDbLine
  8
color#373435ff
 62
256
370
-1
  6
BYLAYER
 10
9.8636032723261131
 20
0.1738256622240929
 30
0.0
 11
8.5328180461185141
 21
0.9423573994592466
 31
0.0
  0
LINE
  5
97
100
AcDbEntity
100
AcDbLine
  8
color#373435ff
 62
256
370
-1
  6
BYLAYER
 10
8.5328180461185141
 20
0.9423573994592466
 30
0.0
 11
8.5324202967830178
 21
0.0169255226903368
 31
0.0
  0
LINE
  5
98
100
AcDbEntity
100
AcDbLine
  8
color#373435ff
 62
256
370
-1
  6
BYLAYER
 10
8.5324202967830178
 20
0.0169255226903368
 30
0.0
 11
7.8816555823225958
 21
0.0175069697820492
 31
0.0
  0
LINE
  5
99
100
AcDbEntity
100
AcDbLine
  8
color#373435ff
 62
256
370
-1
  6
BYLAYER
 10
7.8816555823225958
 20
0.0175069697820492
 30
0.0
 11
7.8815370373843034
 21
0.9421498176934209
 31
0.0
  0
LINE
  5
9A
100
AcDbEntity
100
AcDbLine
  8
color#373435ff
 62
256
370
-1
  6
BYLAYER
 10
7.8815370373843034
 20
0.9421498176934209
 30
0.0
 11
6.5526848613994089
 21
0.1769995220738186
 31
0.0
  0
LINE
  5
9B
100
AcDbEntity
100
AcDbLine
  8
color#373435ff
 62
256
370
-1
  6
BYLAYER
 10
6.5526848613994089
 20
0.1769995220738186
 30
0.0
 11
6.2388037456366199
 21
0.2422879164253118
 31
0.0
  0
LINE
  5
9C
100
AcDbEntity
100
AcDbLine
  8
color#373435ff
 62
256
370
-1
  6
BYLAYER
 10
6.2388037456366199
 20
0.2422879164253118
 30
0.0
 11
5.6516442482834401
 21
0.4068463849572766
 31
0.0
  0
LINE
  5
9D
100
AcDbEntity
100
AcDbLine
  8
color#373435ff
 62
256
370
-1
  6
BYLAYER
 10
5.6516442482834401
 20
0.4068463849572766
 30
0.0
 11
7.8815561792205742
 21
1.693793546725838
 31
0.0
  0
LINE
  5
9E
100
AcDbEntity
100
AcDbLine
  8
color#373435ff
 62
256
370
-1
  6
BYLAYER
 10
7.8815561792205742
 20
1.693793546725838
 30
0.0
 11
7.8813815338991855
 21
2.7262139095744971
 31
0.0
  0
LINE
  5
9F
100
AcDbEntity
100
AcDbLine
  8
color#373435ff
 62
256
370
-1
  6
BYLAYER
 10
7.8813815338991855
 20
2.7262139095744971
 30
0.0
 11
5.6477378846116117
 21
1.4381228956647698
 31
0.0
  0
LINE
  5
A0
100
AcDbEntity
100
AcDbLine
  8
color#373435ff
 62
256
370
-1
  6
BYLAYER
 10
5.6477378846116117
 20
1.4381228956647698
 30
0.0
 11
5.6478948209228372
 21
2.1899051602057522
 31
0.0
  0
LINE
  5
A1
100
AcDbEntity
100
AcDbLine
  8
color#373435ff
 62
256
370
-1
  6
BYLAYER
 10
5.6478948209228372
 20
2.1899051602057522
 30
0.0
 11
7.8827999859345574
 21
3.4803175692863926
 31
0.0
  0
LINE
  5
A2
100
AcDbEntity
100
AcDbLine
  8
color#373435ff
 62
256
370
-1
  6
BYLAYER
 10
7.8827999859345574
 20
3.4803175692863926
 30
0.0
 11
7.8814292718917605
 21
4.5179489841373739
 31
0.0
  0
LINE
  5
A3
100
AcDbEntity
100
AcDbLine
  8
color#373435ff
 62
256
370
-1
  6
BYLAYER
 10
7.8814292718917605
 20
4.5179489841373739
 30
0.0
 11
5.6476582835294238
 21
3.2234381187741201
 31
0.0
  0
LINE
  5
A4
100
AcDbEntity
100
AcDbLine
  8
color#373435ff
 62
256
370
-1
  6
BYLAYER
 10
5.6476582835294238
 20
3.2234381187741201
 30
0.0
 11
5.647533777143348
 21
3.9722694093991766
 31
0.0
  0
LINE
  5
A5
100
AcDbEntity
100
AcDbLine
  8
color#373435ff
 62
256
370
-1
  6
BYLAYER
 10
5.647533777143348
 20
3.9722694093991766
 30
0.0
 11
4.9989136390136268
 21
3.5976705448195694
 31
0.0
  0
LINE
  5
A6
100
AcDbEntity
100
AcDbLine
  8
color#373435ff
 62
256
370
-1
  6
BYLAYER
 10
4.9989136390136268
 20
3.5976705448195694
 30
0.0
 11
5.0033768021992895
 21
6.1804359662948718
 31
0.0
  0
LINE
  5
A7
100
AcDbEntity
100
AcDbLine
  8
color#373435ff
 62
256
370
-1
  6
BYLAYER
 10
5.0033768021992895
 20
6.1804359662948718
 30
0.0
 11
4.1024762085075306
 21
5.6602113474630551
 31
0.0
  0
LINE
  5
A8
100
AcDbEntity
100
AcDbLine
  8
color#373435ff
 62
256
370
-1
  6
BYLAYER
 10
4.1024762085075306
 20
5.6602113474630551
 30
0.0
 11
4.1034883505572006
 21
3.0807474889743185
 31
0.0
  0
LINE
  5
A9
100
AcDbEntity
100
AcDbLine
  8
color#373435ff
 62
256
370
-1
  6
BYLAYER
 10
4.1034883505572006
 20
3.0807474889743185
 30
0.0
 11
3.4529617759103015
 21
2.7053160017568274
 31
0.0
  0
LINE
  5
AA
100
AcDbEntity
100
AcDbLine
  8
color#373435ff
 62
256
370
-1
  6
BYLAYER
 10
3.4529617759103015
 20
2.7053160017568274
 30
0.0
 11
3.4517513239710857
 21
5.2848189064215907
 31
0.0
  0
LINE
  5
AB
100
AcDbEntity
100
AcDbLine
  8
color#373435ff
 62
256
370
-1
  6
BYLAYER
 10
3.4517513239710857
 20
5.2848189064215907
 30
0.0
 11
2.5584724854939846
 21
4.7698179717561828
 31
0.0
  0
LINE
  5
AC
100
AcDbEntity
100
AcDbLine
  8
color#373435ff
 62
256
370
-1
  6
BYLAYER
 10
2.5584724854939846
 20
4.7698179717561828
 30
0.0
 11
2.5577099375828225
 21
2.1971893730086487
 31
0.0
  0
LINE
  5
AD
100
AcDbEntity
100
AcDbLine
  8
color#373435ff
 62
256
370
-1
  6
BYLAYER
 10
2.5577099375828225
 20
2.1971893730086487
 30
0.0
 11
1.9491613049263736
 21
2.8116833525140379
 31
0.0
  0
LINE
  5
AE
100
AcDbEntity
100
AcDbLine
  8
color#373435ff
 62
256
370
-1
  6
BYLAYER
 10
1.9491613049263736
 20
2.8116833525140379
 30
0.0
 11
1.906107278542468
 21
2.8824219400180544
 31
0.0
  0
LINE
  5
AF
100
AcDbEntity
100
AcDbLine
  8
color#373435ff
 62
256
370
-1
  6
BYLAYER
 10
1.906107278542468
 20
2.8824219400180544
 30
0.0
 11
1.9066678958975793
 21
2.8891163766859633
 31
0.0
  0
LINE
  5
B0
100
AcDbEntity
100
AcDbLine
  8
color#373435ff
 62
256
370
-1
  6
BYLAYER
 10
1.9066678958975793
 20
2.8891163766859633
 30
0.0
 11
1.9059345304015374
 21
4.3921856129059762
 31
0.0
  0
LINE
  5
B1
100
AcDbEntity
100
AcDbLine
  8
color#373435ff
 62
256
370
-1
  6
BYLAYER
 10
1.9059345304015374
 20
4.3921856129059762
 30
0.0
 11
1.1050016030529624
 21
3.9302256565228455
 31
0.0
  0
LINE
  5
B2
100
AcDbEntity
100
AcDbLine
  8
color#373435ff
 62
256
370
-1
  6
BYLAYER
 10
1.1050016030529624
 20
3.9302256565228455
 30
0.0
 11
0.7800421466210549
 21
4.4930801666302722
 31
0.0
  0
LINE
  5
B3
100
AcDbEntity
100
AcDbLine
  8
color#373435ff
 62
256
370
-1
  6
BYLAYER
 10
0.7800421466210549
 20
4.4930801666302722
 30
0.0
 11
1.5817745479525436
 21
4.9552226540759854
 31
0.0
  0
LINE
  5
B4
100
AcDbEntity
100
AcDbLine
  8
color#373435ff
 62
256
370
-1
  6
BYLAYER
 10
1.5817745479525436
 20
4.9552226540759854
 30
0.0
 11
0.2517329096892552
 21
5.7240349574363369
 31
0.0
  0
LINE
  5
B5
100
AcDbEntity
100
AcDbLine
  8
color#373435ff
 62
256
370
-1
  6
BYLAYER
 10
0.2517329096892552
 20
5.7240349574363369
 30
0.0
 11
0.0115480286959722
 21
6.5876097100996098
 31
0.0
  0
LINE
  5
B6
100
AcDbEntity
100
AcDbLine
  8
color#373435ff
 62
256
370
-1
  6
BYLAYER
 10
0.0115480286959722
 20
6.5876097100996098
 30
0.0
 11
0.0
 21
6.6031238367848939
 31
0.0
  0
LINE
  5
B7
100
AcDbEntity
100
AcDbLine
  8
color#373435ff
 62
256
370
-1
  6
BYLAYER
 10
0.0
 20
6.6031238367848939
 30
0.0
 11
0.0
 21
6.608943975267346
 31
0.0
  0
LINE
  5
B8
100
AcDbEntity
100
AcDbLine
  8
color#373435ff
 62
256
370
-1
  6
BYLAYER
 10
0.0
 20
6.608943975267346
 30
0.0
 11
0.0252396180713299
 21
6.6069182084695237
 31
0.0
  0
LINE
  5
B9
100
AcDbEntity
100
AcDbLine
  8
color#373435ff
 62
256
370
-1
  6
BYLAYER
 10
0.0252396180713299
 20
6.6069182084695237
 30
0.0
 11
2.2320260549642672
 21
5.3315237162021516
 31
0.0
  0
LINE
  5
BA
100
AcDbEntity
100
AcDbLine
  8
color#373435ff
 62
256
370
-1
  6
BYLAYER
 10
2.2320260549642672
 20
5.3315237162021516
 30
0.0
 11
3.1258866866710968
 21
5.8480745912016738
 31
0.0
  0
LINE
  5
BB
100
AcDbEntity
100
AcDbLine
  8
color#373435ff
 62
256
370
-1
  6
BYLAYER
 10
3.1258866866710968
 20
5.8480745912016738
 30
0.0
 11
0.8936318839433228
 21
7.1380637874581918
 31
0.0
  0
LINE
  5
BC
100
AcDbEntity
100
AcDbLine
  8
color#373435ff
 62
256
370
-1
  6
BYLAYER
 10
0.8936318839433228
 20
7.1380637874581918
 30
0.0
 11
1.5438625693049044
 21
7.5139783862025462
 31
0.0
  0
LINE
  5
BD
100
AcDbEntity
100
AcDbLine
  8
color#373435ff
 62
256
370
-1
  6
BYLAYER
 10
1.5438625693049044
 20
7.5139783862025462
 30
0.0
 11
3.7769105203891971
 21
6.2234131498877634
 31
0.0
  0
LINE
  5
BE
100
AcDbEntity
100
AcDbLine
  8
color#373435ff
 62
256
370
-1
  6
BYLAYER
 10
3.7769105203891971
 20
6.2234131498877634
 30
0.0
 11
4.6782485020868991
 21
6.7439237618213124
 31
0.0
  0
LINE
  5
BF
100
AcDbEntity
100
AcDbLine
  8
color#373435ff
 62
256
370
-1
  6
BYLAYER
 10
4.6782485020868991
 20
6.7439237618213124
 30
0.0
 11
2.4407318953199995
 21
8.0313385588418598
 31
0.0
  0
LINE
  5
C0
100
AcDbEntity
100
AcDbLine
  8
color#373435ff
 62
256
370
-1
  6
BYLAYER
 10
2.4407318953199995
 20
8.0313385588418598
 30
0.0
 11
3.0866906359772548
 21
8.4060903512278795
 31
0.0
  0
LINE
  5
C1
100
AcDbEntity
100
AcDbLine
  8
color#373435ff
 62
256
370
-1
  6
BYLAYER
 10
3.0866906359772548
 20
8.4060903512278795
 30
0.0
 11
2.4418028899315112
 21
8.7813045516443449
 31
0.0
  0
LINE
  5
C2
100
AcDbEntity
100
AcDbLine
  8
color#373435ff
 62
256
370
-1
  6
BYLAYER
 10
2.4418028899315112
 20
8.7813045516443449
 30
0.0
 11
4.6775839885944324
 21
10.067255754309286
 31
0.0
  0
LINE
  5
C3
100
AcDbEntity
100
AcDbLine
  8
color#373435ff
 62
256
370
-1
  6
BYLAYER
 10
4.6775839885944324
 20
10.067255754309286
 30
0.0
 11
3.7767395631775216
 21
10.587512442613152
 31
0.0
  0
LINE
  5
C4
100
AcDbEntity
100
AcDbLine
  8
color#373435ff
 62
256
370
-1
  6
BYLAYER
 10
3.7767395631775216
 20
10.587512442613152
 30
0.0
 11
1.5437502998666612
 21
9.2971741474583993
 31
0.0
  0
LINE
  5
C5
100
AcDbEntity
100
AcDbLine
  8
color#373435ff
 62
256
370
-1
  6
BYLAYER
 10
1.5437502998666612
 20
9.2971741474583993
 30
0.0
 11
0.8941672679757827
 21
9.6741853323974691
 31
0.0
  0
LINE
  5
C6
100
AcDbEntity
100
AcDbLine
  8
color#373435ff
 62
256
370
-1
  6
BYLAYER
 10
0.8941672679757827
 20
9.6741853323974691
 30
0.0
 11
3.1263753862127976
 21
10.963050615385166
 31
0.0
  0
LINE
  5
C7
100
AcDbEntity
100
AcDbLine
  8
color#373435ff
 62
256
370
-1
  6
BYLAYER
 10
3.1263753862127976
 20
10.963050615385166
 30
0.0
 11
2.2329159230090787
 21
11.479525130470256
 31
0.0
  0
LINE
  5
C8
100
AcDbEntity
100
AcDbLine
  8
color#373435ff
 62
256
370
-1
  6
BYLAYER
 10
2.2329159230090787
 20
11.479525130470256
 30
0.0
 11
0.0992931405080635
 21
10.247810161123425
 31
0.0
  0
LINE
  5
C9
100
AcDbEntity
100
AcDbLine
  8
color#373435ff
 62
256
370
-1
  6
BYLAYER
 10
0.0992931405080635
 20
10.247810161123425
 30
0.0
 11
0.0
 21
10.19642381902333
 31
0.0
  0
LINE
  5
CA
100
AcDbEntity
100
AcDbLine
  8
color#373435ff
 62
256
370
-1
  6
BYLAYER
 10
0.0
 20
10.19642381902333
 30
0.0
 11
0.0
 21
10.202976535290775
 31
0.0
  0
LINE
  5
CB
100
AcDbEntity
100
AcDbLine
  8
color#373435ff
 62
256
370
-1
  6
BYLAYER
 10
0.0
 20
10.202976535290775
 30
0.0
 11
0.0059175382300576
 21
10.207548438771441
 31
0.0
  0
LINE
  5
CC
100
AcDbEntity
100
AcDbLine
  8
color#373435ff
 62
256
370
-1
  6
BYLAYER
 10
0.0059175382300576
 20
10.207548438771441
 30
0.0
 11
0.0447857798801053
 21
10.358267827673151
 31
0.0
  0
LINE
  5
CD
100
AcDbEntity
100
AcDbLine
  8
color#373435ff
 62
256
370
-1
  6
BYLAYER
 10
0.0447857798801053
 20
10.358267827673151
 30
0.0
 11
0.2548049161705958
 21
11.089985985293737
 31
0.0
  0
LINE
  5
CE
100
AcDbEntity
100
AcDbLine
  8
color#373435ff
 62
256
370
-1
  6
BYLAYER
 10
0.2548049161705958
 20
11.089985985293737
 30
0.0
 11
1.5809260385140862
 21
11.855740070858161
 31
0.0
  0
LINE
  5
CF
100
AcDbEntity
100
AcDbLine
  8
color#373435ff
 62
256
370
-1
  6
BYLAYER
 10
1.5809260385140862
 20
11.855740070858161
 30
0.0
 11
0.7822862778601272
 21
12.316756917695017
 31
0.0
  0
LINE
  5
D0
100
AcDbEntity
100
AcDbLine
  8
color#373435ff
 62
256
370
-1
  6
BYLAYER
 10
0.7822862778601272
 20
12.316756917695017
 30
0.0
 11
1.108324827344918
 21
12.87945409849128
 31
0.0
  0
LINE
  5
D1
100
AcDbEntity
100
AcDbLine
  8
color#373435ff
 62
256
370
-1
  6
BYLAYER
 10
1.108324827344918
 20
12.87945409849128
 30
0.0
 11
1.9059651396427684
 21
12.419677240326397
 31
0.0
  0
LINE
  5
D2
100
AcDbEntity
100
AcDbLine
  8
color#373435ff
 62
256
370
-1
  6
BYLAYER
 10
1.9059651396427684
 20
12.419677240326397
 30
0.0
 11
1.9066849416164544
 21
13.916393078686758
 31
0.0
  0
LINE
  5
D3
100
AcDbEntity
100
AcDbLine
  8
color#373435ff
 62
256
370
-1
  6
BYLAYER
 10
1.9066849416164544
 20
13.916393078686758
 30
0.0
 11
1.9234811334433974
 21
13.965420582441247
 31
0.0
  0
LINE
  5
D4
100
AcDbEntity
100
AcDbLine
  8
color#373435ff
 62
256
370
-1
  6
BYLAYER
 10
1.9234811334433974
 20
13.965420582441247
 30
0.0
 11
2.5577238100212893
 21
14.608807517815137
 31
0.0
  0
LINE
  5
D5
100
AcDbEntity
100
AcDbLine
  8
color#373435ff
 62
256
370
-1
  6
BYLAYER
 10
2.5577238100212893
 20
14.608807517815137
 30
0.0
 11
2.5571627422023204
 21
12.043725779493849
 31
0.0
  0
LINE
  5
D6
100
AcDbEntity
100
AcDbLine
  8
color#373435ff
 62
256
370
-1
  6
BYLAYER
 10
2.5571627422023204
 20
12.043725779493849
 30
0.0
 11
3.4515099576361505
 21
11.527597257175286
 31
0.0
  0
LINE
  5
D7
100
AcDbEntity
100
AcDbLine
  8
color#373435ff
 62
256
370
-1
  6
BYLAYER
 10
3.4515099576361505
 20
11.527597257175286
 30
0.0
 11
3.453053764794324
 21
14.105060072147008
 31
0.0
  0
LINE
  5
D8
100
AcDbEntity
100
AcDbLine
  8
color#373435ff
 62
256
370
-1
  6
BYLAYER
 10
3.453053764794324
 20
14.105060072147008
 30
0.0
 11
4.1022144858463019
 21
13.73247784766914
 31
0.0
  0
LINE
  5
D9
100
AcDbEntity
100
AcDbLine
  8
color#373435ff
 62
256
370
-1
  6
BYLAYER
 10
4.1022144858463019
 20
13.73247784766914
 30
0.0
 11
4.1036558580862943
 21
11.149763647075197
 31
0.0
  0
LINE
  5
DA
100
AcDbEntity
100
AcDbLine
  8
color#373435ff
 62
256
370
-1
  6
BYLAYER
 10
4.1036558580862943
 20
11.149763647075197
 30
0.0
 11
5.0032343770603189
 21
10.631657467556755
 31
0.0
  0
LINE
  5
DB
100
AcDbEntity
100
AcDbLine
  8
color#373435ff
 62
256
370
-1
  6
BYLAYER
 10
5.0032343770603189
 20
10.631657467556755
 30
0.0
 11
4.9989854245167589
 21
13.213129421205359
 31
0.0
  0
LINE
  5
DC
100
AcDbEntity
100
AcDbLine
  8
color#373435ff
 62
256
370
-1
  6
BYLAYER
 10
4.9989854245167589
 20
13.213129421205359
 30
0.0
 11
5.6479584758668402
 21
12.837949775578029
 31
0.0
  0
LINE
  5
DD
100
AcDbEntity
100
AcDbLine
  8
color#373435ff
 62
256
370
-1
  6
BYLAYER
 10
5.6479584758668402
 20
12.837949775578029
 30
0.0
 11
5.6477623856700205
 21
13.58750209994291
 31
0.0
  0
LINE
  5
DE
100
AcDbEntity
100
AcDbLine
  8
color#373435ff
 62
256
370
-1
  6
BYLAYER
 10
5.6477623856700205
 20
13.58750209994291
 30
0.0
 11
7.8815678077310221
 21
12.29330764867959
 31
0.0
  0
LINE
  5
DF
100
AcDbEntity
100
AcDbLine
  8
color#373435ff
 62
256
370
-1
  6
BYLAYER
 10
7.8815678077310221
 20
12.29330764867959
 30
0.0
 11
7.8815557105258058
 21
13.333340949114959
 31
0.0
  0
LINE
  5
E0
100
AcDbEntity
100
AcDbLine
  8
color#373435ff
 62
256
370
-1
  6
BYLAYER
 10
7.8815557105258058
 20
13.333340949114959
 30
0.0
 11
5.647553203872385
 21
14.622906254832055
 31
0.0
  0
LINE
  5
E1
100
AcDbEntity
100
AcDbLine
  8
color#373435ff
 62
256
370
-1
  6
BYLAYER
 10
5.647553203872385
 20
14.622906254832055
 30
0.0
 11
5.6476577183433756
 21
15.372458766293915
 31
0.0
  0
LINE
  5
E2
100
AcDbEntity
100
AcDbLine
  8
color#373435ff
 62
256
370
-1
  6
BYLAYER
 10
5.6476577183433756
 20
15.372458766293915
 30
0.0
 11
7.8815850067064517
 21
14.085053476255464
 31
0.0
  0
LINE
  5
E3
100
AcDbEntity
100
AcDbLine
  8
color#373435ff
 62
256
370
-1
  6
BYLAYER
 10
7.8815850067064517
 20
14.085053476255464
 30
0.0
 11
7.8821806496335798
 21
15.116626774453552
 31
0.0
  0
LINE
  5
E4
100
AcDbEntity
100
AcDbLine
  8
color#373435ff
 62
256
370
-1
  6
BYLAYER
 10
7.8821806496335798
 20
15.116626774453552
 30
0.0
 11
5.6570390678147202
 21
16.400523329499098
 31
0.0
  0
LINE
  5
E5
100
AcDbEntity
100
AcDbLine
  8
color#373435ff
 62
256
370
-1
  6
BYLAYER
 10
5.6570390678147202
 20
16.400523329499098
 30
0.0
 11
5.7488348699105609
 21
16.429255619040468
 31
0.0
  0
LINE
  5
E6
100
AcDbEntity
100
AcDbLine
  8
color#373435ff
 62
256
370
-1
  6
BYLAYER
 10
5.7488348699105609
 20
16.429255619040468
 30
0.0
 11
6.5567199607034308
 21
16.633415538136767
 31
0.0
  0
LINE
  5
E7
100
AcDbEntity
100
AcDbLine
  8
color#373435ff
 62
256
370
-1
  6
BYLAYER
 10
6.5567199607034308
 20
16.633415538136767
 30
0.0
 11
7.8814041000570176
 21
15.869286522536093
 31
0.0
  0
LINE
  5
E8
100
AcDbEntity
100
AcDbLine
  8
color#373435ff
 62
256
370
-1
  6
BYLAYER
 10
7.8814041000570176
 20
15.869286522536093
 30
0.0
 11
7.8816439499557713
 21
16.789164237394562
 31
0.0
  0
LINE
  5
E9
100
AcDbEntity
100
AcDbLine
  8
color#373435ff
 62
256
370
-1
  6
BYLAYER
 10
6.298515988983457
 20
12.457496455502593
 30
0.0
 11
6.2983498913989671
 21
11.712081506141455
 31
0.0
  0
LINE
  5
EA
100
AcDbEntity
100
AcDbLine
  8
color#373435ff
 62
256
370
-1
  6
BYLAYER
 10
6.2983498913989671
 20
11.712081506141455
 30
0.0
 11
5.6522854706783496
 21
12.084404403141564
 31
0.0
  0
LINE
  5
EB
100
AcDbEntity
100
AcDbLine
  8
color#373435ff
 62
256
370
-1
  6
BYLAYER
 10
5.6522854706783496
 20
12.084404403141564
 30
0.0
 11
5.6573110579444084
 21
10.258179667087564
 31
0.0
  0
LINE
  5
EC
100
AcDbEntity
100
AcDbLine
  8
color#373435ff
 62
256
370
-1
  6
BYLAYER
 10
5.6573110579444084
 20
10.258179667087564
 30
0.0
 11
6.3351329716180897
 21
9.8671344481998418
 31
0.0
  0
LINE
  5
ED
100
AcDbEntity
100
AcDbLine
  8
color#373435ff
 62
256
370
-1
  6
BYLAYER
 10
6.3351329716180897
 20
9.8671344481998418
 30
0.0
 11
7.8821362077503121
 21
10.761312256727527
 31
0.0
  0
LINE
  5
EE
100
AcDbEntity
100
AcDbLine
  8
color#373435ff
 62
256
370
-1
  6
BYLAYER
 10
7.8821362077503121
 20
10.761312256727527
 30
0.0
 11
7.8802414935896952
 21
11.540157398235401
 31
0.0
  0
LINE
  5
EF
100
AcDbEntity
100
AcDbLine
  8
color#373435ff
 62
256
370
-1
  6
BYLAYER
 10
7.8802414935896952
 20
11.540157398235401
 30
0.0
 11
6.298515988983457
 21
12.457496455502593
 31
0.0
  0
LINE
  5
F0
100
AcDbEntity
100
AcDbLine
  8
color#373435ff
 62
256
370
-1
  6
BYLAYER
 10
8.5322844485245337
 20
11.538362972527381
 30
0.0
 11
8.5331987804571625
 21
10.759549966731385
 31
0.0
  0
LINE
  5
F1
100
AcDbEntity
100
AcDbLine
  8
color#373435ff
 62
256
370
-1
  6
BYLAYER
 10
8.5331987804571625
 20
10.759549966731385
 30
0.0
 11
10.054220440104082
 21
9.8828202145226385
 31
0.0
  0
LINE
  5
F2
100
AcDbEntity
100
AcDbLine
  8
color#373435ff
 62
256
370
-1
  6
BYLAYER
 10
10.054220440104082
 20
9.8828202145226385
 30
0.0
 11
10.746159601364674
 21
10.282759879079935
 31
0.0
  0
LINE
  5
F3
100
AcDbEntity
100
AcDbLine
  8
color#373435ff
 62
256
370
-1
  6
BYLAYER
 10
10.746159601364674
 20
10.282759879079935
 30
0.0
 11
10.748029696318296
 21
10.283722169637672
 31
0.0
  0
LINE
  5
F4
100
AcDbEntity
100
AcDbLine
  8
color#373435ff
 62
256
370
-1
  6
BYLAYER
 10
10.748029696318296
 20
10.283722169637672
 30
0.0
 11
10.758434836694439
 21
10.33357950110412
 31
0.0
  0
LINE
  5
F5
100
AcDbEntity
100
AcDbLine
  8
color#373435ff
 62
256
370
-1
  6
BYLAYER
 10
10.758434836694439
 20
10.33357950110412
 30
0.0
 11
10.761795533157668
 21
12.084504628960069
 31
0.0
  0
LINE
  5
F6
100
AcDbEntity
100
AcDbLine
  8
color#373435ff
 62
256
370
-1
  6
BYLAYER
 10
10.761795533157668
 20
12.084504628960069
 30
0.0
 11
10.115749828217135
 21
11.711952104810818
 31
0.0
  0
LINE
  5
F7
100
AcDbEntity
100
AcDbLine
  8
color#373435ff
 62
256
370
-1
  6
BYLAYER
 10
10.115749828217135
 20
11.711952104810818
 30
0.0
 11
10.115711315797864
 21
12.457772666415032
 31
0.0
  0
LINE
  5
F8
100
AcDbEntity
100
AcDbLine
  8
color#373435ff
 62
256
370
-1
  6
BYLAYER
 10
10.115711315797864
 20
12.457772666415032
 30
0.0
 11
8.5322844485245337
 21
11.538362972527381
 31
0.0
  0
LINE
  5
F9
100
AcDbEntity
100
AcDbLine
  8
color#373435ff
 62
256
370
-1
  6
BYLAYER
 10
6.6548040782148092
 20
9.3014144377668391
 30
0.0
 11
6.6551168857136647
 21
7.5053964063432748
 31
0.0
  0
LINE
  5
FA
100
AcDbEntity
100
AcDbLine
  8
color#373435ff
 62
256
370
-1
  6
BYLAYER
 10
6.6551168857136647
 20
7.5053964063432748
 30
0.0
 11
8.2082988340216154
 21
6.6097407352998498
 31
0.0
  0
LINE
  5
FB
100
AcDbEntity
100
AcDbLine
  8
color#373435ff
 62
256
370
-1
  6
BYLAYER
 10
8.2082988340216154
 20
6.6097407352998498
 30
0.0
 11
9.7612714189611705
 21
7.5052826921902289
 31
0.0
  0
LINE
  5
FC
100
AcDbEntity
100
AcDbLine
  8
color#373435ff
 62
256
370
-1
  6
BYLAYER
 10
9.7612714189611705
 20
7.5052826921902289
 30
0.0
 11
9.7614165800063866
 21
9.3013947282511253
 31
0.0
  0
LINE
  5
FD
100
AcDbEntity
100
AcDbLine
  8
color#373435ff
 62
256
370
-1
  6
BYLAYER
 10
9.7614165800063866
 20
9.3013947282511253
 30
0.0
 11
8.2083081927701169
 21
10.197307775822505
 31
0.0
  0
LINE
  5
FE
100
AcDbEntity
100
AcDbLine
  8
color#373435ff
 62
256
370
-1
  6
BYLAYER
 10
8.2083081927701169
 20
10.197307775822505
 30
0.0
 11
6.6548040782148092
 21
9.3014144377668391
 31
0.0
  0
LINE
  5
FF
100
AcDbEntity
100
AcDbLine
  8
color#373435ff
 62
256
370
-1
  6
BYLAYER
 10
10.411165088928909
 20
9.3361273697760883
 30
0.0
 11
10.411928512309027
 21
7.5122090969701087
 31
0.0
  0
LINE
  5
100
100
AcDbEntity
100
AcDbLine
  8
color#373435ff
 62
256
370
-1
  6
BYLAYER
 10
10.411928512309027
 20
7.5122090969701087
 30
0.0
 11
11.084919009468727
 21
7.1227037622369425
 31
0.0
  0
LINE
  5
101
100
AcDbEntity
100
AcDbLine
  8
color#373435ff
 62
256
370
-1
  6
BYLAYER
 10
11.084919009468727
 20
7.1227037622369425
 30
0.0
 11
11.949921414802397
 21
7.6183434230712583
 31
0.0
  0
LINE
  5
102
100
AcDbEntity
100
AcDbLine
  8
color#373435ff
 62
256
370
-1
  6
BYLAYER
 10
11.949921414802397
 20
7.6183434230712583
 30
0.0
 11
12.668923325786221
 21
8.0337596441199288
 31
0.0
  0
LINE
  5
103
100
AcDbEntity
100
AcDbLine
  8
color#373435ff
 62
256
370
-1
  6
BYLAYER
 10
12.668923325786221
 20
8.0337596441199288
 30
0.0
 11
12.026872502338927
 21
8.4075049841870673
 31
0.0
  0
LINE
  5
104
100
AcDbEntity
100
AcDbLine
  8
color#373435ff
 62
256
370
-1
  6
BYLAYER
 10
12.026872502338927
 20
8.4075049841870673
 30
0.0
 11
12.670650237737114
 21
8.7788711371713539
 31
0.0
  0
LINE
  5
105
100
AcDbEntity
100
AcDbLine
  8
color#373435ff
 62
256
370
-1
  6
BYLAYER
 10
12.670650237737114
 20
8.7788711371713539
 30
0.0
 11
11.053524699119261
 21
9.7081916398918029
 31
0.0
  0
LINE
  5
106
100
AcDbEntity
100
AcDbLine
  8
color#373435ff
 62
256
370
-1
  6
BYLAYER
 10
11.053524699119261
 20
9.7081916398918029
 30
0.0
 11
10.411165088928909
 21
9.3361273697760883
 31
0.0
  0
LINE
  5
107
100
AcDbEntity
100
AcDbLine
  8
color#373435ff
 62
256
370
-1
  6
BYLAYER
 10
3.7511138202922063
 20
8.7830114386681579
 30
0.0
 11
3.7547091103767936
 21
8.7731848310196217
 31
0.0
  0
LINE
  5
108
100
AcDbEntity
100
AcDbLine
  8
color#373435ff
 62
256
370
-1
  6
BYLAYER
 10
3.7547091103767936
 20
8.7731848310196217
 30
0.0
 11
4.3897663778622782
 21
8.4056355783958328
 31
0.0
  0
LINE
  5
109
100
AcDbEntity
100
AcDbLine
  8
color#373435ff
 62
256
370
-1
  6
BYLAYER
 10
4.3897663778622782
 20
8.4056355783958328
 30
0.0
 11
3.7464171293919328
 21
8.0308864107676161
 31
0.0
  0
LINE
  5
10A
100
AcDbEntity
100
AcDbLine
  8
color#373435ff
 62
256
370
-1
  6
BYLAYER
 10
3.7464171293919328
 20
8.0308864107676161
 30
0.0
 11
5.3501496398310895
 21
7.1093461997293206
 31
0.0
  0
LINE
  5
10B
100
AcDbEntity
100
AcDbLine
  8
color#373435ff
 62
256
370
-1
  6
BYLAYER
 10
5.3501496398310895
 20
7.1093461997293206
 30
0.0
 11
6.0038226299146196
 21
7.48572628156432
 31
0.0
  0
LINE
  5
10C
100
AcDbEntity
100
AcDbLine
  8
color#373435ff
 62
256
370
-1
  6
BYLAYER
 10
6.0038226299146196
 20
7.48572628156432
 30
0.0
 11
6.0045469969615786
 21
9.3067168421666064
 31
0.0
  0
LINE
  5
10D
100
AcDbEntity
100
AcDbLine
  8
color#373435ff
 62
256
370
-1
  6
BYLAYER
 10
6.0045469969615786
 20
9.3067168421666064
 30
0.0
 11
5.3349300879246107
 21
9.693274096280005
 31
0.0
  0
LINE
  5
10E
100
AcDbEntity
100
AcDbLine
  8
color#373435ff
 62
256
370
-1
  6
BYLAYER
 10
5.3349300879246107
 20
9.693274096280005
 30
0.0
 11
3.7511138202922063
 21
8.7830114386681579
 31
0.0
  0
LINE
  5
10F
100
AcDbEntity
100
AcDbLine
  8
color#373435ff
 62
256
370
-1
  6
BYLAYER
 10
8.5335792078601607
 20
6.0456165496903322
 30
0.0
 11
8.5332249461476639
 21
5.2725284021142
 31
0.0
  0
LINE
  5
110
100
AcDbEntity
100
AcDbLine
  8
color#373435ff
 62
256
370
-1
  6
BYLAYER
 10
8.5332249461476639
 20
5.2725284021142
 30
0.0
 11
10.115559797002295
 21
4.3533445029876185
 31
0.0
  0
LINE
  5
111
100
AcDbEntity
100
AcDbLine
  8
color#373435ff
 62
256
370
-1
  6
BYLAYER
 10
10.115559797002295
 20
4.3533445029876185
 30
0.0
 11
10.115775761349942
 21
5.099687499623605
 31
0.0
  0
LINE
  5
112
100
AcDbEntity
100
AcDbLine
  8
color#373435ff
 62
256
370
-1
  6
BYLAYER
 10
10.115775761349942
 20
5.099687499623605
 30
0.0
 11
10.762205068936513
 21
4.7268810479825971
 31
0.0
  0
LINE
  5
113
100
AcDbEntity
100
AcDbLine
  8
color#373435ff
 62
256
370
-1
  6
BYLAYER
 10
10.762205068936513
 20
4.7268810479825971
 30
0.0
 11
10.757637753305676
 21
6.5603038604794603
 31
0.0
  0
LINE
  5
114
100
AcDbEntity
100
AcDbLine
  8
color#373435ff
 62
256
370
-1
  6
BYLAYER
 10
10.757637753305676
 20
6.5603038604794603
 30
0.0
 11
10.0886734342306
 21
6.9450815799485142
 31
0.0
  0
LINE
  5
115
100
AcDbEntity
100
AcDbLine
  8
color#373435ff
 62
256
370
-1
  6
BYLAYER
 10
10.0886734342306
 20
6.9450815799485142
 30
0.0
 11
8.5335792078601607
 21
6.0456165496903322
 31
0.0
  0
LINE
  5
116
100
AcDbEntity
100
AcDbLine
  8
color#373435ff
 62
256
370
-1
  6
BYLAYER
 10
5.656925546240787
 20
6.53466018580687
 30
0.0
 11
5.6522214237711275
 21
4.7270474240151996
 31
0.0
  0
LINE
  5
117
100
AcDbEntity
100
AcDbLine
  8
color#373435ff
 62
256
370
-1
  6
BYLAYER
 10
5.6522214237711275
 20
4.7270474240151996
 30
0.0
 11
6.2983522211671588
 21
5.0997006800999829
 31
0.0
  0
LINE
  5
118
100
AcDbEntity
100
AcDbLine
  8
color#373435ff
 62
256
370
-1
  6
BYLAYER
 10
6.2983522211671588
 20
5.0997006800999829
 30
0.0
 11
6.2987765035130678
 21
4.353164618150136
 31
0.0
  0
LINE
  5
119
100
AcDbEntity
100
AcDbLine
  8
color#373435ff
 62
256
370
-1
  6
BYLAYER
 10
6.2987765035130678
 20
4.353164618150136
 30
0.0
 11
7.8820460154528078
 21
5.2730794830684315
 31
0.0
  0
LINE
  5
11A
100
AcDbEntity
100
AcDbLine
  8
color#373435ff
 62
256
370
-1
  6
BYLAYER
 10
7.8820460154528078
 20
5.2730794830684315
 30
0.0
 11
7.8820718553345799
 21
6.0457910379070219
 31
0.0
  0
LINE
  5
11B
100
AcDbEntity
100
AcDbLine
  8
color#373435ff
 62
256
370
-1
  6
BYLAYER
 10
7.8820718553345799
 20
6.0457910379070219
 30
0.0
 11
6.3465514773339082
 21
6.9327002817090904
 31
0.0
  0
LINE
  5
11C
100
AcDbEntity
100
AcDbLine
  8
color#373435ff
 62
256
370
-1
  6
BYLAYER
 10
6.3465514773339082
 20
6.9327002817090904
 30
0.0
 11
5.656925546240787
 21
6.53466018580687
 31
0.0
  0
ENDSEC
  0
SECTION
  2
OBJECTS
  0
DICTIONARY
  5
C
100
AcDbDictionary
280
0
281
1
  3
ACAD_GROUP
350
D
  3
ACAD_LAYOUT
350
1A
  3
ACAD_MLINESTYLE
350
17
  3
ACAD_PLOTSETTINGS
350
19
  3
ACAD_PLOTSTYLENAME
350
E
  3
AcDbVariableDictionary
350
11D
  0
DICTIONARY
  5
D
100
AcDbDictionary
280
0
281
1
  0
ACDBDICTIONARYWDFLT
  5
E
100
AcDbDictionary
281
1
  3
Normal
350
F
100
AcDbDictionaryWithDefault
340
F
  0
ACDBPLACEHOLDER
  5
F
  0
DICTIONARY
  5
17
100
AcDbDictionary
280
0
281
1
  3
Standard
350
18
  0
MLINESTYLE
  5
18
100
AcDbMlineStyle
  2
STANDARD
 70
0
  3

 62
256
 51
90.0
 52
90.0
 71
2
 49
0.5
 62
256
  6
BYLAYER
 49
-0.5
 62
256
  6
BYLAYER
  0
DICTIONARY
  5
19
100
AcDbDictionary
280
0
281
1
  0
DICTIONARY
  5
1A
100
AcDbDictionary
281
1
  3
Layout1
350
1E
  3
Layout2
350
26
  3
Model
350
22
  0
LAYOUT
  5
1E
100
AcDbPlotSettings
  1

  2
C:\Program Files\AutoCAD 2002\plotters\DWF ePlot (optimized for plotting).pc3
  4

  6

 40
0.0
 41
0.0
 42
0.0
 43
0.0
 44
0.0
 45
0.0
 46
0.0
 47
0.0
 48
0.0
 49
0.0
140
0.0
141
0.0
142
1.0
143
1.0
 70
688
 72
0
 73
0
 74
5
  7

 75
16
147
1.0
148
0.0
149
0.0
100
AcDbLayout
  1
Layout1
 70
1
 71
1
 10
0.0
 20
0.0
 11
420.0
 21
297.0
 12
0.0
 22
0.0
 32
0.0
 14
100000000000000000000.0
 24
100000000000000000000.0
 34
100000000000000000000.0
 15
-100000000000000000000.0
 25
-100000000000000000000.0
 35
-100000000000000000000.0
146
0.0
 13
0.0
 23
0.0
 33
0.0
 16
1.0
 26
0.0
 36
0.0
 17
0.0
 27
1.0
 37
0.0
 76
0
330
1B
  0
LAYOUT
  5
22
100
AcDbPlotSettings
  1

  2
C:\Program Files\AutoCAD 2002\plotters\DWF ePlot (optimized for plotting).pc3
  4

  6

 40
0.0
 41
0.0
 42
0.0
 43
0.0
 44
0.0
 45
0.0
 46
0.0
 47
0.0
 48
0.0
 49
0.0
140
0.0
141
0.0
142
1.0
143
1.0
 70
1712
 72
0
 73
0
 74
0
  7

 75
0
147
1.0
148
0.0
149
0.0
100
AcDbLayout
  1
Model
 70
1
 71
0
 10
0.0
 20
0.0
 11
12.0
 21
9.0
 12
0.0
 22
0.0
 32
0.0
 14
0.0
 24
0.0
 34
0.0
 15
0.0
 25
0.0
 35
0.0
146
0.0
 13
0.0
 23
0.0
 33
0.0
 16
1.0
 26
0.0
 36
0.0
 17
0.0
 27
1.0
 37
0.0
 76
0
330
1F
  0
LAYOUT
  5
26
100
AcDbPlotSettings
  1

  2
C:\Program Files\AutoCAD 2002\plotters\DWF ePlot (optimized for plotting).pc3
  4

  6

 40
0.0
 41
0.0
 42
0.0
 43
0.0
 44
0.0
 45
0.0
 46
0.0
 47
0.0
 48
0.0
 49
0.0
140
0.0
141
0.0
142
1.0
143
1.0
 70
688
 72
0
 73
0
 74
5
  7

 75
16
147
1.0
148
0.0
149
0.0
100
AcDbLayout
  1
Layout2
 70
1
 71
2
 10
0.0
 20
0.0
 11
12.0
 21
9.0
 12
0.0
 22
0.0
 32
0.0
 14
0.0
 24
0.0
 34
0.0
 15
0.0
 25
0.0
 35
0.0
146
0.0
 13
0.0
 23
0.0
 33
0.0
 16
1.0
 26
0.0
 36
0.0
 17
0.0
 27
1.0
 37
0.0
 76
0
330
23
  0
DICTIONARY
  5
11D
100
AcDbDictionary
281
1
  3
DIMASSOC
350
11F
  3
HIDETEXT
350
11E
  0
DICTIONARYVAR
  5
11E
100
DictionaryVariables
280
0
  1
2
  0
DICTIONARYVAR
  5
11F
100
DictionaryVariables
280
0
  1
1
  0
ENDSEC
  0
EOF
