  0
SECTION
  2
HEADER
  9
$ACADVER
  1
AC1015
  9
$ACADMAINTVER
 70
     6
  9
$DWGCODEPAGE
  3
ANSI_1252
  9
$INSBASE
 10
0.0
 20
0.0
 30
0.0
  9
$EXTMIN
 10
0.0
 20
0.0
 30
0.0
  9
$EXTMAX
 10
420.0
 20
297.0
 30
0.0
  9
$LIMMIN
 10
0.0
 20
0.0
  9
$LIMMAX
 10
420.0
 20
297.0
  9
$ORTHOMODE
 70
     0
  9
$REGENMODE
 70
     1
  9
$FILLMODE
 70
     1
  9
$QTEXTMODE
 70
     0
  9
$MIRRTEXT
 70
     1
  9
$LTSCALE
 40
1.0
  9
$ATTMODE
 70
     1
  9
$TEXTSIZE
 40
3.5
  9
$TRACEWID
 40
1.0
  9
$TEXTSTYLE
  7
Standard
  9
$CLAYER
  8
0
  9
$CELTYPE
  6
ByLayer
  9
$CECOLOR
 62
   256
  9
$CELTSCALE
 40
1.0
  9
$DISPSILH
 70
     0
  9
$DIMSCALE
 40
1.0
  9
$DIMASZ
 40
3.302
  9
$DIMEXO
 40
1.0
  9
$DIMDLI
 40
3.75
  9
$DIMRND
 40
0.0
  9
$DIMDLE
 40
0.0
  9
$DIMEXE
 40
1.0
  9
$DIMTP
 40
0.0
  9
$DIMTM
 40
0.0
  9
$DIMTXT
 40
3.5
  9
$DIMCEN
 40
2.5
  9
$DIMTSZ
 40
0.0
  9
$DIMTOL
 70
     0
  9
$DIMLIM
 70
     0
  9
$DIMTIH
 70
     1
  9
$DIMTOH
 70
     1
  9
$DIMSE1
 70
     0
  9
$DIMSE2
 70
     0
  9
$DIMTAD
 70
     1
  9
$DIMZIN
 70
     0
  9
$DIMBLK
  1

  9
$DIMASO
 70
     1
  9
$DIMSHO
 70
     1
  9
$DIMPOST
  1

  9
$DIMAPOST
  1

  9
$DIMALT
 70
     0
  9
$DIMALTD
 70
     3
  9
$DIMALTF
 40
0.0393700787
  9
$DIMLFAC
 40
1.0
  9
$DIMTOFL
 70
     1
  9
$DIMTVP
 40
0.0
  9
$DIMTIX
 70
     0
  9
$DIMSOXD
 70
     0
  9
$DIMSAH
 70
     0
  9
$DIMBLK1
  1

  9
$DIMBLK2
  1

  9
$DIMSTYLE
  2
ISO-25
  9
$DIMCLRD
 70
     0
  9
$DIMCLRE
 70
     0
  9
$DIMCLRT
 70
     0
  9
$DIMTFAC
 40
1.0
  9
$DIMGAP
 40
1.524
  9
$DIMJUST
 70
     0
  9
$DIMSD1
 70
     0
  9
$DIMSD2
 70
     0
  9
$DIMTOLJ
 70
     0
  9
$DIMTZIN
 70
     0
  9
$DIMALTZ
 70
     0
  9
$DIMALTTZ
 70
     0
  9
$DIMUPT
 70
     0
  9
$DIMDEC
 70
     3
  9
$DIMTDEC
 70
     3
  9
$DIMALTU
 70
     2
  9
$DIMALTTD
 70
     3
  9
$DIMTXSTY
  7
Standard
  9
$DIMAUNIT
 70
     0
  9
$DIMADEC
 70
     2
  9
$DIMALTRND
 40
0.0
  9
$DIMAZIN
 70
     0
  9
$DIMDSEP
 70
    44
  9
$DIMATFIT
 70
     3
  9
$DIMFRAC
 70
     0
  9
$DIMLDRBLK
  1

  9
$DIMLUNIT
 70
     2
  9
$DIMLWD
 70
    -2
  9
$DIMLWE
 70
    -2
  9
$DIMTMOVE
 70
     0
  9
$LUNITS
 70
     2
  9
$LUPREC
 70
     2
  9
$SKETCHINC
 40
1.0
  9
$FILLETRAD
 40
10.0
  9
$AUNITS
 70
     0
  9
$AUPREC
 70
     2
  9
$MENU
  1
.
  9
$ELEVATION
 40
0.0
  9
$PELEVATION
 40
0.0
  9
$THICKNESS
 40
0.0
  9
$LIMCHECK
 70
     0
  9
$CHAMFERA
 40
10.0
  9
$CHAMFERB
 40
10.0
  9
$CHAMFERC
 40
20.0
  9
$CHAMFERD
 40
0.0
  9
$SKPOLY
 70
     0
  9
$TDCREATE
 40
2456094.877744445
  9
$TDUCREATE
 40
2456094.794411111
  9
$TDUPDATE
 40
2456094.877744456
  9
$TDUUPDATE
 40
2456094.794411123
  9
$TDINDWG
 40
0.0000000116
  9
$TDUSRTIMER
 40
0.0000000116
  9
$USRTIMER
 70
     1
  9
$ANGBASE
 50
0.0
  9
$ANGDIR
 70
     0
  9
$PDMODE
 70
     0
  9
$PDSIZE
 40
-1.0
  9
$PLINEWID
 40
0.0
  9
$SPLFRAME
 70
     0
  9
$SPLINETYPE
 70
     6
  9
$SPLINESEGS
 70
     8
  9
$HANDSEED
  5
4A0
  9
$SURFTAB1
 70
     6
  9
$SURFTAB2
 70
     6
  9
$SURFTYPE
 70
     6
  9
$SURFU
 70
     6
  9
$SURFV
 70
     6
  9
$UCSBASE
  2

  9
$UCSNAME
  2

  9
$UCSORG
 10
0.0
 20
0.0
 30
0.0
  9
$UCSXDIR
 10
1.0
 20
0.0
 30
0.0
  9
$UCSYDIR
 10
0.0
 20
1.0
 30
0.0
  9
$UCSORTHOREF
  2

  9
$UCSORTHOVIEW
 70
     0
  9
$UCSORGTOP
 10
0.0
 20
0.0
 30
0.0
  9
$UCSORGBOTTOM
 10
0.0
 20
0.0
 30
0.0
  9
$UCSORGLEFT
 10
0.0
 20
0.0
 30
0.0
  9
$UCSORGRIGHT
 10
0.0
 20
0.0
 30
0.0
  9
$UCSORGFRONT
 10
0.0
 20
0.0
 30
0.0
  9
$UCSORGBACK
 10
0.0
 20
0.0
 30
0.0
  9
$PUCSBASE
  2

  9
$PUCSNAME
  2

  9
$PUCSORG
 10
0.0
 20
0.0
 30
0.0
  9
$PUCSXDIR
 10
1.0
 20
0.0
 30
0.0
  9
$PUCSYDIR
 10
0.0
 20
1.0
 30
0.0
  9
$PUCSORTHOREF
  2

  9
$PUCSORTHOVIEW
 70
     0
  9
$PUCSORGTOP
 10
0.0
 20
0.0
 30
0.0
  9
$PUCSORGBOTTOM
 10
0.0
 20
0.0
 30
0.0
  9
$PUCSORGLEFT
 10
0.0
 20
0.0
 30
0.0
  9
$PUCSORGRIGHT
 10
0.0
 20
0.0
 30
0.0
  9
$PUCSORGFRONT
 10
0.0
 20
0.0
 30
0.0
  9
$PUCSORGBACK
 10
0.0
 20
0.0
 30
0.0
  9
$USERI1
 70
     0
  9
$USERI2
 70
     0
  9
$USERI3
 70
     0
  9
$USERI4
 70
     0
  9
$USERI5
 70
     0
  9
$USERR1
 40
0.0
  9
$USERR2
 40
0.0
  9
$USERR3
 40
0.0
  9
$USERR4
 40
0.0
  9
$USERR5
 40
0.0
  9
$WORLDVIEW
 70
     1
  9
$SHADEDGE
 70
     3
  9
$SHADEDIF
 70
    70
  9
$TILEMODE
 70
     1
  9
$MAXACTVP
 70
    64
  9
$PINSBASE
 10
0.0
 20
0.0
 30
0.0
  9
$PLIMCHECK
 70
     0
  9
$PEXTMIN
 10
1.0000000000E+20
 20
1.0000000000E+20
 30
1.0000000000E+20
  9
$PEXTMAX
 10
-1.0000000000E+20
 20
-1.0000000000E+20
 30
-1.0000000000E+20
  9
$PLIMMIN
 10
0.0
 20
0.0
  9
$PLIMMAX
 10
420.0
 20
297.0
  9
$UNITMODE
 70
     0
  9
$VISRETAIN
 70
     1
  9
$PLINEGEN
 70
     0
  9
$PSLTSCALE
 70
     1
  9
$TREEDEPTH
 70
  3020
  9
$CMLSTYLE
  2
Standard
  9
$CMLJUST
 70
     0
  9
$CMLSCALE
 40
20.0
  9
$PROXYGRAPHICS
 70
     1
  9
$MEASUREMENT
 70
     1
  9
$CELWEIGHT
370
    -1
  9
$ENDCAPS
280
     0
  9
$JOINSTYLE
280
     0
  9
$LWDISPLAY
290
     1
  9
$INSUNITS
 70
     4
  9
$HYPERLINKBASE
  1

  9
$STYLESHEET
  1

  9
$XEDIT
290
     1
  9
$CEPSNTYPE
380
     0
  9
$PSTYLEMODE
290
     1
  9
$FINGERPRINTGUID
  2
{F6E33D2A-32E8-4FCC-AD3F-9A211334F714}
  9
$VERSIONGUID
  2
{FAEB1C32-E019-11D5-929B-00C0DF256EC4}
  9
$EXTNAMES
290
     1
  9
$PSVPSCALE
 40
0.0
  9
$OLESTARTUP
290
     0
  0
ENDSEC
  0
SECTION
  2
CLASSES
  0
CLASS
  1
ACDBDICTIONARYWDFLT
  2
AcDbDictionaryWithDefault
  3
ObjectDBX Classes
 90
        0
280
     0
281
     0
  0
CLASS
  1
VISUALSTYLE
  2
AcDbVisualStyle
  3
ObjectDBX Classes
 90
     4095
280
     0
281
     0
  0
CLASS
  1
SCALE
  2
AcDbScale
  3
ObjectDBX Classes
 90
     1153
280
     0
281
     0
  0
CLASS
  1
DICTIONARYVAR
  2
AcDbDictionaryVar
  3
ObjectDBX Classes
 90
        0
280
     0
281
     0
  0
CLASS
  1
ACDBPLACEHOLDER
  2
AcDbPlaceHolder
  3
ObjectDBX Classes
 90
        0
280
     0
281
     0
  0
CLASS
  1
LAYOUT
  2
AcDbLayout
  3
ObjectDBX Classes
 90
        0
280
     0
281
     0
  0
ENDSEC
  0
SECTION
  2
TABLES
  0
TABLE
  2
VPORT
  5
8
330
0
100
AcDbSymbolTable
 70
     1
  0
VPORT
  5
29
330
8
100
AcDbSymbolTableRecord
100
AcDbViewportTableRecord
  2
*Active
 70
     0
 10
0.0
 20
0.0
 11
1.0
 21
1.0
 12
210.0
 22
148.5
 13
0.0
 23
0.0
 14
10.0
 24
10.0
 15
10.0
 25
10.0
 16
0.0
 26
0.0
 36
1.0
 17
0.0
 27
0.0
 37
0.0
 40
297.0
 41
1.4141414141
 42
50.0
 43
0.0
 44
0.0
 50
0.0
 51
0.0
 71
     0
 72
  2000
 73
     1
 74
     3
 75
     0
 76
     0
 77
     0
 78
     0
281
     0
 65
     1
110
0.0
120
0.0
130
0.0
111
1.0
121
0.0
131
0.0
112
0.0
122
1.0
132
0.0
 79
     0
146
0.0
  0
ENDTAB
  0
TABLE
  2
LTYPE
  5
5
330
0
100
AcDbSymbolTable
 70
     6
  0
LTYPE
  5
14
330
5
100
AcDbSymbolTableRecord
100
AcDbLinetypeTableRecord
  2
ByBlock
 70
     0
  3

 72
    65
 73
     0
 40
0.0
  0
LTYPE
  5
15
330
5
100
AcDbSymbolTableRecord
100
AcDbLinetypeTableRecord
  2
ByLayer
 70
     0
  3

 72
    65
 73
     0
 40
0.0
  0
LTYPE
  5
16
330
5
100
AcDbSymbolTableRecord
100
AcDbLinetypeTableRecord
  2
Continuous
 70
     0
  3
Solid line
 72
    65
 73
     0
 40
0.0
  0
LTYPE
  5
3B
330
5
100
AcDbSymbolTableRecord
100
AcDbLinetypeTableRecord
  2
HIDDEN
 70
     0
  3
Hidden __ __ __ __ __ __ __ __ __ __ __ __ __ __
 72
    65
 73
     2
 40
1.905
 49
1.27
 74
     0
 49
-0.635
 74
     0
  0
LTYPE
  5
3C
330
5
100
AcDbSymbolTableRecord
100
AcDbLinetypeTableRecord
  2
PHANTOM
 70
     0
  3
Phantom ______  __  __  ______  __  __  ______
 72
    65
 73
     6
 40
12.7
 49
6.35
 74
     0
 49
-1.27
 74
     0
 49
1.27
 74
     0
 49
-1.27
 74
     0
 49
1.27
 74
     0
 49
-1.27
 74
     0
  0
LTYPE
  5
3D
330
5
100
AcDbSymbolTableRecord
100
AcDbLinetypeTableRecord
  2
CENTER
 70
     0
  3
Center ____ _ ____ _ ____ _ ____ _ ____ _ ____
 72
    65
 73
     4
 40
10.16
 49
6.35
 74
     0
 49
-1.27
 74
     0
 49
1.27
 74
     0
 49
-1.27
 74
     0
  0
LTYPE
  5
3E
330
5
100
AcDbSymbolTableRecord
100
AcDbLinetypeTableRecord
  2
CENTERX2
 70
     0
  3
Center (2x) ________  __  ________  __  _____
 72
    65
 73
     4
 40
20.32
 49
12.7
 74
     0
 49
-2.54
 74
     0
 49
2.54
 74
     0
 49
-2.54
 74
     0
  0
LTYPE
  5
3F
330
5
100
AcDbSymbolTableRecord
100
AcDbLinetypeTableRecord
  2
DOT2
 70
     0
  3
Dot (.5x) ........................................
 72
    65
 73
     2
 40
0.635
 49
0.0
 74
     0
 49
-0.635
 74
     0
  0
ENDTAB
  0
TABLE
  2
LAYER
  5
2
330
0
100
AcDbSymbolTable
 70
     2
  0
LAYER
  5
10
330
2
100
AcDbSymbolTableRecord
100
AcDbLayerTableRecord
  2
0
 70
     0
 62
     7
  6
Continuous
370
    -3
390
F
  0
LAYER
  5
40
330
2
100
AcDbSymbolTableRecord
100
AcDbLayerTableRecord
  2
FORMAT
 70
     0
 62
     7
  6
Continuous
370
    -3
390
F
  0
ENDTAB
  0
TABLE
  2
STYLE
  5
3
330
0
100
AcDbSymbolTable
 70
     3
  0
STYLE
  5
11
330
3
100
AcDbSymbolTableRecord
100
AcDbTextStyleTableRecord
  2
Standard
 70
     0
 40
0.0
 41
1.0
 50
0.0
 71
     0
 42
2.5
  3
txt
  4

  0
STYLE
  5
62
330
3
100
AcDbSymbolTableRecord
100
AcDbTextStyleTableRecord
  2
SLDTEXTSTYLE0
 70
     0
 40
0.0
 41
0.75
 50
0.0
 71
     0
 42
0.2
  3
TXT
  4

  0
STYLE
  5
A8
330
3
100
AcDbSymbolTableRecord
100
AcDbTextStyleTableRecord
  2
SLDTEXTSTYLE1
 70
     0
 40
0.0
 41
0.6923076923
 50
0.0
 71
     0
 42
0.2
  3
TXT
  4

  0
ENDTAB
  0
TABLE
  2
VIEW
  5
6
330
0
100
AcDbSymbolTable
 70
     0
  0
ENDTAB
  0
TABLE
  2
UCS
  5
7
330
0
100
AcDbSymbolTable
 70
     0
  0
ENDTAB
  0
TABLE
  2
APPID
  5
9
330
0
100
AcDbSymbolTable
 70
     1
  0
APPID
  5
12
330
9
100
AcDbSymbolTableRecord
100
AcDbRegAppTableRecord
  2
ACAD
 70
     0
  0
ENDTAB
  0
TABLE
  2
DIMSTYLE
  5
A
330
0
100
AcDbSymbolTable
 70
     1
100
AcDbDimStyleTable
  0
DIMSTYLE
105
27
330
A
100
AcDbSymbolTableRecord
100
AcDbDimStyleTableRecord
  2
ISO-25
 70
     0
 41
2.5
 42
0.625
 43
3.75
 44
1.25
 73
     0
 74
     0
 77
     1
 78
     8
140
2.5
141
2.5
143
0.0393700787
147
0.625
171
     3
172
     1
271
     2
272
     2
274
     3
278
    44
283
     0
284
     8
340
11
  0
ENDTAB
  0
TABLE
  2
BLOCK_RECORD
  5
1
330
0
100
AcDbSymbolTable
 70
     2
  0
BLOCK_RECORD
  5
1F
330
1
100
AcDbSymbolTableRecord
100
AcDbBlockTableRecord
  2
*Model_Space
340
22
  0
BLOCK_RECORD
  5
1B
330
1
100
AcDbSymbolTableRecord
100
AcDbBlockTableRecord
  2
*Paper_Space
340
1E
  0
BLOCK_RECORD
  5
23
330
1
100
AcDbSymbolTableRecord
100
AcDbBlockTableRecord
  2
*Paper_Space0
340
26
  0
BLOCK_RECORD
  5
5F
330
1
100
AcDbSymbolTableRecord
100
AcDbBlockTableRecord
  2
SW_NOTE_0
340
0
102
{BLKREFS
331
89
102
}
  0
ENDTAB
  0
ENDSEC
  0
SECTION
  2
BLOCKS
  0
BLOCK
  5
20
330
1F
100
AcDbEntity
  8
0
100
AcDbBlockBegin
  2
*Model_Space
 70
     0
 10
0.0
 20
0.0
 30
0.0
  3
*Model_Space
  1

  0
ENDBLK
  5
21
330
1F
100
AcDbEntity
  8
0
100
AcDbBlockEnd
  0
BLOCK
  5
1C
330
1B
100
AcDbEntity
 67
     1
  8
0
100
AcDbBlockBegin
  2
*Paper_Space
 70
     0
 10
0.0
 20
0.0
 30
0.0
  3
*Paper_Space
  1

  0
ENDBLK
  5
1D
330
1B
100
AcDbEntity
 67
     1
  8
0
100
AcDbBlockEnd
  0
BLOCK
  5
24
330
23
100
AcDbEntity
  8
0
100
AcDbBlockBegin
  2
*Paper_Space0
 70
     0
 10
0.0
 20
0.0
 30
0.0
  3
*Paper_Space0
  1

  0
ENDBLK
  5
25
330
23
100
AcDbEntity
  8
0
100
AcDbBlockEnd
  0
BLOCK
  5
60
330
5F
100
AcDbEntity
  8
0
100
AcDbBlockBegin
  2
SW_NOTE_0
 70
     0
 10
0.0
 20
0.0
 30
0.0
  3
SW_NOTE_0
  1

  0
MTEXT
  5
85
330
5F
100
AcDbEntity
  8
0
  6
Continuous
 62
     0
370
     0
100
AcDbMText
 10
0.0
 20
3.7517242343
 30
0.0
 40
2.9104166667
 41
0.0
 71
     1
 72
     1
  1
Durchmesser von 2,8cm für Blaumeise, Tannenmeise, Haubenmeise, Sumpfmeise, Weidenmeise.
  7
SLDTEXTSTYLE0
 73
     1
 44
1.0
  0
MTEXT
  5
86
330
5F
100
AcDbEntity
  8
0
  6
Continuous
 62
     0
370
     0
100
AcDbMText
 10
0.0
 20
-0.1288312744
 30
0.0
 40
2.9104166667
 41
0.0
 71
     1
 72
     1
  1
Durchmesser von 3,2cm für Kohlmeise und den Kleiber.
  7
SLDTEXTSTYLE0
 73
     1
 44
1.0
  0
MTEXT
  5
87
330
5F
100
AcDbEntity
  8
0
  6
Continuous
 62
     0
370
     0
100
AcDbMText
 10
0.0
 20
-4.009386783
 30
0.0
 40
2.9104166667
 41
0.0
 71
     1
 72
     1
  1
Durchmesser von 3,6cm für Trauerschnäpper, Halsbandschnäpper, Haussperling und Feldsperling.
  7
SLDTEXTSTYLE0
 73
     1
 44
1.0
  0
MTEXT
  5
88
330
5F
100
AcDbEntity
  8
0
  6
Continuous
 62
     0
370
     0
100
AcDbMText
 10
0.0
 20
-7.8899422917
 30
0.0
 40
2.9104166667
 41
0.0
 71
     1
 72
     1
  1
Durchmesser von 4,5cm für Star.
  7
SLDTEXTSTYLE0
 73
     1
 44
1.0
  0
ENDBLK
  5
61
330
5F
100
AcDbEntity
  8
0
100
AcDbBlockEnd
  0
ENDSEC
  0
SECTION
  2
ENTITIES
  0
LINE
  5
41
330
1F
100
AcDbEntity
  8
0
  6
Continuous
 62
     7
370
     0
100
AcDbLine
 10
326.3340518346
 20
60.2506400726
 30
0.0
 11
414.7340518346
 21
60.2506400726
 31
0.0
  0
LINE
  5
42
330
1F
100
AcDbEntity
  8
0
  6
Continuous
 62
     7
370
     0
100
AcDbLine
 10
410.0
 20
287.0
 30
0.0
 11
410.0
 21
60.25
 31
0.0
  0
LINE
  5
43
330
1F
100
AcDbEntity
  8
0
  6
Continuous
 62
     7
370
     0
100
AcDbLine
 10
370.8
 20
5.0
 30
0.0
 11
370.8
 21
9.25
 31
0.0
  0
LINE
  5
44
330
1F
100
AcDbEntity
  8
0
  6
Continuous
 62
     7
370
     0
100
AcDbLine
 10
415.0
 20
292.0
 30
0.0
 11
5.0
 21
292.0
 31
0.0
  0
LINE
  5
45
330
1F
100
AcDbEntity
  8
0
  6
Continuous
 62
     7
370
     0
100
AcDbLine
 10
410.0
 20
287.0
 30
0.0
 11
10.0
 21
287.0
 31
0.0
  0
LINE
  5
46
330
1F
100
AcDbEntity
  8
0
  6
Continuous
 62
     7
370
     0
100
AcDbLine
 10
5.0
 20
292.0
 30
0.0
 11
5.0
 21
5.0
 31
0.0
  0
LINE
  5
47
330
1F
100
AcDbEntity
  8
0
  6
Continuous
 62
     7
370
     0
100
AcDbLine
 10
10.0
 20
287.0
 30
0.0
 11
10.0
 21
10.0
 31
0.0
  0
LINE
  5
48
330
1F
100
AcDbEntity
  8
0
  6
Continuous
 62
     7
370
     0
100
AcDbLine
 10
10.0
 20
48.5
 30
0.0
 11
5.0
 21
48.5
 31
0.0
  0
LINE
  5
49
330
1F
100
AcDbEntity
  8
0
  6
Continuous
 62
     7
370
     0
100
AcDbLine
 10
5.0
 20
98.5
 30
0.0
 11
10.0
 21
98.5
 31
0.0
  0
LINE
  5
4A
330
1F
100
AcDbEntity
  8
0
  6
Continuous
 62
     7
370
     0
100
AcDbLine
 10
5.0
 20
198.5
 30
0.0
 11
10.0
 21
198.5
 31
0.0
  0
LINE
  5
4B
330
1F
100
AcDbEntity
  8
0
  6
Continuous
 62
     7
370
     0
100
AcDbLine
 10
5.0
 20
148.5
 30
0.0
 11
15.0
 21
148.5
 31
0.0
  0
LINE
  5
4C
330
1F
100
AcDbEntity
  8
0
  6
Continuous
 62
     7
370
     0
100
AcDbLine
 10
5.0
 20
5.0
 30
0.0
 11
415.0
 21
5.0
 31
0.0
  0
LINE
  5
4D
330
1F
100
AcDbEntity
  8
0
  6
Continuous
 62
     7
370
     0
100
AcDbLine
 10
10.0
 20
10.0
 30
0.0
 11
415.0
 21
10.0
 31
0.0
  0
LINE
  5
4E
330
1F
100
AcDbEntity
  8
0
  6
Continuous
 62
     7
370
     0
100
AcDbLine
 10
60.0
 20
5.0
 30
0.0
 11
60.0
 21
10.0
 31
0.0
  0
LINE
  5
4F
330
1F
100
AcDbEntity
  8
0
  6
Continuous
 62
     7
370
     0
100
AcDbLine
 10
110.0
 20
10.0
 30
0.0
 11
110.0
 21
5.0
 31
0.0
  0
LINE
  5
50
330
1F
100
AcDbEntity
  8
0
  6
Continuous
 62
     7
370
     0
100
AcDbLine
 10
160.0
 20
5.0
 30
0.0
 11
160.0
 21
10.0
 31
0.0
  0
LINE
  5
51
330
1F
100
AcDbEntity
  8
0
  6
Continuous
 62
     7
370
     0
100
AcDbLine
 10
10.0
 20
248.5
 30
0.0
 11
5.0
 21
248.5
 31
0.0
  0
LINE
  5
52
330
1F
100
AcDbEntity
  8
0
  6
Continuous
 62
     7
370
     0
100
AcDbLine
 10
60.0
 20
287.0
 30
0.0
 11
60.0
 21
292.0
 31
0.0
  0
LINE
  5
53
330
1F
100
AcDbEntity
  8
0
  6
Continuous
 62
     7
370
     0
100
AcDbLine
 10
110.0
 20
292.0
 30
0.0
 11
110.0
 21
287.0
 31
0.0
  0
LINE
  5
54
330
1F
100
AcDbEntity
  8
0
  6
Continuous
 62
     7
370
     0
100
AcDbLine
 10
160.0
 20
287.0
 30
0.0
 11
160.0
 21
292.0
 31
0.0
  0
LINE
  5
55
330
1F
100
AcDbEntity
  8
0
  6
Continuous
 62
     7
370
     0
100
AcDbLine
 10
260.0
 20
287.0
 30
0.0
 11
260.0
 21
292.0
 31
0.0
  0
LINE
  5
56
330
1F
100
AcDbEntity
  8
0
  6
Continuous
 62
     7
370
     0
100
AcDbLine
 10
415.0
 20
5.0
 30
0.0
 11
415.0
 21
292.0
 31
0.0
  0
LINE
  5
57
330
1F
100
AcDbEntity
  8
0
  6
Continuous
 62
     7
370
     0
100
AcDbLine
 10
326.3340518346
 20
5.0
 30
0.0
 11
326.3340518346
 21
60.2506400726
 31
0.0
  0
LINE
  5
58
330
1F
100
AcDbEntity
  8
0
  6
Continuous
 62
     7
370
     0
100
AcDbLine
 10
410.0
 20
198.5
 30
0.0
 11
415.0
 21
198.5
 31
0.0
  0
LINE
  5
59
330
1F
100
AcDbEntity
  8
0
  6
Continuous
 62
     7
370
     0
100
AcDbLine
 10
410.0
 20
98.5
 30
0.0
 11
415.0
 21
98.5
 31
0.0
  0
LINE
  5
5A
330
1F
100
AcDbEntity
  8
0
  6
Continuous
 62
     7
370
     0
100
AcDbLine
 10
415.0
 20
148.5
 30
0.0
 11
405.0
 21
148.5
 31
0.0
  0
LINE
  5
5B
330
1F
100
AcDbEntity
  8
0
  6
Continuous
 62
     7
370
     0
100
AcDbLine
 10
310.0
 20
292.0
 30
0.0
 11
310.0
 21
287.0
 31
0.0
  0
LINE
  5
5C
330
1F
100
AcDbEntity
  8
0
  6
Continuous
 62
     7
370
     0
100
AcDbLine
 10
360.0
 20
287.0
 30
0.0
 11
360.0
 21
292.0
 31
0.0
  0
LINE
  5
5D
330
1F
100
AcDbEntity
  8
0
  6
Continuous
 62
     7
370
     0
100
AcDbLine
 10
210.0
 20
292.0
 30
0.0
 11
210.0
 21
282.0
 31
0.0
  0
LINE
  5
5E
330
1F
100
AcDbEntity
  8
0
  6
Continuous
 62
     7
370
     0
100
AcDbLine
 10
415.0
 20
248.5
 30
0.0
 11
410.0
 21
248.5
 31
0.0
  0
INSERT
  5
89
330
1F
100
AcDbEntity
  8
0
  6
Continuous
 62
     7
370
     0
100
AcDbBlockReference
  2
SW_NOTE_0
 10
221.1907135735
 20
142.0728635926
 30
0.0
  0
MTEXT
  5
8A
330
1F
100
AcDbEntity
  8
0
  6
Continuous
 62
     7
370
     0
100
AcDbMText
 10
45.5676408408
 20
99.4001466746
 30
0.0
 40
7.4083333333
 41
0.0
 71
     1
 72
     1
  1
1:1
  7
SLDTEXTSTYLE0
 73
     1
 44
1.0
  0
MTEXT
  5
8B
330
1F
100
AcDbEntity
  8
0
  6
Continuous
 62
     7
370
     0
100
AcDbMText
 10
166.3129734475
 20
79.3215979703
 30
0.0
 40
7.4083333333
 41
0.0
 71
     1
 72
     1
  1
10x
  7
SLDTEXTSTYLE0
 73
     1
 44
1.0
  0
MTEXT
  5
8C
330
1F
100
AcDbEntity
  8
0
  6
Continuous
 62
     7
370
     0
100
AcDbMText
 10
20.406795637
 20
58.2416685982
 30
0.0
 40
7.4083333333
 41
0.0
 71
     1
 72
     1
  1
12x
  7
SLDTEXTSTYLE0
 73
     1
 44
1.0
  0
MTEXT
  5
8D
330
1F
100
AcDbEntity
  8
0
  6
Continuous
 62
     7
370
     0
100
AcDbMText
 10
337.6033182128
 20
48.7560859222
 30
0.0
 40
6.35
 41
0.0
 71
     1
 72
     1
  1
www.jtronics.de
  7
SLDTEXTSTYLE0
 73
     1
 44
1.0
  0
MTEXT
  5
8E
330
1F
100
AcDbEntity
  8
0
  6
Continuous
 62
     7
370
     0
100
AcDbMText
 10
343.0125912654
 20
27.4465377527
 30
0.0
 40
6.35
 41
0.0
 71
     1
 72
     1
  1
birdhouse2vX
  7
SLDTEXTSTYLE0
 73
     1
 44
1.0
  0
MTEXT
  5
8F
330
1F
100
AcDbEntity
  8
0
  6
Continuous
 62
     7
370
     0
100
AcDbMText
 10
44.1652901531
 20
7.8888951884
 30
0.0
 40
2.38125
 41
0.0
 71
     1
 72
     1
  1
5
  7
SLDTEXTSTYLE0
 73
     1
 44
1.0
  0
MTEXT
  5
90
330
1F
100
AcDbEntity
  8
0
  6
Continuous
 62
     7
370
     0
100
AcDbMText
 10
94.5845283056
 20
7.9685832965
 30
0.0
 40
2.38125
 41
0.0
 71
     1
 72
     1
  1
4
  7
SLDTEXTSTYLE0
 73
     1
 44
1.0
  0
MTEXT
  5
91
330
1F
100
AcDbEntity
  8
0
  6
Continuous
 62
     7
370
     0
100
AcDbMText
 10
143.0641214846
 20
7.9151272789
 30
0.0
 40
2.38125
 41
0.0
 71
     1
 72
     1
  1
3
  7
SLDTEXTSTYLE0
 73
     1
 44
1.0
  0
MTEXT
  5
92
330
1F
100
AcDbEntity
  8
0
  6
Continuous
 62
     7
370
     0
100
AcDbMText
 10
353.0640037733
 20
37.7942080536
 30
0.0
 40
6.35
 41
0.0
 71
     1
 72
     1
  1
Lasercut
  7
SLDTEXTSTYLE0
 73
     1
 44
1.0
  0
MTEXT
  5
93
330
1F
100
AcDbEntity
  8
0
  6
Continuous
 62
     7
370
     0
100
AcDbMText
 10
6.6666666667
 20
124.6680204036
 30
0.0
 40
1.8520833333
 41
0.0
 71
     1
 72
     1
  1
D
  7
SLDTEXTSTYLE0
 73
     1
 44
1.0
  0
MTEXT
  5
94
330
1F
100
AcDbEntity
  8
0
  6
Continuous
 62
     7
370
     0
100
AcDbMText
 10
6.6666666667
 20
74.6680204036
 30
0.0
 40
1.8520833333
 41
0.0
 71
     1
 72
     1
  1
E
  7
SLDTEXTSTYLE0
 73
     1
 44
1.0
  0
MTEXT
  5
95
330
1F
100
AcDbEntity
  8
0
  6
Continuous
 62
     7
370
     0
100
AcDbMText
 10
6.6666666667
 20
24.6680204036
 30
0.0
 40
1.8520833333
 41
0.0
 71
     1
 72
     1
  1
F
  7
SLDTEXTSTYLE0
 73
     1
 44
1.0
  0
MTEXT
  5
96
330
1F
100
AcDbEntity
  8
0
  6
Continuous
 62
     7
370
     0
100
AcDbMText
 10
6.6666666667
 20
174.6680204036
 30
0.0
 40
1.8520833333
 41
0.0
 71
     1
 72
     1
  1
C
  7
SLDTEXTSTYLE0
 73
     1
 44
1.0
  0
MTEXT
  5
97
330
1F
100
AcDbEntity
  8
0
  6
Continuous
 62
     7
370
     0
100
AcDbMText
 10
34.5833333333
 20
8.6680244036
 30
0.0
 40
1.8520833333
 41
0.0
 71
     1
 72
     1
  1
1
  7
SLDTEXTSTYLE0
 73
     1
 44
1.0
  0
MTEXT
  5
98
330
1F
100
AcDbEntity
  8
0
  6
Continuous
 62
     7
370
     0
100
AcDbMText
 10
84.1666666667
 20
8.6680244036
 30
0.0
 40
1.8520833333
 41
0.0
 71
     1
 72
     1
  1
2
  7
SLDTEXTSTYLE0
 73
     1
 44
1.0
  0
MTEXT
  5
99
330
1F
100
AcDbEntity
  8
0
  6
Continuous
 62
     7
370
     0
100
AcDbMText
 10
134.1666666667
 20
8.6680244036
 30
0.0
 40
1.8520833333
 41
0.0
 71
     1
 72
     1
  1
3
  7
SLDTEXTSTYLE0
 73
     1
 44
1.0
  0
MTEXT
  5
9A
330
1F
100
AcDbEntity
  8
0
  6
Continuous
 62
     7
370
     0
100
AcDbMText
 10
6.6666666667
 20
224.6680204036
 30
0.0
 40
1.8520833333
 41
0.0
 71
     1
 72
     1
  1
B
  7
SLDTEXTSTYLE0
 73
     1
 44
1.0
  0
MTEXT
  5
9B
330
1F
100
AcDbEntity
  8
0
  6
Continuous
 62
     7
370
     0
100
AcDbMText
 10
6.6666666667
 20
274.6680204036
 30
0.0
 40
1.8520833333
 41
0.0
 71
     1
 72
     1
  1
A
  7
SLDTEXTSTYLE0
 73
     1
 44
1.0
  0
MTEXT
  5
9C
330
1F
100
AcDbEntity
  8
0
  6
Continuous
 62
     7
370
     0
100
AcDbMText
 10
134.1666666667
 20
290.6680244036
 30
0.0
 40
1.8520833333
 41
0.0
 71
     1
 72
     1
  1
3
  7
SLDTEXTSTYLE0
 73
     1
 44
1.0
  0
MTEXT
  5
9D
330
1F
100
AcDbEntity
  8
0
  6
Continuous
 62
     7
370
     0
100
AcDbMText
 10
84.1666666667
 20
290.6680244036
 30
0.0
 40
1.8520833333
 41
0.0
 71
     1
 72
     1
  1
2
  7
SLDTEXTSTYLE0
 73
     1
 44
1.0
  0
MTEXT
  5
9E
330
1F
100
AcDbEntity
  8
0
  6
Continuous
 62
     7
370
     0
100
AcDbMText
 10
34.5833333333
 20
290.6680244036
 30
0.0
 40
1.8520833333
 41
0.0
 71
     1
 72
     1
  1
1
  7
SLDTEXTSTYLE0
 73
     1
 44
1.0
  0
MTEXT
  5
9F
330
1F
100
AcDbEntity
  8
0
  6
Continuous
 62
     7
370
     0
100
AcDbMText
 10
234.1666666667
 20
290.6680244036
 30
0.0
 40
1.8520833333
 41
0.0
 71
     1
 72
     1
  1
5
  7
SLDTEXTSTYLE0
 73
     1
 44
1.0
  0
MTEXT
  5
A0
330
1F
100
AcDbEntity
  8
0
  6
Continuous
 62
     7
370
     0
100
AcDbMText
 10
411.6666666667
 20
174.6680204036
 30
0.0
 40
1.8520833333
 41
0.0
 71
     1
 72
     1
  1
C
  7
SLDTEXTSTYLE0
 73
     1
 44
1.0
  0
MTEXT
  5
A1
330
1F
100
AcDbEntity
  8
0
  6
Continuous
 62
     7
370
     0
100
AcDbMText
 10
411.6666666667
 20
124.6680204036
 30
0.0
 40
1.8520833333
 41
0.0
 71
     1
 72
     1
  1
D
  7
SLDTEXTSTYLE0
 73
     1
 44
1.0
  0
MTEXT
  5
A2
330
1F
100
AcDbEntity
  8
0
  6
Continuous
 62
     7
370
     0
100
AcDbMText
 10
184.1666666667
 20
290.6680244036
 30
0.0
 40
1.8520833333
 41
0.0
 71
     1
 72
     1
  1
4
  7
SLDTEXTSTYLE0
 73
     1
 44
1.0
  0
MTEXT
  5
A3
330
1F
100
AcDbEntity
  8
0
  6
Continuous
 62
     7
370
     0
100
AcDbMText
 10
284.1666666667
 20
290.6680244036
 30
0.0
 40
1.8520833333
 41
0.0
 71
     1
 72
     1
  1
6
  7
SLDTEXTSTYLE0
 73
     1
 44
1.0
  0
MTEXT
  5
A4
330
1F
100
AcDbEntity
  8
0
  6
Continuous
 62
     7
370
     0
100
AcDbMText
 10
334.1666666667
 20
290.6680244036
 30
0.0
 40
1.8520833333
 41
0.0
 71
     1
 72
     1
  1
7
  7
SLDTEXTSTYLE0
 73
     1
 44
1.0
  0
MTEXT
  5
A5
330
1F
100
AcDbEntity
  8
0
  6
Continuous
 62
     7
370
     0
100
AcDbMText
 10
384.1666666667
 20
290.6680244036
 30
0.0
 40
1.8520833333
 41
0.0
 71
     1
 72
     1
  1
8
  7
SLDTEXTSTYLE0
 73
     1
 44
1.0
  0
MTEXT
  5
A6
330
1F
100
AcDbEntity
  8
0
  6
Continuous
 62
     7
370
     0
100
AcDbMText
 10
411.6666666667
 20
274.6680204036
 30
0.0
 40
1.8520833333
 41
0.0
 71
     1
 72
     1
  1
A
  7
SLDTEXTSTYLE0
 73
     1
 44
1.0
  0
MTEXT
  5
A7
330
1F
100
AcDbEntity
  8
0
  6
Continuous
 62
     7
370
     0
100
AcDbMText
 10
411.6666666667
 20
224.6680204036
 30
0.0
 40
1.8520833333
 41
0.0
 71
     1
 72
     1
  1
B
  7
SLDTEXTSTYLE0
 73
     1
 44
1.0
  0
MTEXT
  5
A9
330
1F
100
AcDbEntity
  8
0
  6
Continuous
 62
     7
370
     0
100
AcDbMText
 10
372.2782944278
 20
7.9000872745
 30
0.0
 40
1.5
 41
0.0
 71
     1
 72
     1
  1
BLATT 1 VON 1
  7
SLDTEXTSTYLE1
 73
     1
 44
1.0
  0
LINE
  5
AA
330
1F
100
AcDbEntity
  8
0
  6
Continuous
 62
     7
370
    15
100
AcDbLine
 10
50.0530140665
 20
37.0835324127
 30
0.0
 11
50.665814198
 21
34.7965311872
 31
0.0
  0
LINE
  5
AB
330
1F
100
AcDbEntity
  8
0
  6
Continuous
 62
     7
370
    15
100
AcDbLine
 10
45.2233849351
 20
35.7894371872
 30
0.0
 11
50.0530140665
 21
37.0835324127
 31
0.0
  0
LINE
  5
AC
330
1F
100
AcDbEntity
  8
0
  6
Continuous
 62
     7
370
    15
100
AcDbLine
 10
45.8361850665
 20
33.5024359617
 30
0.0
 11
45.2233849351
 21
35.7894371872
 31
0.0
  0
LINE
  5
AD
330
1F
100
AcDbEntity
  8
0
  6
Continuous
 62
     7
370
    15
100
AcDbLine
 10
50.665814198
 20
34.7965311872
 30
0.0
 11
45.8361850665
 21
33.5024359617
 31
0.0
  0
LINE
  5
AE
330
1F
100
AcDbEntity
  8
0
  6
Continuous
 62
     7
370
    15
100
AcDbLine
 10
30.7344975407
 20
31.9071515107
 30
0.0
 11
31.3472976722
 21
29.6201502852
 31
0.0
  0
LINE
  5
AF
330
1F
100
AcDbEntity
  8
0
  6
Continuous
 62
     7
370
    15
100
AcDbLine
 10
25.9048684093
 20
30.6130562852
 30
0.0
 11
30.7344975407
 21
31.9071515107
 31
0.0
  0
LINE
  5
B0
330
1F
100
AcDbEntity
  8
0
  6
Continuous
 62
     7
370
    15
100
AcDbLine
 10
26.5176685407
 20
28.3260550597
 30
0.0
 11
25.9048684093
 21
30.6130562852
 31
0.0
  0
LINE
  5
B1
330
1F
100
AcDbEntity
  8
0
  6
Continuous
 62
     7
370
    15
100
AcDbLine
 10
12.594608821
 20
128.583912645
 30
0.0
 11
67.3496563206
 21
28.9141914065
 31
0.0
  0
LINE
  5
B2
330
1F
100
AcDbEntity
  8
0
  6
Continuous
 62
     7
370
    15
100
AcDbLine
 10
67.3496563206
 20
28.9141914065
 30
0.0
 11
15.0102073202
 21
14.8898783146
 31
0.0
  0
LINE
  5
B3
330
1F
100
AcDbEntity
  8
0
  6
Continuous
 62
     7
370
    15
100
AcDbLine
 10
15.0102073202
 20
14.8898783146
 30
0.0
 11
12.594608821
 21
128.583912645
 31
0.0
  0
LINE
  5
B4
330
1F
100
AcDbEntity
  8
0
  6
Continuous
 62
     7
370
    15
100
AcDbLine
 10
40.3937558036
 20
34.4953419617
 30
0.0
 11
41.0065559351
 21
32.2083407362
 31
0.0
  0
LINE
  5
B5
330
1F
100
AcDbEntity
  8
0
  6
Continuous
 62
     7
370
    15
100
AcDbLine
 10
35.5641266722
 20
33.2012467362
 30
0.0
 11
40.3937558036
 21
34.4953419617
 31
0.0
  0
LINE
  5
B6
330
1F
100
AcDbEntity
  8
0
  6
Continuous
 62
     7
370
    15
100
AcDbLine
 10
36.1769268036
 20
30.9142455107
 30
0.0
 11
35.5641266722
 21
33.2012467362
 31
0.0
  0
LINE
  5
B7
330
1F
100
AcDbEntity
  8
0
  6
Continuous
 62
     7
370
    15
100
AcDbLine
 10
41.0065559351
 20
32.2083407362
 30
0.0
 11
36.1769268036
 21
30.9142455107
 31
0.0
  0
LINE
  5
B8
330
1F
100
AcDbEntity
  8
0
  6
Continuous
 62
     7
370
    15
100
AcDbLine
 10
31.3472976722
 20
29.6201502852
 30
0.0
 11
26.5176685407
 21
28.3260550597
 31
0.0
  0
LINE
  5
B9
330
1F
100
AcDbEntity
  8
0
  6
Continuous
 62
     7
370
    15
100
AcDbLine
 10
127.6286285167
 20
74.1351814474
 30
0.0
 11
127.6286285167
 21
76.1351814474
 31
0.0
  0
LINE
  5
BA
330
1F
100
AcDbEntity
  8
0
  6
Continuous
 62
     7
370
    15
100
AcDbLine
 10
127.6286285167
 20
76.1351814474
 30
0.0
 11
115.6286285167
 21
76.1351814474
 31
0.0
  0
LINE
  5
BB
330
1F
100
AcDbEntity
  8
0
  6
Continuous
 62
     7
370
    15
100
AcDbLine
 10
115.6286285167
 20
76.1351814474
 30
0.0
 11
115.6286285167
 21
74.1351814474
 31
0.0
  0
LINE
  5
BC
330
1F
100
AcDbEntity
  8
0
  6
Continuous
 62
     7
370
    15
100
AcDbLine
 10
103.6286285167
 20
74.1351814474
 30
0.0
 11
103.6286285167
 21
76.1351814474
 31
0.0
  0
LINE
  5
BD
330
1F
100
AcDbEntity
  8
0
  6
Continuous
 62
     7
370
    15
100
AcDbLine
 10
103.6286285167
 20
76.1351814474
 30
0.0
 11
91.6286285167
 21
76.1351814474
 31
0.0
  0
LINE
  5
BE
330
1F
100
AcDbEntity
  8
0
  6
Continuous
 62
     7
370
    15
100
AcDbLine
 10
91.6286285167
 20
76.1351814474
 30
0.0
 11
91.6286285167
 21
74.1351814474
 31
0.0
  0
LINE
  5
BF
330
1F
100
AcDbEntity
  8
0
  6
Continuous
 62
     7
370
    15
100
AcDbLine
 10
91.6286285167
 20
74.1351814474
 30
0.0
 11
103.6286285167
 21
74.1351814474
 31
0.0
  0
LINE
  5
C0
330
1F
100
AcDbEntity
  8
0
  6
Continuous
 62
     7
370
    15
100
AcDbLine
 10
115.6286285167
 20
74.1351814474
 30
0.0
 11
127.6286285167
 21
74.1351814474
 31
0.0
  0
LINE
  5
C1
330
1F
100
AcDbEntity
  8
0
  6
Continuous
 62
     7
370
    15
100
AcDbLine
 10
92.8286285167
 20
70.1351814474
 30
0.0
 11
127.6286285167
 21
70.1351814474
 31
0.0
  0
ARC
  5
C2
330
1F
100
AcDbEntity
  8
0
  6
Continuous
 62
     7
370
    15
100
AcDbCircle
 10
127.6286285167
 20
75.1351814474
 30
0.0
 40
5.0
100
AcDbArc
 50
270.0
 51
90.0
  0
LINE
  5
C3
330
1F
100
AcDbEntity
  8
0
  6
Continuous
 62
     7
370
    15
100
AcDbLine
 10
127.6286285167
 20
80.1351814474
 30
0.0
 11
92.8286285167
 21
80.1351814474
 31
0.0
  0
LWPOLYLINE
  5
C4
330
1F
100
AcDbEntity
  8
0
  6
Continuous
 62
     7
370
    15
100
AcDbPolyline
 90
       15
 70
   128
 43
0.0
 10
92.8286285167
 20
80.1351814474
 10
91.0374748361
 20
80.2036471418
 10
89.3195590722
 20
80.4030870029
 10
87.6906091417
 20
80.7245651974
 10
86.1663529611
 20
81.1591458918
 10
84.7625184472
 20
81.6978932529
 10
83.4948335167
 20
82.3318714474
 10
82.6428793077
 20
82.8644748653
 10
81.8829914073
 20
83.4418494161
 10
81.2218050303
 20
84.060225295
 10
80.6659553917
 20
84.7158326974
 10
80.2220777061
 20
85.4049018184
 10
79.8968071885
 20
86.1236628536
 10
79.6967790538
 20
86.8683459981
 10
79.6286285167
 20
87.6351814474
  0
ARC
  5
C5
330
1F
100
AcDbEntity
  8
0
  6
Continuous
 62
     7
370
    15
100
AcDbCircle
 10
76.4887025753
 20
87.6351814474
 30
0.0
 40
3.139925941327448
100
AcDbArc
 50
0.0
 51
104.6709400055
  0
LINE
  5
C6
330
1F
100
AcDbEntity
  8
0
  6
Continuous
 62
     7
370
    15
100
AcDbLine
 10
75.6934619442
 20
90.6727342873
 30
0.0
 11
79.6286285167
 21
75.6417160893
 31
0.0
  0
LINE
  5
C7
330
1F
100
AcDbEntity
  8
0
  6
Continuous
 62
     7
370
    15
100
AcDbLine
 10
79.6286285167
 20
75.6417160893
 30
0.0
 11
79.6286285167
 21
74.6286468054
 31
0.0
  0
LINE
  5
C8
330
1F
100
AcDbEntity
  8
0
  6
Continuous
 62
     7
370
    15
100
AcDbLine
 10
79.6286285167
 20
74.6286468054
 30
0.0
 11
75.6934619442
 21
59.5976286074
 31
0.0
  0
ARC
  5
C9
330
1F
100
AcDbEntity
  8
0
  6
Continuous
 62
     7
370
    15
100
AcDbCircle
 10
76.4887025753
 20
62.6351814474
 30
0.0
 40
3.139925941327453
100
AcDbArc
 50
255.3290599945
 51
0.0
  0
LWPOLYLINE
  5
CA
330
1F
100
AcDbEntity
  8
0
  6
Continuous
 62
     7
370
    15
100
AcDbPolyline
 90
       15
 70
   128
 43
0.0
 10
79.6286285167
 20
62.6351814474
 10
79.6967790538
 20
63.4020168966
 10
79.8968071885
 20
64.1467000411
 10
80.2220777061
 20
64.8654610763
 10
80.6659553917
 20
65.5545301974
 10
81.2218050303
 20
66.2101375997
 10
81.8829914073
 20
66.8285134786
 10
82.6428793077
 20
67.4058880294
 10
83.4948335167
 20
67.9384914474
 10
84.7625184472
 20
68.5724696418
 10
86.1663529611
 20
69.1112170029
 10
87.6906091417
 20
69.5457976974
 10
89.3195590722
 20
69.8672758918
 10
91.0374748361
 20
70.0667157529
 10
92.8286285167
 20
70.1351814474
  0
LWPOLYLINE
  5
CB
330
1F
100
AcDbEntity
  8
0
  6
Continuous
 62
     7
370
    15
100
AcDbPolyline
 90
       20
 70
   128
 43
0.0
 10
81.3612686113
 20
42.5369711326
 10
82.0672184647
 20
43.5113522158
 10
82.8910224381
 20
44.4200599315
 10
83.8224742177
 20
45.2655002502
 10
84.8513674902
 20
46.0500791429
 10
85.967495942
 20
46.7762025802
 10
87.1606532595
 20
47.446276533
 10
88.4206331292
 20
48.0627069719
 10
90.2434660276
 20
48.8271285869
 10
92.1468065739
 20
49.5009338061
 10
94.1041223397
 20
50.0903772138
 10
96.0888808967
 20
50.6017133939
 10
97.8625567658
 20
50.9973574779
 10
99.618073112
 20
51.3401729641
 10
101.3365446771
 20
51.6346117417
 10
102.9990862024
 20
51.8851257002
 10
104.5868124296
 20
52.0961667291
 10
106.0808381003
 20
52.2721867179
 10
107.462277956
 20
52.4176375559
 10
108.7122467382
 20
52.5369711326
  0
LINE
  5
CC
330
1F
100
AcDbEntity
  8
0
  6
Continuous
 62
     7
370
    15
100
AcDbLine
 10
108.7122467382
 20
52.5369711326
 30
0.0
 11
81.3612686113
 21
52.5369711326
 31
0.0
  0
LINE
  5
CD
330
1F
100
AcDbEntity
  8
0
  6
Continuous
 62
     7
370
    15
100
AcDbLine
 10
81.3612686113
 20
52.5369711326
 30
0.0
 11
81.3612686113
 21
42.5369711326
 31
0.0
  0
LINE
  5
CE
330
1F
100
AcDbEntity
  8
0
  6
Continuous
 62
     7
370
    15
100
AcDbLine
 10
88.3612686113
 20
58.5369711326
 30
0.0
 11
88.3612686113
 21
56.5369711326
 31
0.0
  0
LINE
  5
CF
330
1F
100
AcDbEntity
  8
0
  6
Continuous
 62
     7
370
    15
100
AcDbLine
 10
100.3612686113
 20
58.5369711326
 30
0.0
 11
88.3612686113
 21
58.5369711326
 31
0.0
  0
LINE
  5
D0
330
1F
100
AcDbEntity
  8
0
  6
Continuous
 62
     7
370
    15
100
AcDbLine
 10
100.3612686113
 20
56.5369711326
 30
0.0
 11
100.3612686113
 21
58.5369711326
 31
0.0
  0
LINE
  5
D1
330
1F
100
AcDbEntity
  8
0
  6
Continuous
 62
     7
370
    15
100
AcDbLine
 10
112.3612686113
 20
56.5369711326
 30
0.0
 11
100.3612686113
 21
56.5369711326
 31
0.0
  0
LINE
  5
D2
330
1F
100
AcDbEntity
  8
0
  6
Continuous
 62
     7
370
    15
100
AcDbLine
 10
112.3612686113
 20
58.5369711326
 30
0.0
 11
112.3612686113
 21
56.5369711326
 31
0.0
  0
LINE
  5
D3
330
1F
100
AcDbEntity
  8
0
  6
Continuous
 62
     7
370
    15
100
AcDbLine
 10
124.3612686113
 20
58.5369711326
 30
0.0
 11
112.3612686113
 21
58.5369711326
 31
0.0
  0
LINE
  5
D4
330
1F
100
AcDbEntity
  8
0
  6
Continuous
 62
     7
370
    15
100
AcDbLine
 10
124.3612686113
 20
56.5369711326
 30
0.0
 11
124.3612686113
 21
58.5369711326
 31
0.0
  0
LINE
  5
D5
330
1F
100
AcDbEntity
  8
0
  6
Continuous
 62
     7
370
    15
100
AcDbLine
 10
129.3612686113
 20
56.5369711326
 30
0.0
 11
124.3612686113
 21
56.5369711326
 31
0.0
  0
ARC
  5
D6
330
1F
100
AcDbEntity
  8
0
  6
Continuous
 62
     7
370
    15
100
AcDbCircle
 10
129.3612686113
 20
54.5369711326
 30
0.0
 40
2.0
100
AcDbArc
 50
275.9022343425
 51
90.0
  0
LWPOLYLINE
  5
D7
330
1F
100
AcDbEntity
  8
0
  6
Continuous
 62
     7
370
    15
100
AcDbPolyline
 90
       28
 70
   128
 43
0.0
 10
81.3347626503
 20
35.0511277664
 10
81.3333379118
 20
35.6947539524
 10
81.4595524596
 20
36.3431243928
 10
81.7103757847
 20
36.9951397443
 10
82.0827773776
 20
37.6497006637
 10
82.5737267293
 20
38.3057078078
 10
83.1801933304
 20
38.9620618334
 10
83.8991466717
 20
39.6176633973
 10
84.727556244
 20
40.2714131563
 10
85.8044505452
 20
41.0148779855
 10
87.0158261951
 20
41.7528472517
 10
88.3571595181
 20
42.4836799527
 10
89.8239268387
 20
43.2057350866
 10
91.4116044812
 20
43.917371651
 10
93.1156687702
 20
44.616948644
 10
94.9315960298
 20
45.3028250634
 10
97.0926529516
 20
46.0527152065
 10
99.3820008468
 20
46.7810553872
 10
101.7932842768
 20
47.4855401156
 10
104.3201478032
 20
48.1638639019
 10
106.9562359874
 20
48.8137212563
 10
109.6951933911
 20
49.4328066889
 10
112.5306645755
 20
50.01881471
 10
115.7535710795
 20
50.6224675206
 10
119.077110089
 20
51.1802384136
 10
122.4928225155
 20
51.689058782
 10
125.9922492704
 20
52.1458600188
 10
129.5669312649
 20
52.547573517
  0
ARC
  5
D8
330
1F
100
AcDbEntity
  8
0
  6
Continuous
 62
     7
370
    15
100
AcDbCircle
 10
76.3612686113
 20
34.5369711326
 30
0.0
 40
4.999999999999996
100
AcDbArc
 50
270.0
 51
5.9022343425
  0
LINE
  5
D9
330
1F
100
AcDbEntity
  8
0
  6
Continuous
 62
     7
370
    15
100
AcDbLine
 10
76.3612686113
 20
31.5369711326
 30
0.0
 11
76.3612686113
 21
29.5369711326
 31
0.0
  0
LINE
  5
DA
330
1F
100
AcDbEntity
  8
0
  6
Continuous
 62
     7
370
    15
100
AcDbLine
 10
74.3612686113
 20
31.5369711326
 30
0.0
 11
76.3612686113
 21
31.5369711326
 31
0.0
  0
LINE
  5
DB
330
1F
100
AcDbEntity
  8
0
  6
Continuous
 62
     7
370
    15
100
AcDbLine
 10
74.3612686113
 20
36.5369711326
 30
0.0
 11
74.3612686113
 21
31.5369711326
 31
0.0
  0
LINE
  5
DC
330
1F
100
AcDbEntity
  8
0
  6
Continuous
 62
     7
370
    15
100
AcDbLine
 10
76.3612686113
 20
36.5369711326
 30
0.0
 11
74.3612686113
 21
36.5369711326
 31
0.0
  0
LINE
  5
DD
330
1F
100
AcDbEntity
  8
0
  6
Continuous
 62
     7
370
    15
100
AcDbLine
 10
76.3612686113
 20
41.5369711326
 30
0.0
 11
76.3612686113
 21
36.5369711326
 31
0.0
  0
LINE
  5
DE
330
1F
100
AcDbEntity
  8
0
  6
Continuous
 62
     7
370
    15
100
AcDbLine
 10
74.3612686113
 20
41.5369711326
 30
0.0
 11
76.3612686113
 21
41.5369711326
 31
0.0
  0
LINE
  5
DF
330
1F
100
AcDbEntity
  8
0
  6
Continuous
 62
     7
370
    15
100
AcDbLine
 10
74.3612686113
 20
46.5369711326
 30
0.0
 11
74.3612686113
 21
41.5369711326
 31
0.0
  0
LINE
  5
E0
330
1F
100
AcDbEntity
  8
0
  6
Continuous
 62
     7
370
    15
100
AcDbLine
 10
76.3612686113
 20
46.5369711326
 30
0.0
 11
74.3612686113
 21
46.5369711326
 31
0.0
  0
LINE
  5
E1
330
1F
100
AcDbEntity
  8
0
  6
Continuous
 62
     7
370
    15
100
AcDbLine
 10
76.3612686113
 20
51.5369711326
 30
0.0
 11
76.3612686113
 21
46.5369711326
 31
0.0
  0
LINE
  5
E2
330
1F
100
AcDbEntity
  8
0
  6
Continuous
 62
     7
370
    15
100
AcDbLine
 10
74.3612686113
 20
51.5369711326
 30
0.0
 11
76.3612686113
 21
51.5369711326
 31
0.0
  0
LINE
  5
E3
330
1F
100
AcDbEntity
  8
0
  6
Continuous
 62
     7
370
    15
100
AcDbLine
 10
74.3612686113
 20
56.5369711326
 30
0.0
 11
74.3612686113
 21
51.5369711326
 31
0.0
  0
LINE
  5
E4
330
1F
100
AcDbEntity
  8
0
  6
Continuous
 62
     7
370
    15
100
AcDbLine
 10
88.3612686113
 20
56.5369711326
 30
0.0
 11
74.3612686113
 21
56.5369711326
 31
0.0
  0
LINE
  5
E5
330
1F
100
AcDbEntity
  8
0
  6
Continuous
 62
     7
370
    15
100
AcDbLine
 10
71.050693852
 20
128.4009287067
 30
0.0
 11
66.7205668331
 21
130.9009287067
 31
0.0
  0
LINE
  5
E6
330
1F
100
AcDbEntity
  8
0
  6
Continuous
 62
     7
370
    15
100
AcDbLine
 10
72.235254118
 20
130.4526472721
 30
0.0
 11
71.050693852
 21
128.4009287067
 31
0.0
  0
LINE
  5
E7
330
1F
100
AcDbEntity
  8
0
  6
Continuous
 62
     7
370
    15
100
AcDbLine
 10
67.9051270991
 20
132.9526472721
 30
0.0
 11
72.235254118
 21
130.4526472721
 31
0.0
  0
LINE
  5
E8
330
1F
100
AcDbEntity
  8
0
  6
Continuous
 62
     7
370
    15
100
AcDbLine
 10
66.7205668331
 20
130.9009287067
 30
0.0
 11
67.9051270991
 21
132.9526472721
 31
0.0
  0
LINE
  5
E9
330
1F
100
AcDbEntity
  8
0
  6
Continuous
 62
     7
370
    15
100
AcDbLine
 10
79.7109478899
 20
123.4009287067
 30
0.0
 11
75.3808208709
 21
125.9009287067
 31
0.0
  0
LINE
  5
EA
330
1F
100
AcDbEntity
  8
0
  6
Continuous
 62
     7
370
    15
100
AcDbLine
 10
80.8955081559
 20
125.4526472721
 30
0.0
 11
79.7109478899
 21
123.4009287067
 31
0.0
  0
LINE
  5
EB
330
1F
100
AcDbEntity
  8
0
  6
Continuous
 62
     7
370
    15
100
AcDbLine
 10
76.565381137
 20
127.9526472721
 30
0.0
 11
80.8955081559
 21
125.4526472721
 31
0.0
  0
LINE
  5
EC
330
1F
100
AcDbEntity
  8
0
  6
Continuous
 62
     7
370
    15
100
AcDbLine
 10
75.3808208709
 20
125.9009287067
 30
0.0
 11
76.565381137
 21
127.9526472721
 31
0.0
  0
LINE
  5
ED
330
1F
100
AcDbEntity
  8
0
  6
Continuous
 62
     7
370
    15
100
AcDbLine
 10
63.5750000802
 20
135.4526472721
 30
0.0
 11
62.3904398142
 21
133.4009287067
 31
0.0
  0
LINE
  5
EE
330
1F
100
AcDbEntity
  8
0
  6
Continuous
 62
     7
370
    15
100
AcDbLine
 10
59.2448730613
 20
137.9526472721
 30
0.0
 11
63.5750000802
 21
135.4526472721
 31
0.0
  0
LINE
  5
EF
330
1F
100
AcDbEntity
  8
0
  6
Continuous
 62
     7
370
    15
100
AcDbLine
 10
58.0603127952
 20
135.9009287067
 30
0.0
 11
59.2448730613
 21
137.9526472721
 31
0.0
  0
LINE
  5
F0
330
1F
100
AcDbEntity
  8
0
  6
Continuous
 62
     7
370
    15
100
AcDbLine
 10
62.3904398142
 20
133.4009287067
 30
0.0
 11
58.0603127952
 21
135.9009287067
 31
0.0
  0
LINE
  5
F1
330
1F
100
AcDbEntity
  8
0
  6
Continuous
 62
     7
370
    15
100
AcDbLine
 10
43.7975039173
 20
153.8239916225
 30
0.0
 11
41.2975039173
 21
158.1541186414
 31
0.0
  0
LINE
  5
F2
330
1F
100
AcDbEntity
  8
0
  6
Continuous
 62
     7
370
    15
100
AcDbLine
 10
45.8492224827
 20
155.0085518885
 30
0.0
 11
43.7975039173
 21
153.8239916225
 31
0.0
  0
LINE
  5
F3
330
1F
100
AcDbEntity
  8
0
  6
Continuous
 62
     7
370
    15
100
AcDbLine
 10
43.3492224827
 20
159.3386789075
 30
0.0
 11
45.8492224827
 21
155.0085518885
 31
0.0
  0
LINE
  5
F4
330
1F
100
AcDbEntity
  8
0
  6
Continuous
 62
     7
370
    15
100
AcDbLine
 10
41.2975039173
 20
158.1541186414
 30
0.0
 11
43.3492224827
 21
159.3386789075
 31
0.0
  0
LINE
  5
F5
330
1F
100
AcDbEntity
  8
0
  6
Continuous
 62
     7
370
    15
100
AcDbLine
 10
48.7975039173
 20
145.1637375847
 30
0.0
 11
46.2975039173
 21
149.4938646036
 31
0.0
  0
LINE
  5
F6
330
1F
100
AcDbEntity
  8
0
  6
Continuous
 62
     7
370
    15
100
AcDbLine
 10
50.8492224827
 20
146.3482978507
 30
0.0
 11
48.7975039173
 21
145.1637375847
 31
0.0
  0
LINE
  5
F7
330
1F
100
AcDbEntity
  8
0
  6
Continuous
 62
     7
370
    15
100
AcDbLine
 10
48.3492224827
 20
150.6784248696
 30
0.0
 11
50.8492224827
 21
146.3482978507
 31
0.0
  0
LINE
  5
F8
330
1F
100
AcDbEntity
  8
0
  6
Continuous
 62
     7
370
    15
100
AcDbLine
 10
46.2975039173
 20
149.4938646036
 30
0.0
 11
48.3492224827
 21
150.6784248696
 31
0.0
  0
LINE
  5
F9
330
1F
100
AcDbEntity
  8
0
  6
Continuous
 62
     7
370
    15
100
AcDbLine
 10
40.8492224827
 20
163.6688059264
 30
0.0
 11
38.7975039173
 21
162.4842456603
 31
0.0
  0
LINE
  5
FA
330
1F
100
AcDbEntity
  8
0
  6
Continuous
 62
     7
370
    15
100
AcDbLine
 10
38.3492224827
 20
167.9989329453
 30
0.0
 11
40.8492224827
 21
163.6688059264
 31
0.0
  0
LINE
  5
FB
330
1F
100
AcDbEntity
  8
0
  6
Continuous
 62
     7
370
    15
100
AcDbLine
 10
36.2975039173
 20
166.8143726793
 30
0.0
 11
38.3492224827
 21
167.9989329453
 31
0.0
  0
LINE
  5
FC
330
1F
100
AcDbEntity
  8
0
  6
Continuous
 62
     7
370
    15
100
AcDbLine
 10
38.7975039173
 20
162.4842456603
 30
0.0
 11
36.2975039173
 21
166.8143726793
 31
0.0
  0
LINE
  5
FD
330
1F
100
AcDbEntity
  8
0
  6
Continuous
 62
     7
370
    15
100
AcDbLine
 10
32.9070805576
 20
189.4676049169
 30
0.0
 11
32.9070805576
 21
194.4676049169
 31
0.0
  0
LINE
  5
FE
330
1F
100
AcDbEntity
  8
0
  6
Continuous
 62
     7
370
    15
100
AcDbLine
 10
35.2762010896
 20
189.4676049169
 30
0.0
 11
32.9070805576
 21
189.4676049169
 31
0.0
  0
LINE
  5
FF
330
1F
100
AcDbEntity
  8
0
  6
Continuous
 62
     7
370
    15
100
AcDbLine
 10
35.2762010896
 20
194.4676049169
 30
0.0
 11
35.2762010896
 21
189.4676049169
 31
0.0
  0
LINE
  5
100
330
1F
100
AcDbEntity
  8
0
  6
Continuous
 62
     7
370
    15
100
AcDbLine
 10
32.9070805576
 20
194.4676049169
 30
0.0
 11
35.2762010896
 21
194.4676049169
 31
0.0
  0
LINE
  5
101
330
1F
100
AcDbEntity
  8
0
  6
Continuous
 62
     7
370
    15
100
AcDbLine
 10
32.9070805576
 20
179.4676049169
 30
0.0
 11
32.9070805576
 21
184.4676049169
 31
0.0
  0
LINE
  5
102
330
1F
100
AcDbEntity
  8
0
  6
Continuous
 62
     7
370
    15
100
AcDbLine
 10
35.2762010896
 20
179.4676049169
 30
0.0
 11
32.9070805576
 21
179.4676049169
 31
0.0
  0
LINE
  5
103
330
1F
100
AcDbEntity
  8
0
  6
Continuous
 62
     7
370
    15
100
AcDbLine
 10
35.2762010896
 20
184.4676049169
 30
0.0
 11
35.2762010896
 21
179.4676049169
 31
0.0
  0
LINE
  5
104
330
1F
100
AcDbEntity
  8
0
  6
Continuous
 62
     7
370
    15
100
AcDbLine
 10
32.9070805576
 20
184.4676049169
 30
0.0
 11
35.2762010896
 21
184.4676049169
 31
0.0
  0
LINE
  5
105
330
1F
100
AcDbEntity
  8
0
  6
Continuous
 62
     7
370
    15
100
AcDbLine
 10
35.2762010896
 20
199.4676049169
 30
0.0
 11
32.9070805576
 21
199.4676049169
 31
0.0
  0
LINE
  5
106
330
1F
100
AcDbEntity
  8
0
  6
Continuous
 62
     7
370
    15
100
AcDbLine
 10
35.2762010896
 20
204.4676049169
 30
0.0
 11
35.2762010896
 21
199.4676049169
 31
0.0
  0
LINE
  5
107
330
1F
100
AcDbEntity
  8
0
  6
Continuous
 62
     7
370
    15
100
AcDbLine
 10
32.9070805576
 20
204.4676049169
 30
0.0
 11
35.2762010896
 21
204.4676049169
 31
0.0
  0
LINE
  5
108
330
1F
100
AcDbEntity
  8
0
  6
Continuous
 62
     7
370
    15
100
AcDbLine
 10
32.9070805576
 20
199.4676049169
 30
0.0
 11
32.9070805576
 21
204.4676049169
 31
0.0
  0
LINE
  5
109
330
1F
100
AcDbEntity
  8
0
  6
Continuous
 62
     7
370
    15
100
AcDbLine
 10
41.2975039173
 20
225.7810911925
 30
0.0
 11
43.7975039173
 21
230.1112182114
 31
0.0
  0
LINE
  5
10A
330
1F
100
AcDbEntity
  8
0
  6
Continuous
 62
     7
370
    15
100
AcDbLine
 10
43.3492224827
 20
224.5965309264
 30
0.0
 11
41.2975039173
 21
225.7810911925
 31
0.0
  0
LINE
  5
10B
330
1F
100
AcDbEntity
  8
0
  6
Continuous
 62
     7
370
    15
100
AcDbLine
 10
45.8492224827
 20
228.9266579454
 30
0.0
 11
43.3492224827
 21
224.5965309264
 31
0.0
  0
LINE
  5
10C
330
1F
100
AcDbEntity
  8
0
  6
Continuous
 62
     7
370
    15
100
AcDbLine
 10
43.7975039173
 20
230.1112182114
 30
0.0
 11
45.8492224827
 21
228.9266579454
 31
0.0
  0
LINE
  5
10D
330
1F
100
AcDbEntity
  8
0
  6
Continuous
 62
     7
370
    15
100
AcDbLine
 10
36.2975039173
 20
217.1208371546
 30
0.0
 11
38.7975039173
 21
221.4509641736
 31
0.0
  0
LINE
  5
10E
330
1F
100
AcDbEntity
  8
0
  6
Continuous
 62
     7
370
    15
100
AcDbLine
 10
38.3492224827
 20
215.9362768886
 30
0.0
 11
36.2975039173
 21
217.1208371546
 31
0.0
  0
LINE
  5
10F
330
1F
100
AcDbEntity
  8
0
  6
Continuous
 62
     7
370
    15
100
AcDbLine
 10
40.8492224827
 20
220.2664039075
 30
0.0
 11
38.3492224827
 21
215.9362768886
 31
0.0
  0
LINE
  5
110
330
1F
100
AcDbEntity
  8
0
  6
Continuous
 62
     7
370
    15
100
AcDbLine
 10
38.7975039173
 20
221.4509641736
 30
0.0
 11
40.8492224827
 21
220.2664039075
 31
0.0
  0
LINE
  5
111
330
1F
100
AcDbEntity
  8
0
  6
Continuous
 62
     7
370
    15
100
AcDbLine
 10
48.3492224827
 20
233.2567849643
 30
0.0
 11
46.2975039173
 21
234.4413452303
 31
0.0
  0
LINE
  5
112
330
1F
100
AcDbEntity
  8
0
  6
Continuous
 62
     7
370
    15
100
AcDbLine
 10
50.8492224827
 20
237.5869119832
 30
0.0
 11
48.3492224827
 21
233.2567849643
 31
0.0
  0
LINE
  5
113
330
1F
100
AcDbEntity
  8
0
  6
Continuous
 62
     7
370
    15
100
AcDbLine
 10
48.7975039173
 20
238.7714722492
 30
0.0
 11
50.8492224827
 21
237.5869119832
 31
0.0
  0
LINE
  5
114
330
1F
100
AcDbEntity
  8
0
  6
Continuous
 62
     7
370
    15
100
AcDbLine
 10
46.2975039173
 20
234.4413452303
 30
0.0
 11
48.7975039173
 21
238.7714722492
 31
0.0
  0
LINE
  5
115
330
1F
100
AcDbEntity
  8
0
  6
Continuous
 62
     7
370
    15
100
AcDbLine
 10
66.7205668331
 20
253.0342811272
 30
0.0
 11
71.050693852
 21
255.5342811272
 31
0.0
  0
LINE
  5
116
330
1F
100
AcDbEntity
  8
0
  6
Continuous
 62
     7
370
    15
100
AcDbLine
 10
67.9051270991
 20
250.9825625618
 30
0.0
 11
66.7205668331
 21
253.0342811272
 31
0.0
  0
LINE
  5
117
330
1F
100
AcDbEntity
  8
0
  6
Continuous
 62
     7
370
    15
100
AcDbLine
 10
72.235254118
 20
253.4825625618
 30
0.0
 11
67.9051270991
 21
250.9825625618
 31
0.0
  0
LINE
  5
118
330
1F
100
AcDbEntity
  8
0
  6
Continuous
 62
     7
370
    15
100
AcDbLine
 10
71.050693852
 20
255.5342811272
 30
0.0
 11
72.235254118
 21
253.4825625618
 31
0.0
  0
LINE
  5
119
330
1F
100
AcDbEntity
  8
0
  6
Continuous
 62
     7
370
    15
100
AcDbLine
 10
58.0603127952
 20
248.0342811272
 30
0.0
 11
62.3904398142
 21
250.5342811272
 31
0.0
  0
LINE
  5
11A
330
1F
100
AcDbEntity
  8
0
  6
Continuous
 62
     7
370
    15
100
AcDbLine
 10
59.2448730613
 20
245.9825625618
 30
0.0
 11
58.0603127952
 21
248.0342811272
 31
0.0
  0
LINE
  5
11B
330
1F
100
AcDbEntity
  8
0
  6
Continuous
 62
     7
370
    15
100
AcDbLine
 10
63.5750000802
 20
248.4825625618
 30
0.0
 11
59.2448730613
 21
245.9825625618
 31
0.0
  0
LINE
  5
11C
330
1F
100
AcDbEntity
  8
0
  6
Continuous
 62
     7
370
    15
100
AcDbLine
 10
62.3904398142
 20
250.5342811272
 30
0.0
 11
63.5750000802
 21
248.4825625618
 31
0.0
  0
LINE
  5
11D
330
1F
100
AcDbEntity
  8
0
  6
Continuous
 62
     7
370
    15
100
AcDbLine
 10
76.565381137
 20
255.9825625618
 30
0.0
 11
75.3808208709
 21
258.0342811272
 31
0.0
  0
LINE
  5
11E
330
1F
100
AcDbEntity
  8
0
  6
Continuous
 62
     7
370
    15
100
AcDbLine
 10
80.8955081559
 20
258.4825625618
 30
0.0
 11
76.565381137
 21
255.9825625618
 31
0.0
  0
LINE
  5
11F
330
1F
100
AcDbEntity
  8
0
  6
Continuous
 62
     7
370
    15
100
AcDbLine
 10
79.7109478899
 20
260.5342811272
 30
0.0
 11
80.8955081559
 21
258.4825625618
 31
0.0
  0
LINE
  5
120
330
1F
100
AcDbEntity
  8
0
  6
Continuous
 62
     7
370
    15
100
AcDbLine
 10
75.3808208709
 20
258.0342811272
 30
0.0
 11
79.7109478899
 21
260.5342811272
 31
0.0
  0
LINE
  5
121
330
1F
100
AcDbEntity
  8
0
  6
Continuous
 62
     7
370
    15
100
AcDbLine
 10
102.3641801275
 20
263.9247044869
 30
0.0
 11
107.3641801275
 21
263.9247044869
 31
0.0
  0
LINE
  5
122
330
1F
100
AcDbEntity
  8
0
  6
Continuous
 62
     7
370
    15
100
AcDbLine
 10
102.3641801275
 20
261.5555839549
 30
0.0
 11
102.3641801275
 21
263.9247044869
 31
0.0
  0
LINE
  5
123
330
1F
100
AcDbEntity
  8
0
  6
Continuous
 62
     7
370
    15
100
AcDbLine
 10
107.3641801275
 20
261.5555839549
 30
0.0
 11
102.3641801275
 21
261.5555839549
 31
0.0
  0
LINE
  5
124
330
1F
100
AcDbEntity
  8
0
  6
Continuous
 62
     7
370
    15
100
AcDbLine
 10
107.3641801275
 20
263.9247044869
 30
0.0
 11
107.3641801275
 21
261.5555839549
 31
0.0
  0
LINE
  5
125
330
1F
100
AcDbEntity
  8
0
  6
Continuous
 62
     7
370
    15
100
AcDbLine
 10
92.3641801275
 20
263.9247044869
 30
0.0
 11
97.3641801275
 21
263.9247044869
 31
0.0
  0
LINE
  5
126
330
1F
100
AcDbEntity
  8
0
  6
Continuous
 62
     7
370
    15
100
AcDbLine
 10
92.3641801275
 20
261.5555839549
 30
0.0
 11
92.3641801275
 21
263.9247044869
 31
0.0
  0
LINE
  5
127
330
1F
100
AcDbEntity
  8
0
  6
Continuous
 62
     7
370
    15
100
AcDbLine
 10
97.3641801275
 20
261.5555839549
 30
0.0
 11
92.3641801275
 21
261.5555839549
 31
0.0
  0
LINE
  5
128
330
1F
100
AcDbEntity
  8
0
  6
Continuous
 62
     7
370
    15
100
AcDbLine
 10
97.3641801275
 20
263.9247044869
 30
0.0
 11
97.3641801275
 21
261.5555839549
 31
0.0
  0
LINE
  5
129
330
1F
100
AcDbEntity
  8
0
  6
Continuous
 62
     7
370
    15
100
AcDbLine
 10
112.3641801275
 20
261.5555839549
 30
0.0
 11
112.3641801275
 21
263.9247044869
 31
0.0
  0
LINE
  5
12A
330
1F
100
AcDbEntity
  8
0
  6
Continuous
 62
     7
370
    15
100
AcDbLine
 10
117.3641801275
 20
261.5555839549
 30
0.0
 11
112.3641801275
 21
261.5555839549
 31
0.0
  0
LINE
  5
12B
330
1F
100
AcDbEntity
  8
0
  6
Continuous
 62
     7
370
    15
100
AcDbLine
 10
117.3641801275
 20
263.9247044869
 30
0.0
 11
117.3641801275
 21
261.5555839549
 31
0.0
  0
LINE
  5
12C
330
1F
100
AcDbEntity
  8
0
  6
Continuous
 62
     7
370
    15
100
AcDbLine
 10
112.3641801275
 20
263.9247044869
 30
0.0
 11
117.3641801275
 21
263.9247044869
 31
0.0
  0
LINE
  5
12D
330
1F
100
AcDbEntity
  8
0
  6
Continuous
 62
     7
370
    15
100
AcDbLine
 10
138.6776664031
 20
255.5342811272
 30
0.0
 11
143.007793422
 21
253.0342811272
 31
0.0
  0
LINE
  5
12E
330
1F
100
AcDbEntity
  8
0
  6
Continuous
 62
     7
370
    15
100
AcDbLine
 10
137.493106137
 20
253.4825625618
 30
0.0
 11
138.6776664031
 21
255.5342811272
 31
0.0
  0
LINE
  5
12F
330
1F
100
AcDbEntity
  8
0
  6
Continuous
 62
     7
370
    15
100
AcDbLine
 10
141.8232331559
 20
250.9825625618
 30
0.0
 11
137.493106137
 21
253.4825625618
 31
0.0
  0
LINE
  5
130
330
1F
100
AcDbEntity
  8
0
  6
Continuous
 62
     7
370
    15
100
AcDbLine
 10
143.007793422
 20
253.0342811272
 30
0.0
 11
141.8232331559
 21
250.9825625618
 31
0.0
  0
LINE
  5
131
330
1F
100
AcDbEntity
  8
0
  6
Continuous
 62
     7
370
    15
100
AcDbLine
 10
130.0174123652
 20
260.5342811272
 30
0.0
 11
134.3475393841
 21
258.0342811272
 31
0.0
  0
LINE
  5
132
330
1F
100
AcDbEntity
  8
0
  6
Continuous
 62
     7
370
    15
100
AcDbLine
 10
128.8328520992
 20
258.4825625618
 30
0.0
 11
130.0174123652
 21
260.5342811272
 31
0.0
  0
LINE
  5
133
330
1F
100
AcDbEntity
  8
0
  6
Continuous
 62
     7
370
    15
100
AcDbLine
 10
133.1629791181
 20
255.9825625618
 30
0.0
 11
128.8328520992
 21
258.4825625618
 31
0.0
  0
LINE
  5
134
330
1F
100
AcDbEntity
  8
0
  6
Continuous
 62
     7
370
    15
100
AcDbLine
 10
134.3475393841
 20
258.0342811272
 30
0.0
 11
133.1629791181
 21
255.9825625618
 31
0.0
  0
LINE
  5
135
330
1F
100
AcDbEntity
  8
0
  6
Continuous
 62
     7
370
    15
100
AcDbLine
 10
146.1533601749
 20
248.4825625618
 30
0.0
 11
147.3379204409
 21
250.5342811272
 31
0.0
  0
LINE
  5
136
330
1F
100
AcDbEntity
  8
0
  6
Continuous
 62
     7
370
    15
100
AcDbLine
 10
150.4834871938
 20
245.9825625618
 30
0.0
 11
146.1533601749
 21
248.4825625618
 31
0.0
  0
LINE
  5
137
330
1F
100
AcDbEntity
  8
0
  6
Continuous
 62
     7
370
    15
100
AcDbLine
 10
151.6680474598
 20
248.0342811272
 30
0.0
 11
150.4834871938
 21
245.9825625618
 31
0.0
  0
LINE
  5
138
330
1F
100
AcDbEntity
  8
0
  6
Continuous
 62
     7
370
    15
100
AcDbLine
 10
147.3379204409
 20
250.5342811272
 30
0.0
 11
151.6680474598
 21
248.0342811272
 31
0.0
  0
LINE
  5
139
330
1F
100
AcDbEntity
  8
0
  6
Continuous
 62
     7
370
    15
100
AcDbLine
 10
165.9308563378
 20
230.1112182114
 30
0.0
 11
168.4308563378
 21
225.7810911925
 31
0.0
  0
LINE
  5
13A
330
1F
100
AcDbEntity
  8
0
  6
Continuous
 62
     7
370
    15
100
AcDbLine
 10
163.8791377724
 20
228.9266579454
 30
0.0
 11
165.9308563378
 21
230.1112182114
 31
0.0
  0
LINE
  5
13B
330
1F
100
AcDbEntity
  8
0
  6
Continuous
 62
     7
370
    15
100
AcDbLine
 10
166.3791377724
 20
224.5965309264
 30
0.0
 11
163.8791377724
 21
228.9266579454
 31
0.0
  0
LINE
  5
13C
330
1F
100
AcDbEntity
  8
0
  6
Continuous
 62
     7
370
    15
100
AcDbLine
 10
168.4308563378
 20
225.7810911925
 30
0.0
 11
166.3791377724
 21
224.5965309264
 31
0.0
  0
LINE
  5
13D
330
1F
100
AcDbEntity
  8
0
  6
Continuous
 62
     7
370
    15
100
AcDbLine
 10
160.9308563378
 20
238.7714722492
 30
0.0
 11
163.4308563378
 21
234.4413452303
 31
0.0
  0
LINE
  5
13E
330
1F
100
AcDbEntity
  8
0
  6
Continuous
 62
     7
370
    15
100
AcDbLine
 10
158.8791377724
 20
237.5869119832
 30
0.0
 11
160.9308563378
 21
238.7714722492
 31
0.0
  0
LINE
  5
13F
330
1F
100
AcDbEntity
  8
0
  6
Continuous
 62
     7
370
    15
100
AcDbLine
 10
161.3791377724
 20
233.2567849643
 30
0.0
 11
158.8791377724
 21
237.5869119832
 31
0.0
  0
LINE
  5
140
330
1F
100
AcDbEntity
  8
0
  6
Continuous
 62
     7
370
    15
100
AcDbLine
 10
163.4308563378
 20
234.4413452303
 30
0.0
 11
161.3791377724
 21
233.2567849643
 31
0.0
  0
LINE
  5
141
330
1F
100
AcDbEntity
  8
0
  6
Continuous
 62
     7
370
    15
100
AcDbLine
 10
168.8791377724
 20
220.2664039075
 30
0.0
 11
170.9308563378
 21
221.4509641736
 31
0.0
  0
LINE
  5
142
330
1F
100
AcDbEntity
  8
0
  6
Continuous
 62
     7
370
    15
100
AcDbLine
 10
171.3791377724
 20
215.9362768886
 30
0.0
 11
168.8791377724
 21
220.2664039075
 31
0.0
  0
LINE
  5
143
330
1F
100
AcDbEntity
  8
0
  6
Continuous
 62
     7
370
    15
100
AcDbLine
 10
173.4308563378
 20
217.1208371546
 30
0.0
 11
171.3791377724
 21
215.9362768886
 31
0.0
  0
LINE
  5
144
330
1F
100
AcDbEntity
  8
0
  6
Continuous
 62
     7
370
    15
100
AcDbLine
 10
170.9308563378
 20
221.4509641736
 30
0.0
 11
173.4308563378
 21
217.1208371546
 31
0.0
  0
LINE
  5
145
330
1F
100
AcDbEntity
  8
0
  6
Continuous
 62
     7
370
    15
100
AcDbLine
 10
176.8212796975
 20
194.467604917
 30
0.0
 11
176.8212796975
 21
189.467604917
 31
0.0
  0
LINE
  5
146
330
1F
100
AcDbEntity
  8
0
  6
Continuous
 62
     7
370
    15
100
AcDbLine
 10
174.4521591654
 20
194.467604917
 30
0.0
 11
176.8212796975
 21
194.467604917
 31
0.0
  0
LINE
  5
147
330
1F
100
AcDbEntity
  8
0
  6
Continuous
 62
     7
370
    15
100
AcDbLine
 10
174.4521591654
 20
189.467604917
 30
0.0
 11
174.4521591654
 21
194.467604917
 31
0.0
  0
LINE
  5
148
330
1F
100
AcDbEntity
  8
0
  6
Continuous
 62
     7
370
    15
100
AcDbLine
 10
176.8212796975
 20
189.467604917
 30
0.0
 11
174.4521591654
 21
189.467604917
 31
0.0
  0
LINE
  5
149
330
1F
100
AcDbEntity
  8
0
  6
Continuous
 62
     7
370
    15
100
AcDbLine
 10
176.8212796975
 20
204.467604917
 30
0.0
 11
176.8212796975
 21
199.467604917
 31
0.0
  0
LINE
  5
14A
330
1F
100
AcDbEntity
  8
0
  6
Continuous
 62
     7
370
    15
100
AcDbLine
 10
174.4521591654
 20
204.467604917
 30
0.0
 11
176.8212796975
 21
204.467604917
 31
0.0
  0
LINE
  5
14B
330
1F
100
AcDbEntity
  8
0
  6
Continuous
 62
     7
370
    15
100
AcDbLine
 10
174.4521591654
 20
199.467604917
 30
0.0
 11
174.4521591654
 21
204.467604917
 31
0.0
  0
LINE
  5
14C
330
1F
100
AcDbEntity
  8
0
  6
Continuous
 62
     7
370
    15
100
AcDbLine
 10
176.8212796975
 20
199.467604917
 30
0.0
 11
174.4521591654
 21
199.467604917
 31
0.0
  0
LINE
  5
14D
330
1F
100
AcDbEntity
  8
0
  6
Continuous
 62
     7
370
    15
100
AcDbLine
 10
174.4521591654
 20
184.467604917
 30
0.0
 11
176.8212796975
 21
184.467604917
 31
0.0
  0
LINE
  5
14E
330
1F
100
AcDbEntity
  8
0
  6
Continuous
 62
     7
370
    15
100
AcDbLine
 10
174.4521591654
 20
179.467604917
 30
0.0
 11
174.4521591654
 21
184.467604917
 31
0.0
  0
LINE
  5
14F
330
1F
100
AcDbEntity
  8
0
  6
Continuous
 62
     7
370
    15
100
AcDbLine
 10
176.8212796975
 20
179.467604917
 30
0.0
 11
174.4521591654
 21
179.467604917
 31
0.0
  0
LINE
  5
150
330
1F
100
AcDbEntity
  8
0
  6
Continuous
 62
     7
370
    15
100
AcDbLine
 10
176.8212796975
 20
184.467604917
 30
0.0
 11
176.8212796975
 21
179.467604917
 31
0.0
  0
LINE
  5
151
330
1F
100
AcDbEntity
  8
0
  6
Continuous
 62
     7
370
    15
100
AcDbLine
 10
168.4308563378
 20
158.1541186414
 30
0.0
 11
165.9308563378
 21
153.8239916225
 31
0.0
  0
LINE
  5
152
330
1F
100
AcDbEntity
  8
0
  6
Continuous
 62
     7
370
    15
100
AcDbLine
 10
166.3791377724
 20
159.3386789075
 30
0.0
 11
168.4308563378
 21
158.1541186414
 31
0.0
  0
LINE
  5
153
330
1F
100
AcDbEntity
  8
0
  6
Continuous
 62
     7
370
    15
100
AcDbLine
 10
163.8791377724
 20
155.0085518885
 30
0.0
 11
166.3791377724
 21
159.3386789075
 31
0.0
  0
LINE
  5
154
330
1F
100
AcDbEntity
  8
0
  6
Continuous
 62
     7
370
    15
100
AcDbLine
 10
165.9308563378
 20
153.8239916225
 30
0.0
 11
163.8791377724
 21
155.0085518885
 31
0.0
  0
LINE
  5
155
330
1F
100
AcDbEntity
  8
0
  6
Continuous
 62
     7
370
    15
100
AcDbLine
 10
173.4308563378
 20
166.8143726793
 30
0.0
 11
170.9308563378
 21
162.4842456603
 31
0.0
  0
LINE
  5
156
330
1F
100
AcDbEntity
  8
0
  6
Continuous
 62
     7
370
    15
100
AcDbLine
 10
171.3791377724
 20
167.9989329453
 30
0.0
 11
173.4308563378
 21
166.8143726793
 31
0.0
  0
LINE
  5
157
330
1F
100
AcDbEntity
  8
0
  6
Continuous
 62
     7
370
    15
100
AcDbLine
 10
168.8791377724
 20
163.6688059264
 30
0.0
 11
171.3791377724
 21
167.9989329453
 31
0.0
  0
LINE
  5
158
330
1F
100
AcDbEntity
  8
0
  6
Continuous
 62
     7
370
    15
100
AcDbLine
 10
170.9308563378
 20
162.4842456603
 30
0.0
 11
168.8791377724
 21
163.6688059264
 31
0.0
  0
LINE
  5
159
330
1F
100
AcDbEntity
  8
0
  6
Continuous
 62
     7
370
    15
100
AcDbLine
 10
161.3791377724
 20
150.6784248696
 30
0.0
 11
163.4308563378
 21
149.4938646036
 31
0.0
  0
LINE
  5
15A
330
1F
100
AcDbEntity
  8
0
  6
Continuous
 62
     7
370
    15
100
AcDbLine
 10
158.8791377724
 20
146.3482978507
 30
0.0
 11
161.3791377724
 21
150.6784248696
 31
0.0
  0
LINE
  5
15B
330
1F
100
AcDbEntity
  8
0
  6
Continuous
 62
     7
370
    15
100
AcDbLine
 10
160.9308563378
 20
145.1637375847
 30
0.0
 11
158.8791377724
 21
146.3482978507
 31
0.0
  0
LINE
  5
15C
330
1F
100
AcDbEntity
  8
0
  6
Continuous
 62
     7
370
    15
100
AcDbLine
 10
163.4308563378
 20
149.4938646036
 30
0.0
 11
160.9308563378
 21
145.1637375847
 31
0.0
  0
LINE
  5
15D
330
1F
100
AcDbEntity
  8
0
  6
Continuous
 62
     7
370
    15
100
AcDbLine
 10
143.007793422
 20
130.9009287067
 30
0.0
 11
138.6776664031
 21
128.4009287067
 31
0.0
  0
LINE
  5
15E
330
1F
100
AcDbEntity
  8
0
  6
Continuous
 62
     7
370
    15
100
AcDbLine
 10
141.8232331559
 20
132.9526472721
 30
0.0
 11
143.007793422
 21
130.9009287067
 31
0.0
  0
LINE
  5
15F
330
1F
100
AcDbEntity
  8
0
  6
Continuous
 62
     7
370
    15
100
AcDbLine
 10
137.493106137
 20
130.4526472721
 30
0.0
 11
141.8232331559
 21
132.9526472721
 31
0.0
  0
LINE
  5
160
330
1F
100
AcDbEntity
  8
0
  6
Continuous
 62
     7
370
    15
100
AcDbLine
 10
138.6776664031
 20
128.4009287067
 30
0.0
 11
137.493106137
 21
130.4526472721
 31
0.0
  0
LINE
  5
161
330
1F
100
AcDbEntity
  8
0
  6
Continuous
 62
     7
370
    15
100
AcDbLine
 10
151.6680474598
 20
135.9009287067
 30
0.0
 11
147.3379204409
 21
133.4009287067
 31
0.0
  0
LINE
  5
162
330
1F
100
AcDbEntity
  8
0
  6
Continuous
 62
     7
370
    15
100
AcDbLine
 10
150.4834871938
 20
137.9526472721
 30
0.0
 11
151.6680474598
 21
135.9009287067
 31
0.0
  0
LINE
  5
163
330
1F
100
AcDbEntity
  8
0
  6
Continuous
 62
     7
370
    15
100
AcDbLine
 10
146.1533601749
 20
135.4526472721
 30
0.0
 11
150.4834871938
 21
137.9526472721
 31
0.0
  0
LINE
  5
164
330
1F
100
AcDbEntity
  8
0
  6
Continuous
 62
     7
370
    15
100
AcDbLine
 10
147.3379204409
 20
133.4009287067
 30
0.0
 11
146.1533601749
 21
135.4526472721
 31
0.0
  0
LINE
  5
165
330
1F
100
AcDbEntity
  8
0
  6
Continuous
 62
     7
370
    15
100
AcDbLine
 10
133.1629791181
 20
127.9526472721
 30
0.0
 11
134.3475393841
 21
125.9009287067
 31
0.0
  0
LINE
  5
166
330
1F
100
AcDbEntity
  8
0
  6
Continuous
 62
     7
370
    15
100
AcDbLine
 10
128.8328520992
 20
125.4526472721
 30
0.0
 11
133.1629791181
 21
127.9526472721
 31
0.0
  0
LINE
  5
167
330
1F
100
AcDbEntity
  8
0
  6
Continuous
 62
     7
370
    15
100
AcDbLine
 10
130.0174123652
 20
123.4009287067
 30
0.0
 11
128.8328520992
 21
125.4526472721
 31
0.0
  0
LINE
  5
168
330
1F
100
AcDbEntity
  8
0
  6
Continuous
 62
     7
370
    15
100
AcDbLine
 10
134.3475393841
 20
125.9009287067
 30
0.0
 11
130.0174123652
 21
123.4009287067
 31
0.0
  0
LINE
  5
169
330
1F
100
AcDbEntity
  8
0
  6
Continuous
 62
     7
370
    15
100
AcDbLine
 10
107.3641801275
 20
120.010505347
 30
0.0
 11
102.3641801275
 21
120.010505347
 31
0.0
  0
LINE
  5
16A
330
1F
100
AcDbEntity
  8
0
  6
Continuous
 62
     7
370
    15
100
AcDbLine
 10
107.3641801275
 20
122.3796258791
 30
0.0
 11
107.3641801275
 21
120.010505347
 31
0.0
  0
LINE
  5
16B
330
1F
100
AcDbEntity
  8
0
  6
Continuous
 62
     7
370
    15
100
AcDbLine
 10
102.3641801275
 20
122.3796258791
 30
0.0
 11
107.3641801275
 21
122.3796258791
 31
0.0
  0
LINE
  5
16C
330
1F
100
AcDbEntity
  8
0
  6
Continuous
 62
     7
370
    15
100
AcDbLine
 10
102.3641801275
 20
120.010505347
 30
0.0
 11
102.3641801275
 21
122.3796258791
 31
0.0
  0
LINE
  5
16D
330
1F
100
AcDbEntity
  8
0
  6
Continuous
 62
     7
370
    15
100
AcDbLine
 10
117.3641801275
 20
120.010505347
 30
0.0
 11
112.3641801275
 21
120.010505347
 31
0.0
  0
LINE
  5
16E
330
1F
100
AcDbEntity
  8
0
  6
Continuous
 62
     7
370
    15
100
AcDbLine
 10
117.3641801275
 20
122.3796258791
 30
0.0
 11
117.3641801275
 21
120.010505347
 31
0.0
  0
LINE
  5
16F
330
1F
100
AcDbEntity
  8
0
  6
Continuous
 62
     7
370
    15
100
AcDbLine
 10
112.3641801275
 20
122.3796258791
 30
0.0
 11
117.3641801275
 21
122.3796258791
 31
0.0
  0
LINE
  5
170
330
1F
100
AcDbEntity
  8
0
  6
Continuous
 62
     7
370
    15
100
AcDbLine
 10
112.3641801275
 20
120.010505347
 30
0.0
 11
112.3641801275
 21
122.3796258791
 31
0.0
  0
LINE
  5
171
330
1F
100
AcDbEntity
  8
0
  6
Continuous
 62
     7
370
    15
100
AcDbLine
 10
97.3641801275
 20
122.3796258791
 30
0.0
 11
97.3641801275
 21
120.010505347
 31
0.0
  0
LINE
  5
172
330
1F
100
AcDbEntity
  8
0
  6
Continuous
 62
     7
370
    15
100
AcDbLine
 10
92.3641801275
 20
122.3796258791
 30
0.0
 11
97.3641801275
 21
122.3796258791
 31
0.0
  0
LINE
  5
173
330
1F
100
AcDbEntity
  8
0
  6
Continuous
 62
     7
370
    15
100
AcDbLine
 10
92.3641801275
 20
120.010505347
 30
0.0
 11
92.3641801275
 21
122.3796258791
 31
0.0
  0
LINE
  5
174
330
1F
100
AcDbEntity
  8
0
  6
Continuous
 62
     7
370
    15
100
AcDbLine
 10
97.3641801275
 20
120.010505347
 30
0.0
 11
92.3641801275
 21
120.010505347
 31
0.0
  0
LINE
  5
175
330
1F
100
AcDbEntity
  8
0
  6
Continuous
 62
     7
370
    15
100
AcDbLine
 10
85.0474350232
 20
118.010505347
 30
0.0
 11
50.7238256619
 21
137.8272504513
 31
0.0
  0
LINE
  5
176
330
1F
100
AcDbEntity
  8
0
  6
Continuous
 62
     7
370
    15
100
AcDbLine
 10
50.7238256619
 20
137.8272504513
 30
0.0
 11
30.9070805576
 21
172.1508598126
 31
0.0
  0
LINE
  5
177
330
1F
100
AcDbEntity
  8
0
  6
Continuous
 62
     7
370
    15
100
AcDbLine
 10
30.9070805576
 20
172.1508598126
 30
0.0
 11
30.9070805576
 21
211.7843500213
 31
0.0
  0
LINE
  5
178
330
1F
100
AcDbEntity
  8
0
  6
Continuous
 62
     7
370
    15
100
AcDbLine
 10
30.9070805576
 20
211.7843500213
 30
0.0
 11
50.7238256619
 21
246.1079593826
 31
0.0
  0
LINE
  5
179
330
1F
100
AcDbEntity
  8
0
  6
Continuous
 62
     7
370
    15
100
AcDbLine
 10
50.7238256619
 20
246.1079593826
 30
0.0
 11
85.0474350232
 21
265.9247044869
 31
0.0
  0
LINE
  5
17A
330
1F
100
AcDbEntity
  8
0
  6
Continuous
 62
     7
370
    15
100
AcDbLine
 10
85.0474350232
 20
265.9247044869
 30
0.0
 11
124.6809252319
 21
265.9247044869
 31
0.0
  0
LINE
  5
17B
330
1F
100
AcDbEntity
  8
0
  6
Continuous
 62
     7
370
    15
100
AcDbLine
 10
124.6809252319
 20
265.9247044869
 30
0.0
 11
159.0045345932
 21
246.1079593826
 31
0.0
  0
LINE
  5
17C
330
1F
100
AcDbEntity
  8
0
  6
Continuous
 62
     7
370
    15
100
AcDbLine
 10
159.0045345932
 20
246.1079593826
 30
0.0
 11
178.8212796975
 21
211.7843500213
 31
0.0
  0
LINE
  5
17D
330
1F
100
AcDbEntity
  8
0
  6
Continuous
 62
     7
370
    15
100
AcDbLine
 10
178.8212796975
 20
211.7843500213
 30
0.0
 11
178.8212796975
 21
172.1508598126
 31
0.0
  0
LINE
  5
17E
330
1F
100
AcDbEntity
  8
0
  6
Continuous
 62
     7
370
    15
100
AcDbLine
 10
178.8212796975
 20
172.1508598126
 30
0.0
 11
159.0045345932
 21
137.8272504513
 31
0.0
  0
LINE
  5
17F
330
1F
100
AcDbEntity
  8
0
  6
Continuous
 62
     7
370
    15
100
AcDbLine
 10
159.0045345932
 20
137.8272504513
 30
0.0
 11
124.6809252319
 21
118.010505347
 31
0.0
  0
LINE
  5
180
330
1F
100
AcDbEntity
  8
0
  6
Continuous
 62
     7
370
    15
100
AcDbLine
 10
124.6809252319
 20
118.010505347
 30
0.0
 11
85.0474350232
 21
118.010505347
 31
0.0
  0
LINE
  5
181
330
1F
100
AcDbEntity
  8
0
  6
Continuous
 62
     7
370
    15
100
AcDbLine
 10
80.5847668904
 20
103.5654979554
 30
0.0
 11
70.8123411475
 21
109.2076105887
 31
0.0
  0
LINE
  5
182
330
1F
100
AcDbEntity
  8
0
  6
Continuous
 62
     7
370
    15
100
AcDbLine
 10
70.8123411475
 20
109.2076105887
 30
0.0
 11
69.5623411475
 21
107.0425470792
 31
0.0
  0
LINE
  5
183
330
1F
100
AcDbEntity
  8
0
  6
Continuous
 62
     7
370
    15
100
AcDbLine
 10
69.5623411475
 20
107.0425470792
 30
0.0
 11
65.2322141286
 21
109.5425470792
 31
0.0
  0
LINE
  5
184
330
1F
100
AcDbEntity
  8
0
  6
Continuous
 62
     7
370
    15
100
AcDbLine
 10
65.2322141286
 20
109.5425470792
 30
0.0
 11
66.4822141286
 21
111.7076105887
 31
0.0
  0
LINE
  5
185
330
1F
100
AcDbEntity
  8
0
  6
Continuous
 62
     7
370
    15
100
AcDbLine
 10
66.4822141286
 20
111.7076105887
 30
0.0
 11
62.1520871096
 21
114.2076105887
 31
0.0
  0
LINE
  5
186
330
1F
100
AcDbEntity
  8
0
  6
Continuous
 62
     7
370
    15
100
AcDbLine
 10
62.1520871096
 20
114.2076105887
 30
0.0
 11
60.9020871096
 21
112.0425470792
 31
0.0
  0
LINE
  5
187
330
1F
100
AcDbEntity
  8
0
  6
Continuous
 62
     7
370
    15
100
AcDbLine
 10
60.9020871096
 20
112.0425470792
 30
0.0
 11
56.5719600907
 21
114.5425470792
 31
0.0
  0
LINE
  5
188
330
1F
100
AcDbEntity
  8
0
  6
Continuous
 62
     7
370
    15
100
AcDbLine
 10
56.5719600907
 20
114.5425470792
 30
0.0
 11
57.8219600907
 21
116.7076105887
 31
0.0
  0
LINE
  5
189
330
1F
100
AcDbEntity
  8
0
  6
Continuous
 62
     7
370
    15
100
AcDbLine
 10
57.8219600907
 20
116.7076105887
 30
0.0
 11
53.4918330718
 21
119.2076105887
 31
0.0
  0
LINE
  5
18A
330
1F
100
AcDbEntity
  8
0
  6
Continuous
 62
     7
370
    15
100
AcDbLine
 10
53.4918330718
 20
119.2076105887
 30
0.0
 11
52.2418330718
 21
117.0425470792
 31
0.0
  0
LINE
  5
18B
330
1F
100
AcDbEntity
  8
0
  6
Continuous
 62
     7
370
    15
100
AcDbLine
 10
52.2418330718
 20
117.0425470792
 30
0.0
 11
47.9117060529
 21
119.5425470792
 31
0.0
  0
LINE
  5
18C
330
1F
100
AcDbEntity
  8
0
  6
Continuous
 62
     7
370
    15
100
AcDbLine
 10
47.9117060529
 20
119.5425470792
 30
0.0
 11
49.1617060529
 21
121.7076105887
 31
0.0
  0
LINE
  5
18D
330
1F
100
AcDbEntity
  8
0
  6
Continuous
 62
     7
370
    15
100
AcDbLine
 10
49.1617060529
 20
121.7076105887
 30
0.0
 11
39.38928031
 21
127.349723222
 31
0.0
  0
LINE
  5
18E
330
1F
100
AcDbEntity
  8
0
  6
Continuous
 62
     7
370
    15
100
AcDbLine
 10
39.38928031
 20
127.349723222
 30
0.0
 11
33.7471676766
 21
137.1221489649
 31
0.0
  0
LINE
  5
18F
330
1F
100
AcDbEntity
  8
0
  6
Continuous
 62
     7
370
    15
100
AcDbLine
 10
33.7471676766
 20
137.1221489649
 30
0.0
 11
31.5821041672
 21
135.8721489649
 31
0.0
  0
LINE
  5
190
330
1F
100
AcDbEntity
  8
0
  6
Continuous
 62
     7
370
    15
100
AcDbLine
 10
31.5821041672
 20
135.8721489649
 30
0.0
 11
29.0821041672
 21
140.2022759838
 31
0.0
  0
LINE
  5
191
330
1F
100
AcDbEntity
  8
0
  6
Continuous
 62
     7
370
    15
100
AcDbLine
 10
29.0821041672
 20
140.2022759838
 30
0.0
 11
31.2471676766
 21
141.4522759838
 31
0.0
  0
LINE
  5
192
330
1F
100
AcDbEntity
  8
0
  6
Continuous
 62
     7
370
    15
100
AcDbLine
 10
31.2471676766
 20
141.4522759838
 30
0.0
 11
28.7471676766
 21
145.7824030028
 31
0.0
  0
LINE
  5
193
330
1F
100
AcDbEntity
  8
0
  6
Continuous
 62
     7
370
    15
100
AcDbLine
 10
28.7471676766
 20
145.7824030028
 30
0.0
 11
26.5821041672
 21
144.5324030028
 31
0.0
  0
LINE
  5
194
330
1F
100
AcDbEntity
  8
0
  6
Continuous
 62
     7
370
    15
100
AcDbLine
 10
26.5821041672
 20
144.5324030028
 30
0.0
 11
24.0821041672
 21
148.8625300217
 31
0.0
  0
LINE
  5
195
330
1F
100
AcDbEntity
  8
0
  6
Continuous
 62
     7
370
    15
100
AcDbLine
 10
24.0821041672
 20
148.8625300217
 30
0.0
 11
26.2471676766
 21
150.1125300217
 31
0.0
  0
LINE
  5
196
330
1F
100
AcDbEntity
  8
0
  6
Continuous
 62
     7
370
    15
100
AcDbLine
 10
26.2471676766
 20
150.1125300217
 30
0.0
 11
23.7471676766
 21
154.4426570406
 31
0.0
  0
LINE
  5
197
330
1F
100
AcDbEntity
  8
0
  6
Continuous
 62
     7
370
    15
100
AcDbLine
 10
23.7471676766
 20
154.4426570406
 30
0.0
 11
21.5821041672
 21
153.1926570406
 31
0.0
  0
LINE
  5
198
330
1F
100
AcDbEntity
  8
0
  6
Continuous
 62
     7
370
    15
100
AcDbLine
 10
21.5821041672
 20
153.1926570406
 30
0.0
 11
19.0821041672
 21
157.5227840595
 31
0.0
  0
LINE
  5
199
330
1F
100
AcDbEntity
  8
0
  6
Continuous
 62
     7
370
    15
100
AcDbLine
 10
19.0821041672
 20
157.5227840595
 30
0.0
 11
21.2471676766
 21
158.7727840595
 31
0.0
  0
LINE
  5
19A
330
1F
100
AcDbEntity
  8
0
  6
Continuous
 62
     7
370
    15
100
AcDbLine
 10
21.2471676766
 20
158.7727840595
 30
0.0
 11
15.6050550433
 21
168.5452098024
 31
0.0
  0
LINE
  5
19B
330
1F
100
AcDbEntity
  8
0
  6
Continuous
 62
     7
370
    15
100
AcDbLine
 10
15.6050550433
 20
168.5452098024
 30
0.0
 11
15.6050550433
 21
179.8294350691
 31
0.0
  0
LINE
  5
19C
330
1F
100
AcDbEntity
  8
0
  6
Continuous
 62
     7
370
    15
100
AcDbLine
 10
15.6050550433
 20
179.8294350691
 30
0.0
 11
13.1050550433
 21
179.8294350691
 31
0.0
  0
LINE
  5
19D
330
1F
100
AcDbEntity
  8
0
  6
Continuous
 62
     7
370
    15
100
AcDbLine
 10
13.1050550433
 20
179.8294350691
 30
0.0
 11
13.1050550433
 21
184.8294350691
 31
0.0
  0
LINE
  5
19E
330
1F
100
AcDbEntity
  8
0
  6
Continuous
 62
     7
370
    15
100
AcDbLine
 10
13.1050550433
 20
184.8294350691
 30
0.0
 11
15.6050550433
 21
184.8294350691
 31
0.0
  0
LINE
  5
19F
330
1F
100
AcDbEntity
  8
0
  6
Continuous
 62
     7
370
    15
100
AcDbLine
 10
15.6050550433
 20
184.8294350691
 30
0.0
 11
15.6050550433
 21
189.8294350691
 31
0.0
  0
LINE
  5
1A0
330
1F
100
AcDbEntity
  8
0
  6
Continuous
 62
     7
370
    15
100
AcDbLine
 10
15.6050550433
 20
189.8294350691
 30
0.0
 11
13.1050550433
 21
189.8294350691
 31
0.0
  0
LINE
  5
1A1
330
1F
100
AcDbEntity
  8
0
  6
Continuous
 62
     7
370
    15
100
AcDbLine
 10
13.1050550433
 20
189.8294350691
 30
0.0
 11
13.1050550433
 21
194.8294350691
 31
0.0
  0
LINE
  5
1A2
330
1F
100
AcDbEntity
  8
0
  6
Continuous
 62
     7
370
    15
100
AcDbLine
 10
13.1050550433
 20
194.8294350691
 30
0.0
 11
15.6050550433
 21
194.8294350691
 31
0.0
  0
LINE
  5
1A3
330
1F
100
AcDbEntity
  8
0
  6
Continuous
 62
     7
370
    15
100
AcDbLine
 10
15.6050550433
 20
194.8294350691
 30
0.0
 11
15.6050550433
 21
199.8294350691
 31
0.0
  0
LINE
  5
1A4
330
1F
100
AcDbEntity
  8
0
  6
Continuous
 62
     7
370
    15
100
AcDbLine
 10
15.6050550433
 20
199.8294350691
 30
0.0
 11
13.1050550433
 21
199.8294350691
 31
0.0
  0
LINE
  5
1A5
330
1F
100
AcDbEntity
  8
0
  6
Continuous
 62
     7
370
    15
100
AcDbLine
 10
13.1050550433
 20
199.8294350691
 30
0.0
 11
13.1050550433
 21
204.8294350691
 31
0.0
  0
LINE
  5
1A6
330
1F
100
AcDbEntity
  8
0
  6
Continuous
 62
     7
370
    15
100
AcDbLine
 10
13.1050550433
 20
204.8294350691
 30
0.0
 11
15.6050550433
 21
204.8294350691
 31
0.0
  0
LINE
  5
1A7
330
1F
100
AcDbEntity
  8
0
  6
Continuous
 62
     7
370
    15
100
AcDbLine
 10
15.6050550433
 20
204.8294350691
 30
0.0
 11
15.6050550433
 21
216.1136603357
 31
0.0
  0
LINE
  5
1A8
330
1F
100
AcDbEntity
  8
0
  6
Continuous
 62
     7
370
    15
100
AcDbLine
 10
15.6050550433
 20
216.1136603357
 30
0.0
 11
21.2471676766
 21
225.8860860786
 31
0.0
  0
LINE
  5
1A9
330
1F
100
AcDbEntity
  8
0
  6
Continuous
 62
     7
370
    15
100
AcDbLine
 10
21.2471676766
 20
225.8860860786
 30
0.0
 11
19.0821041672
 21
227.1360860786
 31
0.0
  0
LINE
  5
1AA
330
1F
100
AcDbEntity
  8
0
  6
Continuous
 62
     7
370
    15
100
AcDbLine
 10
19.0821041672
 20
227.1360860786
 30
0.0
 11
21.5821041672
 21
231.4662130975
 31
0.0
  0
LINE
  5
1AB
330
1F
100
AcDbEntity
  8
0
  6
Continuous
 62
     7
370
    15
100
AcDbLine
 10
21.5821041672
 20
231.4662130975
 30
0.0
 11
23.7471676766
 21
230.2162130975
 31
0.0
  0
LINE
  5
1AC
330
1F
100
AcDbEntity
  8
0
  6
Continuous
 62
     7
370
    15
100
AcDbLine
 10
23.7471676766
 20
230.2162130975
 30
0.0
 11
26.2471676766
 21
234.5463401165
 31
0.0
  0
LINE
  5
1AD
330
1F
100
AcDbEntity
  8
0
  6
Continuous
 62
     7
370
    15
100
AcDbLine
 10
26.2471676766
 20
234.5463401165
 30
0.0
 11
24.0821041672
 21
235.7963401165
 31
0.0
  0
LINE
  5
1AE
330
1F
100
AcDbEntity
  8
0
  6
Continuous
 62
     7
370
    15
100
AcDbLine
 10
24.0821041672
 20
235.7963401165
 30
0.0
 11
26.5821041672
 21
240.1264671354
 31
0.0
  0
LINE
  5
1AF
330
1F
100
AcDbEntity
  8
0
  6
Continuous
 62
     7
370
    15
100
AcDbLine
 10
26.5821041672
 20
240.1264671354
 30
0.0
 11
28.7471676766
 21
238.8764671354
 31
0.0
  0
LINE
  5
1B0
330
1F
100
AcDbEntity
  8
0
  6
Continuous
 62
     7
370
    15
100
AcDbLine
 10
28.7471676766
 20
238.8764671354
 30
0.0
 11
31.2471676766
 21
243.2065941543
 31
0.0
  0
LINE
  5
1B1
330
1F
100
AcDbEntity
  8
0
  6
Continuous
 62
     7
370
    15
100
AcDbLine
 10
31.2471676766
 20
243.2065941543
 30
0.0
 11
29.0821041672
 21
244.4565941543
 31
0.0
  0
LINE
  5
1B2
330
1F
100
AcDbEntity
  8
0
  6
Continuous
 62
     7
370
    15
100
AcDbLine
 10
29.0821041672
 20
244.4565941543
 30
0.0
 11
31.5821041672
 21
248.7867211732
 31
0.0
  0
LINE
  5
1B3
330
1F
100
AcDbEntity
  8
0
  6
Continuous
 62
     7
370
    15
100
AcDbLine
 10
31.5821041672
 20
248.7867211732
 30
0.0
 11
33.7471676766
 21
247.5367211732
 31
0.0
  0
LINE
  5
1B4
330
1F
100
AcDbEntity
  8
0
  6
Continuous
 62
     7
370
    15
100
AcDbLine
 10
33.7471676766
 20
247.5367211732
 30
0.0
 11
39.38928031
 21
257.3091469161
 31
0.0
  0
LINE
  5
1B5
330
1F
100
AcDbEntity
  8
0
  6
Continuous
 62
     7
370
    15
100
AcDbLine
 10
39.38928031
 20
257.3091469161
 30
0.0
 11
49.1617060529
 21
262.9512595495
 31
0.0
  0
LINE
  5
1B6
330
1F
100
AcDbEntity
  8
0
  6
Continuous
 62
     7
370
    15
100
AcDbLine
 10
49.1617060529
 20
262.9512595495
 30
0.0
 11
47.9117060529
 21
265.1163230589
 31
0.0
  0
LINE
  5
1B7
330
1F
100
AcDbEntity
  8
0
  6
Continuous
 62
     7
370
    15
100
AcDbLine
 10
47.9117060529
 20
265.1163230589
 30
0.0
 11
52.2418330718
 21
267.6163230589
 31
0.0
  0
LINE
  5
1B8
330
1F
100
AcDbEntity
  8
0
  6
Continuous
 62
     7
370
    15
100
AcDbLine
 10
52.2418330718
 20
267.6163230589
 30
0.0
 11
53.4918330718
 21
265.4512595495
 31
0.0
  0
LINE
  5
1B9
330
1F
100
AcDbEntity
  8
0
  6
Continuous
 62
     7
370
    15
100
AcDbLine
 10
53.4918330718
 20
265.4512595495
 30
0.0
 11
57.8219600907
 21
267.9512595495
 31
0.0
  0
LINE
  5
1BA
330
1F
100
AcDbEntity
  8
0
  6
Continuous
 62
     7
370
    15
100
AcDbLine
 10
57.8219600907
 20
267.9512595495
 30
0.0
 11
56.5719600907
 21
270.1163230589
 31
0.0
  0
LINE
  5
1BB
330
1F
100
AcDbEntity
  8
0
  6
Continuous
 62
     7
370
    15
100
AcDbLine
 10
56.5719600907
 20
270.1163230589
 30
0.0
 11
60.9020871096
 21
272.6163230589
 31
0.0
  0
LINE
  5
1BC
330
1F
100
AcDbEntity
  8
0
  6
Continuous
 62
     7
370
    15
100
AcDbLine
 10
60.9020871096
 20
272.6163230589
 30
0.0
 11
62.1520871096
 21
270.4512595495
 31
0.0
  0
LINE
  5
1BD
330
1F
100
AcDbEntity
  8
0
  6
Continuous
 62
     7
370
    15
100
AcDbLine
 10
62.1520871096
 20
270.4512595495
 30
0.0
 11
66.4822141286
 21
272.9512595495
 31
0.0
  0
LINE
  5
1BE
330
1F
100
AcDbEntity
  8
0
  6
Continuous
 62
     7
370
    15
100
AcDbLine
 10
66.4822141286
 20
272.9512595495
 30
0.0
 11
65.2322141286
 21
275.1163230589
 31
0.0
  0
LINE
  5
1BF
330
1F
100
AcDbEntity
  8
0
  6
Continuous
 62
     7
370
    15
100
AcDbLine
 10
65.2322141286
 20
275.1163230589
 30
0.0
 11
69.5623411475
 21
277.6163230589
 31
0.0
  0
LINE
  5
1C0
330
1F
100
AcDbEntity
  8
0
  6
Continuous
 62
     7
370
    15
100
AcDbLine
 10
69.5623411475
 20
277.6163230589
 30
0.0
 11
70.8123411475
 21
275.4512595495
 31
0.0
  0
LINE
  5
1C1
330
1F
100
AcDbEntity
  8
0
  6
Continuous
 62
     7
370
    15
100
AcDbLine
 10
70.8123411475
 20
275.4512595495
 30
0.0
 11
80.5847668904
 21
281.0933721828
 31
0.0
  0
LINE
  5
1C2
330
1F
100
AcDbEntity
  8
0
  6
Continuous
 62
     7
370
    15
100
AcDbLine
 10
80.5847668904
 20
281.0933721828
 30
0.0
 11
91.868992157
 21
281.0933721828
 31
0.0
  0
LINE
  5
1C3
330
1F
100
AcDbEntity
  8
0
  6
Continuous
 62
     7
370
    15
100
AcDbLine
 10
91.868992157
 20
281.0933721828
 30
0.0
 11
91.868992157
 21
283.5933721828
 31
0.0
  0
LINE
  5
1C4
330
1F
100
AcDbEntity
  8
0
  6
Continuous
 62
     7
370
    15
100
AcDbLine
 10
91.868992157
 20
283.5933721828
 30
0.0
 11
96.868992157
 21
283.5933721828
 31
0.0
  0
LINE
  5
1C5
330
1F
100
AcDbEntity
  8
0
  6
Continuous
 62
     7
370
    15
100
AcDbLine
 10
96.868992157
 20
283.5933721828
 30
0.0
 11
96.868992157
 21
281.0933721828
 31
0.0
  0
LINE
  5
1C6
330
1F
100
AcDbEntity
  8
0
  6
Continuous
 62
     7
370
    15
100
AcDbLine
 10
96.868992157
 20
281.0933721828
 30
0.0
 11
101.868992157
 21
281.0933721828
 31
0.0
  0
LINE
  5
1C7
330
1F
100
AcDbEntity
  8
0
  6
Continuous
 62
     7
370
    15
100
AcDbLine
 10
101.868992157
 20
281.0933721828
 30
0.0
 11
101.868992157
 21
283.5933721828
 31
0.0
  0
LINE
  5
1C8
330
1F
100
AcDbEntity
  8
0
  6
Continuous
 62
     7
370
    15
100
AcDbLine
 10
106.868992157
 20
283.5933721828
 30
0.0
 11
106.868992157
 21
281.0933721828
 31
0.0
  0
LINE
  5
1C9
330
1F
100
AcDbEntity
  8
0
  6
Continuous
 62
     7
370
    15
100
AcDbLine
 10
106.868992157
 20
281.0933721828
 30
0.0
 11
111.868992157
 21
281.0933721828
 31
0.0
  0
LINE
  5
1CA
330
1F
100
AcDbEntity
  8
0
  6
Continuous
 62
     7
370
    15
100
AcDbLine
 10
111.868992157
 20
281.0933721828
 30
0.0
 11
111.868992157
 21
283.5933721828
 31
0.0
  0
LINE
  5
1CB
330
1F
100
AcDbEntity
  8
0
  6
Continuous
 62
     7
370
    15
100
AcDbLine
 10
111.868992157
 20
283.5933721828
 30
0.0
 11
116.868992157
 21
283.5933721828
 31
0.0
  0
LINE
  5
1CC
330
1F
100
AcDbEntity
  8
0
  6
Continuous
 62
     7
370
    15
100
AcDbLine
 10
116.868992157
 20
283.5933721828
 30
0.0
 11
116.868992157
 21
281.0933721828
 31
0.0
  0
LINE
  5
1CD
330
1F
100
AcDbEntity
  8
0
  6
Continuous
 62
     7
370
    15
100
AcDbLine
 10
116.868992157
 20
281.0933721828
 30
0.0
 11
128.1532174237
 21
281.0933721828
 31
0.0
  0
LINE
  5
1CE
330
1F
100
AcDbEntity
  8
0
  6
Continuous
 62
     7
370
    15
100
AcDbLine
 10
128.1532174237
 20
281.0933721828
 30
0.0
 11
137.9256431666
 21
275.4512595495
 31
0.0
  0
LINE
  5
1CF
330
1F
100
AcDbEntity
  8
0
  6
Continuous
 62
     7
370
    15
100
AcDbLine
 10
137.9256431666
 20
275.4512595495
 30
0.0
 11
139.1756431666
 21
277.6163230589
 31
0.0
  0
LINE
  5
1D0
330
1F
100
AcDbEntity
  8
0
  6
Continuous
 62
     7
370
    15
100
AcDbLine
 10
139.1756431666
 20
277.6163230589
 30
0.0
 11
143.5057701855
 21
275.1163230589
 31
0.0
  0
LINE
  5
1D1
330
1F
100
AcDbEntity
  8
0
  6
Continuous
 62
     7
370
    15
100
AcDbLine
 10
143.5057701855
 20
275.1163230589
 30
0.0
 11
142.2557701855
 21
272.9512595495
 31
0.0
  0
LINE
  5
1D2
330
1F
100
AcDbEntity
  8
0
  6
Continuous
 62
     7
370
    15
100
AcDbLine
 10
142.2557701855
 20
272.9512595495
 30
0.0
 11
146.5858972044
 21
270.4512595495
 31
0.0
  0
LINE
  5
1D3
330
1F
100
AcDbEntity
  8
0
  6
Continuous
 62
     7
370
    15
100
AcDbLine
 10
146.5858972044
 20
270.4512595495
 30
0.0
 11
147.8358972044
 21
272.6163230589
 31
0.0
  0
LINE
  5
1D4
330
1F
100
AcDbEntity
  8
0
  6
Continuous
 62
     7
370
    15
100
AcDbLine
 10
147.8358972044
 20
272.6163230589
 30
0.0
 11
152.1660242233
 21
270.1163230589
 31
0.0
  0
LINE
  5
1D5
330
1F
100
AcDbEntity
  8
0
  6
Continuous
 62
     7
370
    15
100
AcDbLine
 10
152.1660242233
 20
270.1163230589
 30
0.0
 11
150.9160242233
 21
267.9512595495
 31
0.0
  0
LINE
  5
1D6
330
1F
100
AcDbEntity
  8
0
  6
Continuous
 62
     7
370
    15
100
AcDbLine
 10
150.9160242233
 20
267.9512595495
 30
0.0
 11
155.2461512423
 21
265.4512595495
 31
0.0
  0
LINE
  5
1D7
330
1F
100
AcDbEntity
  8
0
  6
Continuous
 62
     7
370
    15
100
AcDbLine
 10
155.2461512423
 20
265.4512595495
 30
0.0
 11
156.4961512423
 21
267.6163230589
 31
0.0
  0
LINE
  5
1D8
330
1F
100
AcDbEntity
  8
0
  6
Continuous
 62
     7
370
    15
100
AcDbLine
 10
156.4961512423
 20
267.6163230589
 30
0.0
 11
160.8262782612
 21
265.1163230589
 31
0.0
  0
LINE
  5
1D9
330
1F
100
AcDbEntity
  8
0
  6
Continuous
 62
     7
370
    15
100
AcDbLine
 10
160.8262782612
 20
265.1163230589
 30
0.0
 11
159.5762782612
 21
262.9512595495
 31
0.0
  0
LINE
  5
1DA
330
1F
100
AcDbEntity
  8
0
  6
Continuous
 62
     7
370
    15
100
AcDbLine
 10
159.5762782612
 20
262.9512595495
 30
0.0
 11
169.3487040041
 21
257.3091469161
 31
0.0
  0
LINE
  5
1DB
330
1F
100
AcDbEntity
  8
0
  6
Continuous
 62
     7
370
    15
100
AcDbLine
 10
169.3487040041
 20
257.3091469161
 30
0.0
 11
174.9908166374
 21
247.5367211732
 31
0.0
  0
LINE
  5
1DC
330
1F
100
AcDbEntity
  8
0
  6
Continuous
 62
     7
370
    15
100
AcDbLine
 10
174.9908166374
 20
247.5367211732
 30
0.0
 11
177.1558801469
 21
248.7867211732
 31
0.0
  0
LINE
  5
1DD
330
1F
100
AcDbEntity
  8
0
  6
Continuous
 62
     7
370
    15
100
AcDbLine
 10
177.1558801469
 20
248.7867211732
 30
0.0
 11
179.6558801469
 21
244.4565941543
 31
0.0
  0
LINE
  5
1DE
330
1F
100
AcDbEntity
  8
0
  6
Continuous
 62
     7
370
    15
100
AcDbLine
 10
179.6558801469
 20
244.4565941543
 30
0.0
 11
177.4908166374
 21
243.2065941543
 31
0.0
  0
LINE
  5
1DF
330
1F
100
AcDbEntity
  8
0
  6
Continuous
 62
     7
370
    15
100
AcDbLine
 10
177.4908166374
 20
243.2065941543
 30
0.0
 11
179.9908166374
 21
238.8764671354
 31
0.0
  0
LINE
  5
1E0
330
1F
100
AcDbEntity
  8
0
  6
Continuous
 62
     7
370
    15
100
AcDbLine
 10
179.9908166374
 20
238.8764671354
 30
0.0
 11
182.1558801469
 21
240.1264671354
 31
0.0
  0
LINE
  5
1E1
330
1F
100
AcDbEntity
  8
0
  6
Continuous
 62
     7
370
    15
100
AcDbLine
 10
182.1558801469
 20
240.1264671354
 30
0.0
 11
184.6558801469
 21
235.7963401165
 31
0.0
  0
LINE
  5
1E2
330
1F
100
AcDbEntity
  8
0
  6
Continuous
 62
     7
370
    15
100
AcDbLine
 10
184.6558801469
 20
235.7963401165
 30
0.0
 11
182.4908166374
 21
234.5463401165
 31
0.0
  0
LINE
  5
1E3
330
1F
100
AcDbEntity
  8
0
  6
Continuous
 62
     7
370
    15
100
AcDbLine
 10
182.4908166374
 20
234.5463401165
 30
0.0
 11
184.9908166374
 21
230.2162130975
 31
0.0
  0
LINE
  5
1E4
330
1F
100
AcDbEntity
  8
0
  6
Continuous
 62
     7
370
    15
100
AcDbLine
 10
184.9908166374
 20
230.2162130975
 30
0.0
 11
187.1558801469
 21
231.4662130975
 31
0.0
  0
LINE
  5
1E5
330
1F
100
AcDbEntity
  8
0
  6
Continuous
 62
     7
370
    15
100
AcDbLine
 10
187.1558801469
 20
231.4662130975
 30
0.0
 11
189.6558801469
 21
227.1360860786
 31
0.0
  0
LINE
  5
1E6
330
1F
100
AcDbEntity
  8
0
  6
Continuous
 62
     7
370
    15
100
AcDbLine
 10
189.6558801469
 20
227.1360860786
 30
0.0
 11
187.4908166374
 21
225.8860860786
 31
0.0
  0
LINE
  5
1E7
330
1F
100
AcDbEntity
  8
0
  6
Continuous
 62
     7
370
    15
100
AcDbLine
 10
187.4908166374
 20
225.8860860786
 30
0.0
 11
193.1329292707
 21
216.1136603357
 31
0.0
  0
LINE
  5
1E8
330
1F
100
AcDbEntity
  8
0
  6
Continuous
 62
     7
370
    15
100
AcDbLine
 10
193.1329292707
 20
216.1136603357
 30
0.0
 11
193.1329292707
 21
204.8294350691
 31
0.0
  0
LINE
  5
1E9
330
1F
100
AcDbEntity
  8
0
  6
Continuous
 62
     7
370
    15
100
AcDbLine
 10
193.1329292707
 20
204.8294350691
 30
0.0
 11
195.6329292707
 21
204.8294350691
 31
0.0
  0
LINE
  5
1EA
330
1F
100
AcDbEntity
  8
0
  6
Continuous
 62
     7
370
    15
100
AcDbLine
 10
195.6329292707
 20
204.8294350691
 30
0.0
 11
195.6329292707
 21
199.8294350691
 31
0.0
  0
LINE
  5
1EB
330
1F
100
AcDbEntity
  8
0
  6
Continuous
 62
     7
370
    15
100
AcDbLine
 10
195.6329292707
 20
199.8294350691
 30
0.0
 11
193.1329292707
 21
199.8294350691
 31
0.0
  0
LINE
  5
1EC
330
1F
100
AcDbEntity
  8
0
  6
Continuous
 62
     7
370
    15
100
AcDbLine
 10
193.1329292707
 20
199.8294350691
 30
0.0
 11
193.1329292707
 21
194.8294350691
 31
0.0
  0
LINE
  5
1ED
330
1F
100
AcDbEntity
  8
0
  6
Continuous
 62
     7
370
    15
100
AcDbLine
 10
193.1329292707
 20
194.8294350691
 30
0.0
 11
195.6329292707
 21
194.8294350691
 31
0.0
  0
LINE
  5
1EE
330
1F
100
AcDbEntity
  8
0
  6
Continuous
 62
     7
370
    15
100
AcDbLine
 10
195.6329292707
 20
194.8294350691
 30
0.0
 11
195.6329292707
 21
189.8294350691
 31
0.0
  0
LINE
  5
1EF
330
1F
100
AcDbEntity
  8
0
  6
Continuous
 62
     7
370
    15
100
AcDbLine
 10
195.6329292707
 20
189.8294350691
 30
0.0
 11
193.1329292707
 21
189.8294350691
 31
0.0
  0
LINE
  5
1F0
330
1F
100
AcDbEntity
  8
0
  6
Continuous
 62
     7
370
    15
100
AcDbLine
 10
193.1329292707
 20
189.8294350691
 30
0.0
 11
193.1329292707
 21
184.8294350691
 31
0.0
  0
LINE
  5
1F1
330
1F
100
AcDbEntity
  8
0
  6
Continuous
 62
     7
370
    15
100
AcDbLine
 10
193.1329292707
 20
184.8294350691
 30
0.0
 11
195.6329292707
 21
184.8294350691
 31
0.0
  0
LINE
  5
1F2
330
1F
100
AcDbEntity
  8
0
  6
Continuous
 62
     7
370
    15
100
AcDbLine
 10
195.6329292707
 20
184.8294350691
 30
0.0
 11
195.6329292707
 21
179.8294350691
 31
0.0
  0
LINE
  5
1F3
330
1F
100
AcDbEntity
  8
0
  6
Continuous
 62
     7
370
    15
100
AcDbLine
 10
195.6329292707
 20
179.8294350691
 30
0.0
 11
193.1329292707
 21
179.8294350691
 31
0.0
  0
LINE
  5
1F4
330
1F
100
AcDbEntity
  8
0
  6
Continuous
 62
     7
370
    15
100
AcDbLine
 10
193.1329292707
 20
179.8294350691
 30
0.0
 11
193.1329292707
 21
168.5452098024
 31
0.0
  0
LINE
  5
1F5
330
1F
100
AcDbEntity
  8
0
  6
Continuous
 62
     7
370
    15
100
AcDbLine
 10
193.1329292707
 20
168.5452098024
 30
0.0
 11
187.4908166374
 21
158.7727840595
 31
0.0
  0
LINE
  5
1F6
330
1F
100
AcDbEntity
  8
0
  6
Continuous
 62
     7
370
    15
100
AcDbLine
 10
187.4908166374
 20
158.7727840595
 30
0.0
 11
189.6558801469
 21
157.5227840595
 31
0.0
  0
LINE
  5
1F7
330
1F
100
AcDbEntity
  8
0
  6
Continuous
 62
     7
370
    15
100
AcDbLine
 10
189.6558801469
 20
157.5227840595
 30
0.0
 11
187.1558801469
 21
153.1926570406
 31
0.0
  0
LINE
  5
1F8
330
1F
100
AcDbEntity
  8
0
  6
Continuous
 62
     7
370
    15
100
AcDbLine
 10
187.1558801469
 20
153.1926570406
 30
0.0
 11
184.9908166374
 21
154.4426570406
 31
0.0
  0
LINE
  5
1F9
330
1F
100
AcDbEntity
  8
0
  6
Continuous
 62
     7
370
    15
100
AcDbLine
 10
184.9908166374
 20
154.4426570406
 30
0.0
 11
182.4908166374
 21
150.1125300217
 31
0.0
  0
LINE
  5
1FA
330
1F
100
AcDbEntity
  8
0
  6
Continuous
 62
     7
370
    15
100
AcDbLine
 10
182.4908166374
 20
150.1125300217
 30
0.0
 11
184.6558801469
 21
148.8625300217
 31
0.0
  0
LINE
  5
1FB
330
1F
100
AcDbEntity
  8
0
  6
Continuous
 62
     7
370
    15
100
AcDbLine
 10
184.6558801469
 20
148.8625300217
 30
0.0
 11
182.1558801469
 21
144.5324030028
 31
0.0
  0
LINE
  5
1FC
330
1F
100
AcDbEntity
  8
0
  6
Continuous
 62
     7
370
    15
100
AcDbLine
 10
182.1558801469
 20
144.5324030028
 30
0.0
 11
179.9908166374
 21
145.7824030028
 31
0.0
  0
LINE
  5
1FD
330
1F
100
AcDbEntity
  8
0
  6
Continuous
 62
     7
370
    15
100
AcDbLine
 10
179.9908166374
 20
145.7824030028
 30
0.0
 11
177.4908166374
 21
141.4522759838
 31
0.0
  0
LINE
  5
1FE
330
1F
100
AcDbEntity
  8
0
  6
Continuous
 62
     7
370
    15
100
AcDbLine
 10
177.4908166374
 20
141.4522759838
 30
0.0
 11
179.6558801469
 21
140.2022759838
 31
0.0
  0
LINE
  5
1FF
330
1F
100
AcDbEntity
  8
0
  6
Continuous
 62
     7
370
    15
100
AcDbLine
 10
179.6558801469
 20
140.2022759838
 30
0.0
 11
177.1558801469
 21
135.8721489649
 31
0.0
  0
LINE
  5
200
330
1F
100
AcDbEntity
  8
0
  6
Continuous
 62
     7
370
    15
100
AcDbLine
 10
177.1558801469
 20
135.8721489649
 30
0.0
 11
174.9908166374
 21
137.1221489649
 31
0.0
  0
LINE
  5
201
330
1F
100
AcDbEntity
  8
0
  6
Continuous
 62
     7
370
    15
100
AcDbLine
 10
174.9908166374
 20
137.1221489649
 30
0.0
 11
169.3487040041
 21
127.349723222
 31
0.0
  0
LINE
  5
202
330
1F
100
AcDbEntity
  8
0
  6
Continuous
 62
     7
370
    15
100
AcDbLine
 10
169.3487040041
 20
127.349723222
 30
0.0
 11
159.5762782612
 21
121.7076105887
 31
0.0
  0
LINE
  5
203
330
1F
100
AcDbEntity
  8
0
  6
Continuous
 62
     7
370
    15
100
AcDbLine
 10
159.5762782612
 20
121.7076105887
 30
0.0
 11
160.8262782612
 21
119.5425470792
 31
0.0
  0
LINE
  5
204
330
1F
100
AcDbEntity
  8
0
  6
Continuous
 62
     7
370
    15
100
AcDbLine
 10
160.8262782612
 20
119.5425470792
 30
0.0
 11
156.4961512423
 21
117.0425470792
 31
0.0
  0
LINE
  5
205
330
1F
100
AcDbEntity
  8
0
  6
Continuous
 62
     7
370
    15
100
AcDbLine
 10
156.4961512423
 20
117.0425470792
 30
0.0
 11
155.2461512423
 21
119.2076105887
 31
0.0
  0
LINE
  5
206
330
1F
100
AcDbEntity
  8
0
  6
Continuous
 62
     7
370
    15
100
AcDbLine
 10
155.2461512423
 20
119.2076105887
 30
0.0
 11
150.9160242233
 21
116.7076105887
 31
0.0
  0
LINE
  5
207
330
1F
100
AcDbEntity
  8
0
  6
Continuous
 62
     7
370
    15
100
AcDbLine
 10
150.9160242233
 20
116.7076105887
 30
0.0
 11
152.1660242233
 21
114.5425470792
 31
0.0
  0
LINE
  5
208
330
1F
100
AcDbEntity
  8
0
  6
Continuous
 62
     7
370
    15
100
AcDbLine
 10
152.1660242233
 20
114.5425470792
 30
0.0
 11
147.8358972044
 21
112.0425470792
 31
0.0
  0
LINE
  5
209
330
1F
100
AcDbEntity
  8
0
  6
Continuous
 62
     7
370
    15
100
AcDbLine
 10
147.8358972044
 20
112.0425470792
 30
0.0
 11
146.5858972044
 21
114.2076105887
 31
0.0
  0
LINE
  5
20A
330
1F
100
AcDbEntity
  8
0
  6
Continuous
 62
     7
370
    15
100
AcDbLine
 10
146.5858972044
 20
114.2076105887
 30
0.0
 11
142.2557701855
 21
111.7076105887
 31
0.0
  0
LINE
  5
20B
330
1F
100
AcDbEntity
  8
0
  6
Continuous
 62
     7
370
    15
100
AcDbLine
 10
142.2557701855
 20
111.7076105887
 30
0.0
 11
143.5057701855
 21
109.5425470792
 31
0.0
  0
LINE
  5
20C
330
1F
100
AcDbEntity
  8
0
  6
Continuous
 62
     7
370
    15
100
AcDbLine
 10
143.5057701855
 20
109.5425470792
 30
0.0
 11
139.1756431666
 21
107.0425470792
 31
0.0
  0
LINE
  5
20D
330
1F
100
AcDbEntity
  8
0
  6
Continuous
 62
     7
370
    15
100
AcDbLine
 10
139.1756431666
 20
107.0425470792
 30
0.0
 11
137.9256431666
 21
109.2076105887
 31
0.0
  0
LINE
  5
20E
330
1F
100
AcDbEntity
  8
0
  6
Continuous
 62
     7
370
    15
100
AcDbLine
 10
137.9256431666
 20
109.2076105887
 30
0.0
 11
128.1532174237
 21
103.5654979554
 31
0.0
  0
LINE
  5
20F
330
1F
100
AcDbEntity
  8
0
  6
Continuous
 62
     7
370
    15
100
AcDbLine
 10
101.868992157
 20
283.5933721828
 30
0.0
 11
106.868992157
 21
283.5933721828
 31
0.0
  0
LINE
  5
210
330
1F
100
AcDbEntity
  8
0
  6
Continuous
 62
     7
370
    15
100
AcDbLine
 10
106.868992157
 20
101.0654979554
 30
0.0
 11
101.868992157
 21
101.0654979554
 31
0.0
  0
LINE
  5
211
330
1F
100
AcDbEntity
  8
0
  6
Continuous
 62
     7
370
    15
100
AcDbLine
 10
106.868992157
 20
103.5654979554
 30
0.0
 11
106.868992157
 21
101.0654979554
 31
0.0
  0
LINE
  5
212
330
1F
100
AcDbEntity
  8
0
  6
Continuous
 62
     7
370
    15
100
AcDbLine
 10
111.868992157
 20
103.5654979554
 30
0.0
 11
106.868992157
 21
103.5654979554
 31
0.0
  0
LINE
  5
213
330
1F
100
AcDbEntity
  8
0
  6
Continuous
 62
     7
370
    15
100
AcDbLine
 10
111.868992157
 20
101.0654979554
 30
0.0
 11
111.868992157
 21
103.5654979554
 31
0.0
  0
LINE
  5
214
330
1F
100
AcDbEntity
  8
0
  6
Continuous
 62
     7
370
    15
100
AcDbLine
 10
116.868992157
 20
101.0654979554
 30
0.0
 11
111.868992157
 21
101.0654979554
 31
0.0
  0
LINE
  5
215
330
1F
100
AcDbEntity
  8
0
  6
Continuous
 62
     7
370
    15
100
AcDbLine
 10
116.868992157
 20
103.5654979554
 30
0.0
 11
116.868992157
 21
101.0654979554
 31
0.0
  0
LINE
  5
216
330
1F
100
AcDbEntity
  8
0
  6
Continuous
 62
     7
370
    15
100
AcDbLine
 10
128.1532174237
 20
103.5654979554
 30
0.0
 11
116.868992157
 21
103.5654979554
 31
0.0
  0
CIRCLE
  5
217
330
1F
100
AcDbEntity
  8
0
  6
Continuous
 62
     7
370
    15
100
AcDbCircle
 10
104.368992157
 20
192.3294350691
 30
0.0
 40
82.76393711370099
  0
LINE
  5
218
330
1F
100
AcDbEntity
  8
0
  6
Continuous
 62
     7
370
    15
100
AcDbLine
 10
91.868992157
 20
103.5654979554
 30
0.0
 11
80.5847668904
 21
103.5654979554
 31
0.0
  0
LINE
  5
219
330
1F
100
AcDbEntity
  8
0
  6
Continuous
 62
     7
370
    15
100
AcDbLine
 10
91.868992157
 20
101.0654979554
 30
0.0
 11
91.868992157
 21
103.5654979554
 31
0.0
  0
LINE
  5
21A
330
1F
100
AcDbEntity
  8
0
  6
Continuous
 62
     7
370
    15
100
AcDbLine
 10
96.868992157
 20
101.0654979554
 30
0.0
 11
91.868992157
 21
101.0654979554
 31
0.0
  0
LINE
  5
21B
330
1F
100
AcDbEntity
  8
0
  6
Continuous
 62
     7
370
    15
100
AcDbLine
 10
96.868992157
 20
103.5654979554
 30
0.0
 11
96.868992157
 21
101.0654979554
 31
0.0
  0
LINE
  5
21C
330
1F
100
AcDbEntity
  8
0
  6
Continuous
 62
     7
370
    15
100
AcDbLine
 10
101.868992157
 20
103.5654979554
 30
0.0
 11
96.868992157
 21
103.5654979554
 31
0.0
  0
LINE
  5
21D
330
1F
100
AcDbEntity
  8
0
  6
Continuous
 62
     7
370
    15
100
AcDbLine
 10
101.868992157
 20
101.0654979554
 30
0.0
 11
101.868992157
 21
103.5654979554
 31
0.0
  0
LINE
  5
21E
330
1F
100
AcDbEntity
  8
0
  6
Continuous
 62
     7
370
    15
100
AcDbLine
 10
254.2476318842
 20
17.3625165327
 30
0.0
 11
254.2476318842
 21
19.8625165327
 31
0.0
  0
LINE
  5
21F
330
1F
100
AcDbEntity
  8
0
  6
Continuous
 62
     7
370
    15
100
AcDbLine
 10
254.2476318842
 20
19.8625165327
 30
0.0
 11
249.2476318842
 21
19.8625165327
 31
0.0
  0
LINE
  5
220
330
1F
100
AcDbEntity
  8
0
  6
Continuous
 62
     7
370
    15
100
AcDbLine
 10
249.2476318842
 20
19.8625165327
 30
0.0
 11
249.2476318842
 21
17.3625165327
 31
0.0
  0
LINE
  5
221
330
1F
100
AcDbEntity
  8
0
  6
Continuous
 62
     7
370
    15
100
AcDbLine
 10
249.2476318842
 20
17.3625165327
 30
0.0
 11
254.2476318842
 21
17.3625165327
 31
0.0
  0
LINE
  5
222
330
1F
100
AcDbEntity
  8
0
  6
Continuous
 62
     7
370
    15
100
AcDbLine
 10
244.2476318842
 20
17.3625165327
 30
0.0
 11
244.2476318842
 21
19.8625165327
 31
0.0
  0
LINE
  5
223
330
1F
100
AcDbEntity
  8
0
  6
Continuous
 62
     7
370
    15
100
AcDbLine
 10
244.2476318842
 20
19.8625165327
 30
0.0
 11
239.2476318842
 21
19.8625165327
 31
0.0
  0
LINE
  5
224
330
1F
100
AcDbEntity
  8
0
  6
Continuous
 62
     7
370
    15
100
AcDbLine
 10
239.2476318842
 20
19.8625165327
 30
0.0
 11
239.2476318842
 21
17.3625165327
 31
0.0
  0
LINE
  5
225
330
1F
100
AcDbEntity
  8
0
  6
Continuous
 62
     7
370
    15
100
AcDbLine
 10
239.2476318842
 20
17.3625165327
 30
0.0
 11
244.2476318842
 21
17.3625165327
 31
0.0
  0
LINE
  5
226
330
1F
100
AcDbEntity
  8
0
  6
Continuous
 62
     7
370
    15
100
AcDbLine
 10
234.2476318842
 20
17.3625165327
 30
0.0
 11
234.2476318842
 21
19.8625165327
 31
0.0
  0
LINE
  5
227
330
1F
100
AcDbEntity
  8
0
  6
Continuous
 62
     7
370
    15
100
AcDbLine
 10
234.2476318842
 20
19.8625165327
 30
0.0
 11
229.2476318842
 21
19.8625165327
 31
0.0
  0
LINE
  5
228
330
1F
100
AcDbEntity
  8
0
  6
Continuous
 62
     7
370
    15
100
AcDbLine
 10
229.2476318842
 20
19.8625165327
 30
0.0
 11
229.2476318842
 21
17.3625165327
 31
0.0
  0
LINE
  5
229
330
1F
100
AcDbEntity
  8
0
  6
Continuous
 62
     7
370
    15
100
AcDbLine
 10
229.2476318842
 20
17.3625165327
 30
0.0
 11
234.2476318842
 21
17.3625165327
 31
0.0
  0
ARC
  5
22A
330
1F
100
AcDbEntity
  8
0
  6
Continuous
 62
     7
370
    15
100
AcDbCircle
 10
264.0920975863
 20
46.4449557275
 30
0.0
 40
18.00000000000001
100
AcDbArc
 50
93.1595401079
 51
273.1595401079
  0
LINE
  5
22B
330
1F
100
AcDbEntity
  8
0
  6
Continuous
 62
     7
370
    15
100
AcDbLine
 10
254.2476318842
 20
14.3625165327
 30
0.0
 11
265.863059203
 21
14.3625165327
 31
0.0
  0
LINE
  5
22C
330
1F
100
AcDbEntity
  8
0
  6
Continuous
 62
     7
370
    15
100
AcDbLine
 10
254.2476318842
 20
12.3625165327
 30
0.0
 11
254.2476318842
 21
14.3625165327
 31
0.0
  0
LINE
  5
22D
330
1F
100
AcDbEntity
  8
0
  6
Continuous
 62
     7
370
    15
100
AcDbLine
 10
249.2476318842
 20
12.3625165327
 30
0.0
 11
254.2476318842
 21
12.3625165327
 31
0.0
  0
LINE
  5
22E
330
1F
100
AcDbEntity
  8
0
  6
Continuous
 62
     7
370
    15
100
AcDbLine
 10
249.2476318842
 20
14.3625165327
 30
0.0
 11
249.2476318842
 21
12.3625165327
 31
0.0
  0
LINE
  5
22F
330
1F
100
AcDbEntity
  8
0
  6
Continuous
 62
     7
370
    15
100
AcDbLine
 10
244.2476318842
 20
14.3625165327
 30
0.0
 11
249.2476318842
 21
14.3625165327
 31
0.0
  0
LINE
  5
230
330
1F
100
AcDbEntity
  8
0
  6
Continuous
 62
     7
370
    15
100
AcDbLine
 10
244.2476318842
 20
12.3625165327
 30
0.0
 11
244.2476318842
 21
14.3625165327
 31
0.0
  0
LINE
  5
231
330
1F
100
AcDbEntity
  8
0
  6
Continuous
 62
     7
370
    15
100
AcDbLine
 10
239.2476318842
 20
12.3625165327
 30
0.0
 11
244.2476318842
 21
12.3625165327
 31
0.0
  0
LINE
  5
232
330
1F
100
AcDbEntity
  8
0
  6
Continuous
 62
     7
370
    15
100
AcDbLine
 10
239.2476318842
 20
14.3625165327
 30
0.0
 11
239.2476318842
 21
12.3625165327
 31
0.0
  0
LINE
  5
233
330
1F
100
AcDbEntity
  8
0
  6
Continuous
 62
     7
370
    15
100
AcDbLine
 10
234.2476318842
 20
14.3625165327
 30
0.0
 11
239.2476318842
 21
14.3625165327
 31
0.0
  0
LINE
  5
234
330
1F
100
AcDbEntity
  8
0
  6
Continuous
 62
     7
370
    15
100
AcDbLine
 10
234.2476318842
 20
12.3625165327
 30
0.0
 11
234.2476318842
 21
14.3625165327
 31
0.0
  0
LINE
  5
235
330
1F
100
AcDbEntity
  8
0
  6
Continuous
 62
     7
370
    15
100
AcDbLine
 10
229.2476318842
 20
12.3625165327
 30
0.0
 11
234.2476318842
 21
12.3625165327
 31
0.0
  0
LINE
  5
236
330
1F
100
AcDbEntity
  8
0
  6
Continuous
 62
     7
370
    15
100
AcDbLine
 10
229.2476318842
 20
14.3625165327
 30
0.0
 11
229.2476318842
 21
12.3625165327
 31
0.0
  0
LINE
  5
237
330
1F
100
AcDbEntity
  8
0
  6
Continuous
 62
     7
370
    15
100
AcDbLine
 10
217.6322045654
 20
14.3625165327
 30
0.0
 11
229.2476318842
 21
14.3625165327
 31
0.0
  0
LINE
  5
238
330
1F
100
AcDbEntity
  8
0
  6
Continuous
 62
     7
370
    15
100
AcDbLine
 10
222.991188414
 20
111.4449557275
 30
0.0
 11
217.6322045654
 21
14.3625165327
 31
0.0
  0
LINE
  5
239
330
1F
100
AcDbEntity
  8
0
  6
Continuous
 62
     7
370
    15
100
AcDbLine
 10
229.2476318842
 20
111.4449557275
 30
0.0
 11
222.991188414
 21
111.4449557275
 31
0.0
  0
LINE
  5
23A
330
1F
100
AcDbEntity
  8
0
  6
Continuous
 62
     7
370
    15
100
AcDbLine
 10
229.2476318842
 20
113.4449557275
 30
0.0
 11
229.2476318842
 21
111.4449557275
 31
0.0
  0
LINE
  5
23B
330
1F
100
AcDbEntity
  8
0
  6
Continuous
 62
     7
370
    15
100
AcDbLine
 10
234.2476318842
 20
113.4449557275
 30
0.0
 11
229.2476318842
 21
113.4449557275
 31
0.0
  0
LINE
  5
23C
330
1F
100
AcDbEntity
  8
0
  6
Continuous
 62
     7
370
    15
100
AcDbLine
 10
234.2476318842
 20
111.4449557275
 30
0.0
 11
234.2476318842
 21
113.4449557275
 31
0.0
  0
LINE
  5
23D
330
1F
100
AcDbEntity
  8
0
  6
Continuous
 62
     7
370
    15
100
AcDbLine
 10
239.2476318842
 20
111.4449557275
 30
0.0
 11
234.2476318842
 21
111.4449557275
 31
0.0
  0
LINE
  5
23E
330
1F
100
AcDbEntity
  8
0
  6
Continuous
 62
     7
370
    15
100
AcDbLine
 10
239.2476318842
 20
113.4449557275
 30
0.0
 11
239.2476318842
 21
111.4449557275
 31
0.0
  0
LINE
  5
23F
330
1F
100
AcDbEntity
  8
0
  6
Continuous
 62
     7
370
    15
100
AcDbLine
 10
244.2476318842
 20
113.4449557275
 30
0.0
 11
239.2476318842
 21
113.4449557275
 31
0.0
  0
LINE
  5
240
330
1F
100
AcDbEntity
  8
0
  6
Continuous
 62
     7
370
    15
100
AcDbLine
 10
244.2476318842
 20
111.4449557275
 30
0.0
 11
244.2476318842
 21
113.4449557275
 31
0.0
  0
LINE
  5
241
330
1F
100
AcDbEntity
  8
0
  6
Continuous
 62
     7
370
    15
100
AcDbLine
 10
249.2476318842
 20
111.4449557275
 30
0.0
 11
244.2476318842
 21
111.4449557275
 31
0.0
  0
LINE
  5
242
330
1F
100
AcDbEntity
  8
0
  6
Continuous
 62
     7
370
    15
100
AcDbLine
 10
249.2476318842
 20
113.4449557275
 30
0.0
 11
249.2476318842
 21
111.4449557275
 31
0.0
  0
LINE
  5
243
330
1F
100
AcDbEntity
  8
0
  6
Continuous
 62
     7
370
    15
100
AcDbLine
 10
254.2476318842
 20
113.4449557275
 30
0.0
 11
249.2476318842
 21
113.4449557275
 31
0.0
  0
LINE
  5
244
330
1F
100
AcDbEntity
  8
0
  6
Continuous
 62
     7
370
    15
100
AcDbLine
 10
254.2476318842
 20
111.4449557275
 30
0.0
 11
254.2476318842
 21
113.4449557275
 31
0.0
  0
LINE
  5
245
330
1F
100
AcDbEntity
  8
0
  6
Continuous
 62
     7
370
    15
100
AcDbLine
 10
260.5040753544
 20
111.4449557275
 30
0.0
 11
254.2476318842
 21
111.4449557275
 31
0.0
  0
LINE
  5
246
330
1F
100
AcDbEntity
  8
0
  6
Continuous
 62
     7
370
    15
100
AcDbLine
 10
261.281159459
 20
97.3674323645
 30
0.0
 11
260.5040753544
 21
111.4449557275
 31
0.0
  0
LINE
  5
247
330
1F
100
AcDbEntity
  8
0
  6
Continuous
 62
     7
370
    15
100
AcDbLine
 10
261.281159459
 20
97.3674323645
 30
0.0
 11
260.2826795249
 21
97.3123159306
 31
0.0
  0
LINE
  5
248
330
1F
100
AcDbEntity
  8
0
  6
Continuous
 62
     7
370
    15
100
AcDbLine
 10
260.2826795249
 20
97.3123159306
 30
0.0
 11
260.5582616943
 21
92.3199162603
 31
0.0
  0
LINE
  5
249
330
1F
100
AcDbEntity
  8
0
  6
Continuous
 62
     7
370
    15
100
AcDbLine
 10
260.5582616943
 20
92.3199162603
 30
0.0
 11
261.5567416283
 21
92.3750326942
 31
0.0
  0
LINE
  5
24A
330
1F
100
AcDbEntity
  8
0
  6
Continuous
 62
     7
370
    15
100
AcDbLine
 10
261.8323237977
 20
87.3826330239
 30
0.0
 11
260.8338438636
 21
87.32751659
 31
0.0
  0
LINE
  5
24B
330
1F
100
AcDbEntity
  8
0
  6
Continuous
 62
     7
370
    15
100
AcDbLine
 10
260.8338438636
 20
87.32751659
 30
0.0
 11
261.109426033
 21
82.3351169197
 31
0.0
  0
LINE
  5
24C
330
1F
100
AcDbEntity
  8
0
  6
Continuous
 62
     7
370
    15
100
AcDbLine
 10
261.109426033
 20
82.3351169197
 30
0.0
 11
262.107905967
 21
82.3902333536
 31
0.0
  0
LINE
  5
24D
330
1F
100
AcDbEntity
  8
0
  6
Continuous
 62
     7
370
    15
100
AcDbLine
 10
262.3834881364
 20
77.3978336833
 30
0.0
 11
261.3850082023
 21
77.3427172494
 31
0.0
  0
LINE
  5
24E
330
1F
100
AcDbEntity
  8
0
  6
Continuous
 62
     7
370
    15
100
AcDbLine
 10
261.3850082023
 20
77.3427172494
 30
0.0
 11
261.6605903717
 21
72.3503175791
 31
0.0
  0
LINE
  5
24F
330
1F
100
AcDbEntity
  8
0
  6
Continuous
 62
     7
370
    15
100
AcDbLine
 10
261.6605903717
 20
72.3503175791
 30
0.0
 11
262.6590703057
 21
72.405434013
 31
0.0
  0
LINE
  5
250
330
1F
100
AcDbEntity
  8
0
  6
Continuous
 62
     7
370
    15
100
AcDbLine
 10
265.863059203
 20
14.3625165327
 30
0.0
 11
265.084193396
 21
28.4723169144
 31
0.0
  0
LINE
  5
251
330
1F
100
AcDbEntity
  8
0
  6
Continuous
 62
     7
370
    15
100
AcDbLine
 10
262.3834881364
 20
77.3978336833
 30
0.0
 11
262.107905967
 21
82.3902333536
 31
0.0
  0
LINE
  5
252
330
1F
100
AcDbEntity
  8
0
  6
Continuous
 62
     7
370
    15
100
AcDbLine
 10
261.8323237977
 20
87.3826330239
 30
0.0
 11
261.5567416283
 21
92.3750326942
 31
0.0
  0
LINE
  5
253
330
1F
100
AcDbEntity
  8
0
  6
Continuous
 62
     7
370
    15
100
AcDbLine
 10
263.1000017767
 20
64.4175945405
 30
0.0
 11
262.6590703057
 21
72.405434013
 31
0.0
  0
LINE
  5
254
330
1F
100
AcDbEntity
  8
0
  6
Continuous
 62
     7
370
    15
100
AcDbLine
 10
276.382652401
 20
108.6398087404
 30
0.0
 11
276.382652401
 21
106.1398087404
 31
0.0
  0
LINE
  5
255
330
1F
100
AcDbEntity
  8
0
  6
Continuous
 62
     7
370
    15
100
AcDbLine
 10
276.382652401
 20
106.1398087404
 30
0.0
 11
281.382652401
 21
106.1398087404
 31
0.0
  0
LINE
  5
256
330
1F
100
AcDbEntity
  8
0
  6
Continuous
 62
     7
370
    15
100
AcDbLine
 10
281.382652401
 20
106.1398087404
 30
0.0
 11
281.382652401
 21
108.6398087404
 31
0.0
  0
LINE
  5
257
330
1F
100
AcDbEntity
  8
0
  6
Continuous
 62
     7
370
    15
100
AcDbLine
 10
281.382652401
 20
108.6398087404
 30
0.0
 11
276.382652401
 21
108.6398087404
 31
0.0
  0
LINE
  5
258
330
1F
100
AcDbEntity
  8
0
  6
Continuous
 62
     7
370
    15
100
AcDbLine
 10
286.382652401
 20
108.6398087404
 30
0.0
 11
286.382652401
 21
106.1398087404
 31
0.0
  0
LINE
  5
259
330
1F
100
AcDbEntity
  8
0
  6
Continuous
 62
     7
370
    15
100
AcDbLine
 10
286.382652401
 20
106.1398087404
 30
0.0
 11
291.382652401
 21
106.1398087404
 31
0.0
  0
LINE
  5
25A
330
1F
100
AcDbEntity
  8
0
  6
Continuous
 62
     7
370
    15
100
AcDbLine
 10
291.382652401
 20
106.1398087404
 30
0.0
 11
291.382652401
 21
108.6398087404
 31
0.0
  0
LINE
  5
25B
330
1F
100
AcDbEntity
  8
0
  6
Continuous
 62
     7
370
    15
100
AcDbLine
 10
291.382652401
 20
108.6398087404
 30
0.0
 11
286.382652401
 21
108.6398087404
 31
0.0
  0
LINE
  5
25C
330
1F
100
AcDbEntity
  8
0
  6
Continuous
 62
     7
370
    15
100
AcDbLine
 10
296.382652401
 20
108.6398087404
 30
0.0
 11
296.382652401
 21
106.1398087404
 31
0.0
  0
LINE
  5
25D
330
1F
100
AcDbEntity
  8
0
  6
Continuous
 62
     7
370
    15
100
AcDbLine
 10
296.382652401
 20
106.1398087404
 30
0.0
 11
301.382652401
 21
106.1398087404
 31
0.0
  0
LINE
  5
25E
330
1F
100
AcDbEntity
  8
0
  6
Continuous
 62
     7
370
    15
100
AcDbLine
 10
301.382652401
 20
106.1398087404
 30
0.0
 11
301.382652401
 21
108.6398087404
 31
0.0
  0
LINE
  5
25F
330
1F
100
AcDbEntity
  8
0
  6
Continuous
 62
     7
370
    15
100
AcDbLine
 10
301.382652401
 20
108.6398087404
 30
0.0
 11
296.382652401
 21
108.6398087404
 31
0.0
  0
ARC
  5
260
330
1F
100
AcDbEntity
  8
0
  6
Continuous
 62
     7
370
    15
100
AcDbCircle
 10
266.5381866989
 20
79.5573695457
 30
0.0
 40
18.00000000000001
100
AcDbArc
 50
273.1595401079
 51
93.1595401079
  0
LINE
  5
261
330
1F
100
AcDbEntity
  8
0
  6
Continuous
 62
     7
370
    15
100
AcDbLine
 10
276.382652401
 20
111.6398087404
 30
0.0
 11
264.7672250822
 21
111.6398087404
 31
0.0
  0
LINE
  5
262
330
1F
100
AcDbEntity
  8
0
  6
Continuous
 62
     7
370
    15
100
AcDbLine
 10
276.382652401
 20
113.6398087404
 30
0.0
 11
276.382652401
 21
111.6398087404
 31
0.0
  0
LINE
  5
263
330
1F
100
AcDbEntity
  8
0
  6
Continuous
 62
     7
370
    15
100
AcDbLine
 10
281.382652401
 20
113.6398087404
 30
0.0
 11
276.382652401
 21
113.6398087404
 31
0.0
  0
LINE
  5
264
330
1F
100
AcDbEntity
  8
0
  6
Continuous
 62
     7
370
    15
100
AcDbLine
 10
281.382652401
 20
111.6398087404
 30
0.0
 11
281.382652401
 21
113.6398087404
 31
0.0
  0
LINE
  5
265
330
1F
100
AcDbEntity
  8
0
  6
Continuous
 62
     7
370
    15
100
AcDbLine
 10
286.382652401
 20
111.6398087404
 30
0.0
 11
281.382652401
 21
111.6398087404
 31
0.0
  0
LINE
  5
266
330
1F
100
AcDbEntity
  8
0
  6
Continuous
 62
     7
370
    15
100
AcDbLine
 10
286.382652401
 20
113.6398087404
 30
0.0
 11
286.382652401
 21
111.6398087404
 31
0.0
  0
LINE
  5
267
330
1F
100
AcDbEntity
  8
0
  6
Continuous
 62
     7
370
    15
100
AcDbLine
 10
291.382652401
 20
113.6398087404
 30
0.0
 11
286.382652401
 21
113.6398087404
 31
0.0
  0
LINE
  5
268
330
1F
100
AcDbEntity
  8
0
  6
Continuous
 62
     7
370
    15
100
AcDbLine
 10
291.382652401
 20
111.6398087404
 30
0.0
 11
291.382652401
 21
113.6398087404
 31
0.0
  0
LINE
  5
269
330
1F
100
AcDbEntity
  8
0
  6
Continuous
 62
     7
370
    15
100
AcDbLine
 10
296.382652401
 20
111.6398087404
 30
0.0
 11
291.382652401
 21
111.6398087404
 31
0.0
  0
LINE
  5
26A
330
1F
100
AcDbEntity
  8
0
  6
Continuous
 62
     7
370
    15
100
AcDbLine
 10
296.382652401
 20
113.6398087404
 30
0.0
 11
296.382652401
 21
111.6398087404
 31
0.0
  0
LINE
  5
26B
330
1F
100
AcDbEntity
  8
0
  6
Continuous
 62
     7
370
    15
100
AcDbLine
 10
301.382652401
 20
113.6398087404
 30
0.0
 11
296.382652401
 21
113.6398087404
 31
0.0
  0
LINE
  5
26C
330
1F
100
AcDbEntity
  8
0
  6
Continuous
 62
     7
370
    15
100
AcDbLine
 10
301.382652401
 20
111.6398087404
 30
0.0
 11
301.382652401
 21
113.6398087404
 31
0.0
  0
LINE
  5
26D
330
1F
100
AcDbEntity
  8
0
  6
Continuous
 62
     7
370
    15
100
AcDbLine
 10
312.9980797198
 20
111.6398087404
 30
0.0
 11
301.382652401
 21
111.6398087404
 31
0.0
  0
LINE
  5
26E
330
1F
100
AcDbEntity
  8
0
  6
Continuous
 62
     7
370
    15
100
AcDbLine
 10
307.6390958712
 20
14.5573695457
 30
0.0
 11
312.9980797198
 21
111.6398087404
 31
0.0
  0
LINE
  5
26F
330
1F
100
AcDbEntity
  8
0
  6
Continuous
 62
     7
370
    15
100
AcDbLine
 10
301.382652401
 20
14.5573695457
 30
0.0
 11
307.6390958712
 21
14.5573695457
 31
0.0
  0
LINE
  5
270
330
1F
100
AcDbEntity
  8
0
  6
Continuous
 62
     7
370
    15
100
AcDbLine
 10
301.382652401
 20
12.5573695457
 30
0.0
 11
301.382652401
 21
14.5573695457
 31
0.0
  0
LINE
  5
271
330
1F
100
AcDbEntity
  8
0
  6
Continuous
 62
     7
370
    15
100
AcDbLine
 10
296.382652401
 20
12.5573695457
 30
0.0
 11
301.382652401
 21
12.5573695457
 31
0.0
  0
LINE
  5
272
330
1F
100
AcDbEntity
  8
0
  6
Continuous
 62
     7
370
    15
100
AcDbLine
 10
296.382652401
 20
14.5573695457
 30
0.0
 11
296.382652401
 21
12.5573695457
 31
0.0
  0
LINE
  5
273
330
1F
100
AcDbEntity
  8
0
  6
Continuous
 62
     7
370
    15
100
AcDbLine
 10
291.382652401
 20
14.5573695457
 30
0.0
 11
296.382652401
 21
14.5573695457
 31
0.0
  0
LINE
  5
274
330
1F
100
AcDbEntity
  8
0
  6
Continuous
 62
     7
370
    15
100
AcDbLine
 10
291.382652401
 20
12.5573695457
 30
0.0
 11
291.382652401
 21
14.5573695457
 31
0.0
  0
LINE
  5
275
330
1F
100
AcDbEntity
  8
0
  6
Continuous
 62
     7
370
    15
100
AcDbLine
 10
286.382652401
 20
12.5573695457
 30
0.0
 11
291.382652401
 21
12.5573695457
 31
0.0
  0
LINE
  5
276
330
1F
100
AcDbEntity
  8
0
  6
Continuous
 62
     7
370
    15
100
AcDbLine
 10
286.382652401
 20
14.5573695457
 30
0.0
 11
286.382652401
 21
12.5573695457
 31
0.0
  0
LINE
  5
277
330
1F
100
AcDbEntity
  8
0
  6
Continuous
 62
     7
370
    15
100
AcDbLine
 10
281.382652401
 20
14.5573695457
 30
0.0
 11
286.382652401
 21
14.5573695457
 31
0.0
  0
LINE
  5
278
330
1F
100
AcDbEntity
  8
0
  6
Continuous
 62
     7
370
    15
100
AcDbLine
 10
281.382652401
 20
12.5573695457
 30
0.0
 11
281.382652401
 21
14.5573695457
 31
0.0
  0
LINE
  5
279
330
1F
100
AcDbEntity
  8
0
  6
Continuous
 62
     7
370
    15
100
AcDbLine
 10
276.382652401
 20
12.5573695457
 30
0.0
 11
281.382652401
 21
12.5573695457
 31
0.0
  0
LINE
  5
27A
330
1F
100
AcDbEntity
  8
0
  6
Continuous
 62
     7
370
    15
100
AcDbLine
 10
276.382652401
 20
14.5573695457
 30
0.0
 11
276.382652401
 21
12.5573695457
 31
0.0
  0
LINE
  5
27B
330
1F
100
AcDbEntity
  8
0
  6
Continuous
 62
     7
370
    15
100
AcDbLine
 10
270.1262089308
 20
14.5573695457
 30
0.0
 11
276.382652401
 21
14.5573695457
 31
0.0
  0
LINE
  5
27C
330
1F
100
AcDbEntity
  8
0
  6
Continuous
 62
     7
370
    15
100
AcDbLine
 10
269.3491248262
 20
28.6348929087
 30
0.0
 11
270.1262089308
 21
14.5573695457
 31
0.0
  0
LINE
  5
27D
330
1F
100
AcDbEntity
  8
0
  6
Continuous
 62
     7
370
    15
100
AcDbLine
 10
269.3491248262
 20
28.6348929087
 30
0.0
 11
270.3476047603
 21
28.6900093426
 31
0.0
  0
LINE
  5
27E
330
1F
100
AcDbEntity
  8
0
  6
Continuous
 62
     7
370
    15
100
AcDbLine
 10
270.3476047603
 20
28.6900093426
 30
0.0
 11
270.0720225909
 21
33.6824090129
 31
0.0
  0
LINE
  5
27F
330
1F
100
AcDbEntity
  8
0
  6
Continuous
 62
     7
370
    15
100
AcDbLine
 10
270.0720225909
 20
33.6824090129
 30
0.0
 11
269.0735426569
 21
33.627292579
 31
0.0
  0
LINE
  5
280
330
1F
100
AcDbEntity
  8
0
  6
Continuous
 62
     7
370
    15
100
AcDbLine
 10
268.7979604875
 20
38.6196922493
 30
0.0
 11
269.7964404216
 21
38.6748086832
 31
0.0
  0
LINE
  5
281
330
1F
100
AcDbEntity
  8
0
  6
Continuous
 62
     7
370
    15
100
AcDbLine
 10
269.7964404216
 20
38.6748086832
 30
0.0
 11
269.5208582522
 21
43.6672083535
 31
0.0
  0
LINE
  5
282
330
1F
100
AcDbEntity
  8
0
  6
Continuous
 62
     7
370
    15
100
AcDbLine
 10
269.5208582522
 20
43.6672083535
 30
0.0
 11
268.5223783182
 21
43.6120919196
 31
0.0
  0
LINE
  5
283
330
1F
100
AcDbEntity
  8
0
  6
Continuous
 62
     7
370
    15
100
AcDbLine
 10
268.2467961488
 20
48.6044915899
 30
0.0
 11
269.2452760829
 21
48.6596080238
 31
0.0
  0
LINE
  5
284
330
1F
100
AcDbEntity
  8
0
  6
Continuous
 62
     7
370
    15
100
AcDbLine
 10
269.2452760829
 20
48.6596080238
 30
0.0
 11
268.9696939136
 21
53.6520076941
 31
0.0
  0
LINE
  5
285
330
1F
100
AcDbEntity
  8
0
  6
Continuous
 62
     7
370
    15
100
AcDbLine
 10
268.9696939136
 20
53.6520076941
 30
0.0
 11
267.9712139795
 21
53.5968912602
 31
0.0
  0
LINE
  5
286
330
1F
100
AcDbEntity
  8
0
  6
Continuous
 62
     7
370
    15
100
AcDbLine
 10
264.7672250822
 20
111.6398087404
 30
0.0
 11
265.5460908892
 21
97.5300083588
 31
0.0
  0
LINE
  5
287
330
1F
100
AcDbEntity
  8
0
  6
Continuous
 62
     7
370
    15
100
AcDbLine
 10
268.2467961488
 20
48.6044915899
 30
0.0
 11
268.5223783182
 21
43.6120919196
 31
0.0
  0
LINE
  5
288
330
1F
100
AcDbEntity
  8
0
  6
Continuous
 62
     7
370
    15
100
AcDbLine
 10
268.7979604875
 20
38.6196922493
 30
0.0
 11
269.0735426569
 21
33.627292579
 31
0.0
  0
LINE
  5
289
330
1F
100
AcDbEntity
  8
0
  6
Continuous
 62
     7
370
    15
100
AcDbLine
 10
267.5302825085
 20
61.5847307326
 30
0.0
 11
267.9712139795
 21
53.5968912602
 31
0.0
  0
LINE
  5
28A
330
1F
100
AcDbEntity
  8
0
  6
Continuous
 62
     7
370
    15
100
AcDbLine
 10
173.5431998728
 20
105.215718337
 30
0.0
 11
178.5431998728
 21
105.215718337
 31
0.0
  0
LINE
  5
28B
330
1F
100
AcDbEntity
  8
0
  6
Continuous
 62
     7
370
    15
100
AcDbLine
 10
178.5431998728
 20
105.215718337
 30
0.0
 11
178.5431998728
 21
107.715718337
 31
0.0
  0
LINE
  5
28C
330
1F
100
AcDbEntity
  8
0
  6
Continuous
 62
     7
370
    15
100
AcDbLine
 10
178.5431998728
 20
107.715718337
 30
0.0
 11
173.5431998728
 21
107.715718337
 31
0.0
  0
LINE
  5
28D
330
1F
100
AcDbEntity
  8
0
  6
Continuous
 62
     7
370
    15
100
AcDbLine
 10
173.5431998728
 20
107.715718337
 30
0.0
 11
173.5431998728
 21
105.215718337
 31
0.0
  0
LINE
  5
28E
330
1F
100
AcDbEntity
  8
0
  6
Continuous
 62
     7
370
    15
100
AcDbLine
 10
163.5431998728
 20
105.215718337
 30
0.0
 11
168.5431998728
 21
105.215718337
 31
0.0
  0
LINE
  5
28F
330
1F
100
AcDbEntity
  8
0
  6
Continuous
 62
     7
370
    15
100
AcDbLine
 10
168.5431998728
 20
105.215718337
 30
0.0
 11
168.5431998728
 21
107.715718337
 31
0.0
  0
LINE
  5
290
330
1F
100
AcDbEntity
  8
0
  6
Continuous
 62
     7
370
    15
100
AcDbLine
 10
168.5431998728
 20
107.715718337
 30
0.0
 11
163.5431998728
 21
107.715718337
 31
0.0
  0
LINE
  5
291
330
1F
100
AcDbEntity
  8
0
  6
Continuous
 62
     7
370
    15
100
AcDbLine
 10
163.5431998728
 20
107.715718337
 30
0.0
 11
163.5431998728
 21
105.215718337
 31
0.0
  0
LINE
  5
292
330
1F
100
AcDbEntity
  8
0
  6
Continuous
 62
     7
370
    15
100
AcDbLine
 10
183.5431998728
 20
105.215718337
 30
0.0
 11
188.5431998728
 21
105.215718337
 31
0.0
  0
LINE
  5
293
330
1F
100
AcDbEntity
  8
0
  6
Continuous
 62
     7
370
    15
100
AcDbLine
 10
188.5431998728
 20
105.215718337
 30
0.0
 11
188.5431998728
 21
107.715718337
 31
0.0
  0
LINE
  5
294
330
1F
100
AcDbEntity
  8
0
  6
Continuous
 62
     7
370
    15
100
AcDbLine
 10
188.5431998728
 20
107.715718337
 30
0.0
 11
183.5431998728
 21
107.715718337
 31
0.0
  0
LINE
  5
295
330
1F
100
AcDbEntity
  8
0
  6
Continuous
 62
     7
370
    15
100
AcDbLine
 10
183.5431998728
 20
107.715718337
 30
0.0
 11
183.5431998728
 21
105.215718337
 31
0.0
  0
LINE
  5
296
330
1F
100
AcDbEntity
  8
0
  6
Continuous
 62
     7
370
    15
100
AcDbLine
 10
151.927772554
 20
110.715718337
 30
0.0
 11
157.2867564026
 21
13.6332791423
 31
0.0
  0
LINE
  5
297
330
1F
100
AcDbEntity
  8
0
  6
Continuous
 62
     7
370
    15
100
AcDbLine
 10
157.2867564026
 20
13.6332791423
 30
0.0
 11
163.5431998728
 21
13.6332791423
 31
0.0
  0
LINE
  5
298
330
1F
100
AcDbEntity
  8
0
  6
Continuous
 62
     7
370
    15
100
AcDbLine
 10
163.5431998728
 20
13.6332791423
 30
0.0
 11
163.5431998728
 21
11.6332791423
 31
0.0
  0
LINE
  5
299
330
1F
100
AcDbEntity
  8
0
  6
Continuous
 62
     7
370
    15
100
AcDbLine
 10
163.5431998728
 20
11.6332791423
 30
0.0
 11
168.5431998728
 21
11.6332791423
 31
0.0
  0
LINE
  5
29A
330
1F
100
AcDbEntity
  8
0
  6
Continuous
 62
     7
370
    15
100
AcDbLine
 10
168.5431998728
 20
11.6332791423
 30
0.0
 11
168.5431998728
 21
13.6332791423
 31
0.0
  0
LINE
  5
29B
330
1F
100
AcDbEntity
  8
0
  6
Continuous
 62
     7
370
    15
100
AcDbLine
 10
168.5431998728
 20
13.6332791423
 30
0.0
 11
173.5431998728
 21
13.6332791423
 31
0.0
  0
LINE
  5
29C
330
1F
100
AcDbEntity
  8
0
  6
Continuous
 62
     7
370
    15
100
AcDbLine
 10
173.5431998728
 20
13.6332791423
 30
0.0
 11
173.5431998728
 21
11.6332791423
 31
0.0
  0
LINE
  5
29D
330
1F
100
AcDbEntity
  8
0
  6
Continuous
 62
     7
370
    15
100
AcDbLine
 10
173.5431998728
 20
11.6332791423
 30
0.0
 11
178.5431998728
 21
11.6332791423
 31
0.0
  0
LINE
  5
29E
330
1F
100
AcDbEntity
  8
0
  6
Continuous
 62
     7
370
    15
100
AcDbLine
 10
178.5431998728
 20
11.6332791423
 30
0.0
 11
178.5431998728
 21
13.6332791423
 31
0.0
  0
LINE
  5
29F
330
1F
100
AcDbEntity
  8
0
  6
Continuous
 62
     7
370
    15
100
AcDbLine
 10
178.5431998728
 20
13.6332791423
 30
0.0
 11
183.5431998728
 21
13.6332791423
 31
0.0
  0
LINE
  5
2A0
330
1F
100
AcDbEntity
  8
0
  6
Continuous
 62
     7
370
    15
100
AcDbLine
 10
183.5431998728
 20
13.6332791423
 30
0.0
 11
183.5431998728
 21
11.6332791423
 31
0.0
  0
LINE
  5
2A1
330
1F
100
AcDbEntity
  8
0
  6
Continuous
 62
     7
370
    15
100
AcDbLine
 10
183.5431998728
 20
11.6332791423
 30
0.0
 11
188.5431998728
 21
11.6332791423
 31
0.0
  0
LINE
  5
2A2
330
1F
100
AcDbEntity
  8
0
  6
Continuous
 62
     7
370
    15
100
AcDbLine
 10
188.5431998728
 20
11.6332791423
 30
0.0
 11
188.5431998728
 21
13.6332791423
 31
0.0
  0
LINE
  5
2A3
330
1F
100
AcDbEntity
  8
0
  6
Continuous
 62
     7
370
    15
100
AcDbLine
 10
188.5431998728
 20
13.6332791423
 30
0.0
 11
194.799643343
 21
13.6332791423
 31
0.0
  0
LINE
  5
2A4
330
1F
100
AcDbEntity
  8
0
  6
Continuous
 62
     7
370
    15
100
AcDbLine
 10
194.799643343
 20
13.6332791423
 30
0.0
 11
200.1586271916
 21
110.715718337
 31
0.0
  0
LINE
  5
2A5
330
1F
100
AcDbEntity
  8
0
  6
Continuous
 62
     7
370
    15
100
AcDbLine
 10
200.1586271916
 20
110.715718337
 30
0.0
 11
188.5431998728
 21
110.715718337
 31
0.0
  0
LINE
  5
2A6
330
1F
100
AcDbEntity
  8
0
  6
Continuous
 62
     7
370
    15
100
AcDbLine
 10
188.5431998728
 20
110.715718337
 30
0.0
 11
188.5431998728
 21
112.715718337
 31
0.0
  0
LINE
  5
2A7
330
1F
100
AcDbEntity
  8
0
  6
Continuous
 62
     7
370
    15
100
AcDbLine
 10
188.5431998728
 20
112.715718337
 30
0.0
 11
183.5431998728
 21
112.715718337
 31
0.0
  0
LINE
  5
2A8
330
1F
100
AcDbEntity
  8
0
  6
Continuous
 62
     7
370
    15
100
AcDbLine
 10
183.5431998728
 20
112.715718337
 30
0.0
 11
183.5431998728
 21
110.715718337
 31
0.0
  0
LINE
  5
2A9
330
1F
100
AcDbEntity
  8
0
  6
Continuous
 62
     7
370
    15
100
AcDbLine
 10
183.5431998728
 20
110.715718337
 30
0.0
 11
178.5431998728
 21
110.715718337
 31
0.0
  0
LINE
  5
2AA
330
1F
100
AcDbEntity
  8
0
  6
Continuous
 62
     7
370
    15
100
AcDbLine
 10
178.5431998728
 20
110.715718337
 30
0.0
 11
178.5431998728
 21
112.715718337
 31
0.0
  0
LINE
  5
2AB
330
1F
100
AcDbEntity
  8
0
  6
Continuous
 62
     7
370
    15
100
AcDbLine
 10
178.5431998728
 20
112.715718337
 30
0.0
 11
173.5431998728
 21
112.715718337
 31
0.0
  0
LINE
  5
2AC
330
1F
100
AcDbEntity
  8
0
  6
Continuous
 62
     7
370
    15
100
AcDbLine
 10
173.5431998728
 20
112.715718337
 30
0.0
 11
173.5431998728
 21
110.715718337
 31
0.0
  0
LINE
  5
2AD
330
1F
100
AcDbEntity
  8
0
  6
Continuous
 62
     7
370
    15
100
AcDbLine
 10
173.5431998728
 20
110.715718337
 30
0.0
 11
168.5431998728
 21
110.715718337
 31
0.0
  0
LINE
  5
2AE
330
1F
100
AcDbEntity
  8
0
  6
Continuous
 62
     7
370
    15
100
AcDbLine
 10
168.5431998728
 20
110.715718337
 30
0.0
 11
168.5431998728
 21
112.715718337
 31
0.0
  0
LINE
  5
2AF
330
1F
100
AcDbEntity
  8
0
  6
Continuous
 62
     7
370
    15
100
AcDbLine
 10
168.5431998728
 20
112.715718337
 30
0.0
 11
163.5431998728
 21
112.715718337
 31
0.0
  0
LINE
  5
2B0
330
1F
100
AcDbEntity
  8
0
  6
Continuous
 62
     7
370
    15
100
AcDbLine
 10
163.5431998728
 20
112.715718337
 30
0.0
 11
163.5431998728
 21
110.715718337
 31
0.0
  0
LINE
  5
2B1
330
1F
100
AcDbEntity
  8
0
  6
Continuous
 62
     7
370
    15
100
AcDbLine
 10
163.5431998728
 20
110.715718337
 30
0.0
 11
151.927772554
 21
110.715718337
 31
0.0
  0
LINE
  5
2B2
330
1F
100
AcDbEntity
  8
0
  6
Continuous
 62
     7
370
    15
100
AcDbLine
 10
341.8852994479
 20
169.4517412658
 30
0.0
 11
342.0358792532
 21
170.1626251424
 31
0.0
  0
LINE
  5
2B3
330
1F
100
AcDbEntity
  8
0
  6
Continuous
 62
     7
370
    15
100
AcDbLine
 10
327.7289047168
 20
186.8403278317
 30
0.0
 11
327.8794841728
 21
187.5512105986
 31
0.0
  0
LINE
  5
2B4
330
1F
100
AcDbEntity
  8
0
  6
Continuous
 62
     7
370
    15
100
AcDbLine
 10
341.1626109453
 20
166.7569534016
 30
0.0
 11
341.8697175391
 21
167.1651581665
 31
0.0
  0
LINE
  5
2B5
330
1F
100
AcDbEntity
  8
0
  6
Continuous
 62
     7
370
    15
100
AcDbLine
 10
322.0982253204
 20
173.5262934476
 30
0.0
 11
322.8053314486
 21
173.9344977469
 31
0.0
  0
ARC
  5
2B6
330
1F
100
AcDbEntity
  8
0
  6
Continuous
 62
     7
370
    15
100
AcDbCircle
 10
317.6970002106
 20
183.6846501331
 30
0.0
 40
2.01788511673511
100
AcDbArc
 50
220.2163451893
 51
296.2482302092
  0
LINE
  5
2B7
330
1F
100
AcDbEntity
  8
0
  6
Continuous
 62
     7
370
    15
100
AcDbLine
 10
322.8297648223
 20
184.3227261885
 30
0.0
 11
316.1561191971
 21
182.3817510401
 31
0.0
  0
LINE
  5
2B8
330
1F
100
AcDbEntity
  8
0
  6
Continuous
 62
     7
370
    15
100
AcDbLine
 10
323.1879385988
 20
184.5294958375
 30
0.0
 11
322.8297648223
 21
184.3227261885
 31
0.0
  0
LINE
  5
2B9
330
1F
100
AcDbEntity
  8
0
  6
Continuous
 62
     7
370
    15
100
AcDbLine
 10
327.1428274671
 20
188.7242435363
 30
0.0
 11
323.1879385988
 21
184.5294958375
 31
0.0
  0
LWPOLYLINE
  5
2BA
330
1F
100
AcDbEntity
  8
0
  6
Continuous
 62
     7
370
    15
100
AcDbPolyline
 90
        9
 70
   128
 43
0.0
 10
327.4282681214
 20
186.9773866919
 10
327.6514190619
 20
187.1458051318
 10
327.8066659862
 20
187.3521651264
 10
327.8859486671
 20
187.5857514692
 10
327.885153835
 20
187.8344357885
 10
327.8043219773
 20
188.0853055065
 10
327.647645798
 20
188.3253375585
 10
327.423264873
 20
188.5420669681
 10
327.1428274671
 20
188.7242435363
  0
LWPOLYLINE
  5
2BB
330
1F
100
AcDbEntity
  8
0
  6
Continuous
 62
     7
370
    15
100
AcDbPolyline
 90
        8
 70
   128
 43
0.0
 10
329.3364761968
 20
181.6666283868
 10
328.2190074952
 20
182.7261775186
 10
327.3970581975
 20
183.7834518057
 10
326.8888221104
 20
184.7878316403
 10
326.7244563056
 20
185.475953164
 10
326.7544600114
 20
186.0844900904
 10
326.986506153
 20
186.5920852975
 10
327.4282681214
 20
186.9773866919
  0
LINE
  5
2BC
330
1F
100
AcDbEntity
  8
0
  6
Continuous
 62
     7
370
    15
100
AcDbLine
 10
341.3579139511
 20
171.7011958384
 30
0.0
 11
329.3364761968
 21
181.6666283868
 31
0.0
  0
LWPOLYLINE
  5
2BD
330
1F
100
AcDbEntity
  8
0
  6
Continuous
 62
     7
370
    15
100
AcDbPolyline
 90
       12
 70
   128
 43
0.0
 10
337.8223805498
 20
169.6601758828
 10
338.3806044221
 20
169.2981234921
 10
339.0368107446
 20
169.0480808743
 10
339.7378544602
 20
168.930298446
 10
340.426922645
 20
168.9543259151
 10
341.0482078573
 20
169.1182101326
 10
341.5513681548
 20
169.4086767147
 10
341.8956393706
 20
169.8021962323
 10
342.0531359967
 20
170.2668825701
 10
342.0110924837
 20
170.7650957184
 10
341.7729187566
 20
171.256469682
 10
341.3579139511
 20
171.7011958384
  0
LINE
  5
2BE
330
1F
100
AcDbEntity
  8
0
  6
Continuous
 62
     7
370
    15
100
AcDbLine
 10
325.8009391036
 20
179.6256090409
 30
0.0
 11
337.8223805498
 21
169.6601758828
 31
0.0
  0
LWPOLYLINE
  5
2BF
330
1F
100
AcDbEntity
  8
0
  6
Continuous
 62
     7
370
    15
100
AcDbPolyline
 90
        8
 70
   128
 43
0.0
 10
318.5894320736
 20
181.8748364095
 10
319.2164762703
 20
182.1065423501
 10
319.9799175626
 20
182.1736290216
 10
320.8507545677
 20
182.0851380023
 10
321.7999928208
 20
181.8501137481
 10
323.1374725746
 20
181.3244446728
 10
324.4940362618
 20
180.5757971641
 10
325.8009391036
 20
179.6256090409
  0
LINE
  5
2C0
330
1F
100
AcDbEntity
  8
0
  6
Continuous
 62
     7
370
    15
100
AcDbLine
 10
339.236595101
 20
170.4765824749
 30
0.0
 11
339.9437016948
 21
170.8847872398
 31
0.0
  0
LINE
  5
2C1
330
1F
100
AcDbEntity
  8
0
  6
Continuous
 62
     7
370
    15
100
AcDbLine
 10
339.9437016948
 20
170.8847872398
 30
0.0
 11
335.7983758517
 21
174.3211434977
 31
0.0
  0
LINE
  5
2C2
330
1F
100
AcDbEntity
  8
0
  6
Continuous
 62
     7
370
    15
100
AcDbLine
 10
335.7983758517
 20
174.3211434977
 30
0.0
 11
335.0912701892
 21
173.912939664
 31
0.0
  0
LINE
  5
2C3
330
1F
100
AcDbEntity
  8
0
  6
Continuous
 62
     7
370
    15
100
AcDbLine
 10
335.0912701892
 20
173.912939664
 30
0.0
 11
339.236595101
 21
170.4765824749
 31
0.0
  0
LINE
  5
2C4
330
1F
100
AcDbEntity
  8
0
  6
Continuous
 62
     7
370
    15
100
AcDbLine
 10
330.9459471066
 20
177.3492959019
 30
0.0
 11
331.6530532347
 21
177.7575002012
 31
0.0
  0
LINE
  5
2C5
330
1F
100
AcDbEntity
  8
0
  6
Continuous
 62
     7
370
    15
100
AcDbLine
 10
331.6530532347
 20
177.7575002012
 30
0.0
 11
327.5077273916
 21
181.1938564591
 31
0.0
  0
LINE
  5
2C6
330
1F
100
AcDbEntity
  8
0
  6
Continuous
 62
     7
370
    15
100
AcDbLine
 10
327.5077273916
 20
181.1938564591
 30
0.0
 11
326.8006212634
 21
180.7856521598
 31
0.0
  0
LINE
  5
2C7
330
1F
100
AcDbEntity
  8
0
  6
Continuous
 62
     7
370
    15
100
AcDbLine
 10
326.8006212634
 20
180.7856521598
 30
0.0
 11
330.9459471066
 21
177.3492959019
 31
0.0
  0
LINE
  5
2C8
330
1F
100
AcDbEntity
  8
0
  6
Continuous
 62
     7
370
    15
100
AcDbLine
 10
337.6718007445
 20
168.9492920062
 30
0.0
 11
337.8223805498
 21
169.6601758828
 31
0.0
  0
LWPOLYLINE
  5
2C9
330
1F
100
AcDbEntity
  8
0
  6
Continuous
 62
     7
370
    15
100
AcDbPolyline
 90
        9
 70
   128
 43
0.0
 10
337.6718007445
 20
168.9492920062
 10
338.2300181644
 20
168.587241766
 10
338.8862309393
 20
168.3371969977
 10
339.5872682026
 20
168.2194174804
 10
340.2763437711
 20
168.2434429697
 10
340.897628052
 20
168.4073262561
 10
341.4007828285
 20
168.6977959199
 10
341.7450595653
 20
169.0913123557
 10
341.8852994479
 20
169.4517412658
  0
LINE
  5
2CA
330
1F
100
AcDbEntity
  8
0
  6
Continuous
 62
     7
370
    15
100
AcDbLine
 10
325.650359764
 20
178.9147263904
 30
0.0
 11
325.8009391036
 21
179.6256090409
 31
0.0
  0
LINE
  5
2CB
330
1F
100
AcDbEntity
  8
0
  6
Continuous
 62
     7
370
    15
100
AcDbLine
 10
325.650359764
 20
178.9147263904
 30
0.0
 11
337.6718007445
 21
168.9492920062
 31
0.0
  0
LINE
  5
2CC
330
1F
100
AcDbEntity
  8
0
  6
Continuous
 62
     7
370
    15
100
AcDbLine
 10
318.4388531996
 20
181.1639527036
 30
0.0
 11
318.5894320736
 21
181.8748364095
 31
0.0
  0
LWPOLYLINE
  5
2CD
330
1F
100
AcDbEntity
  8
0
  6
Continuous
 62
     7
370
    15
100
AcDbPolyline
 90
        8
 70
   128
 43
0.0
 10
318.4388531996
 20
181.1639527036
 10
319.0658973963
 20
181.3956601652
 10
319.8293349968
 20
181.4627459255
 10
320.7001752281
 20
181.3742538309
 10
321.6494102549
 20
181.1392306519
 10
322.986893235
 20
180.6135620223
 10
324.3434532303
 20
179.8649136024
 10
325.650359764
 20
178.9147263904
  0
LINE
  5
2CE
330
1F
100
AcDbEntity
  8
0
  6
Continuous
 62
     7
370
    15
100
AcDbLine
 10
316.005537097
 20
181.6708684095
 30
0.0
 11
316.1561191971
 21
182.3817510401
 31
0.0
  0
ARC
  5
2CF
330
1F
100
AcDbEntity
  8
0
  6
Continuous
 62
     7
370
    15
100
AcDbCircle
 10
317.5464221673
 20
182.9737774575
 30
0.0
 40
2.017894642223882
100
AcDbArc
 50
220.216486656
 51
296.2480705449
  0
LINE
  5
2D0
330
1F
100
AcDbEntity
  8
0
  6
Continuous
 62
     7
370
    15
100
AcDbLine
 10
327.2776887817
 20
186.2665025204
 30
0.0
 11
327.4282681214
 21
186.9773866919
 31
0.0
  0
LWPOLYLINE
  5
2D1
330
1F
100
AcDbEntity
  8
0
  6
Continuous
 62
     7
370
    15
100
AcDbPolyline
 90
        3
 70
   128
 43
0.0
 10
326.733376073
 20
185.6568808082
 10
326.8359265806
 20
185.8812024142
 10
327.2776887817
 20
186.2665025204
  0
ARC
  5
2D2
330
1F
100
AcDbEntity
  8
0
  6
Continuous
 62
     7
370
    15
100
AcDbCircle
 10
326.8697254473
 20
187.0516111633
 30
0.0
 40
0.8847766177896097
100
AcDbArc
 50
297.457588481
 51
346.1843621197
  0
LINE
  5
2D3
330
1F
100
AcDbEntity
  8
0
  6
Continuous
 62
     7
370
    15
100
AcDbLine
 10
293.9727790416
 20
241.1432043089
 30
0.0
 11
293.8389833216
 21
240.8115571181
 31
0.0
  0
LINE
  5
2D4
330
1F
100
AcDbEntity
  8
0
  6
Continuous
 62
     7
370
    15
100
AcDbLine
 10
293.9727790416
 20
241.1432043089
 30
0.0
 11
344.5288036735
 21
230.8217793159
 31
0.0
  0
LINE
  5
2D5
330
1F
100
AcDbEntity
  8
0
  6
Continuous
 62
     7
370
    15
100
AcDbLine
 10
344.5288036735
 20
230.8217793159
 30
0.0
 11
344.4896196833
 21
230.7246557156
 31
0.0
  0
LINE
  5
2D6
330
1F
100
AcDbEntity
  8
0
  6
Continuous
 62
     7
370
    15
100
AcDbLine
 10
334.7277745224
 20
236.116884248
 30
0.0
 11
335.977774117
 21
234.8670206178
 31
0.0
  0
LINE
  5
2D7
330
1F
100
AcDbEntity
  8
0
  6
Continuous
 62
     7
370
    15
100
AcDbLine
 10
335.977774117
 20
234.8670206178
 30
0.0
 11
336.9163698938
 21
234.7909381303
 31
0.0
  0
LINE
  5
2D8
330
1F
100
AcDbEntity
  8
0
  6
Continuous
 62
     7
370
    15
100
AcDbLine
 10
336.9163698938
 20
234.7909381303
 30
0.0
 11
335.6663721619
 21
236.0408036228
 31
0.0
  0
LINE
  5
2D9
330
1F
100
AcDbEntity
  8
0
  6
Continuous
 62
     7
370
    15
100
AcDbLine
 10
335.6663721619
 20
236.0408036228
 30
0.0
 11
334.7277745224
 21
236.116884248
 31
0.0
  0
LINE
  5
2DA
330
1F
100
AcDbEntity
  8
0
  6
Continuous
 62
     7
370
    15
100
AcDbLine
 10
329.7277731677
 20
241.1163422438
 30
0.0
 11
330.9777743753
 21
239.866478076
 31
0.0
  0
LINE
  5
2DB
330
1F
100
AcDbEntity
  8
0
  6
Continuous
 62
     7
370
    15
100
AcDbLine
 10
330.9777743753
 20
239.866478076
 30
0.0
 11
331.9163720148
 21
239.7903974509
 31
0.0
  0
LINE
  5
2DC
330
1F
100
AcDbEntity
  8
0
  6
Continuous
 62
     7
370
    15
100
AcDbLine
 10
331.9163720148
 20
239.7903974509
 30
0.0
 11
330.6663708072
 21
241.0402616187
 31
0.0
  0
LINE
  5
2DD
330
1F
100
AcDbEntity
  8
0
  6
Continuous
 62
     7
370
    15
100
AcDbLine
 10
330.6663708072
 20
241.0402616187
 30
0.0
 11
329.7277731677
 21
241.1163422438
 31
0.0
  0
LINE
  5
2DE
330
1F
100
AcDbEntity
  8
0
  6
Continuous
 62
     7
370
    15
100
AcDbLine
 10
344.5288036735
 20
230.8217793159
 30
0.0
 11
330.9823587244
 21
244.3667586471
 31
0.0
  0
LINE
  5
2DF
330
1F
100
AcDbEntity
  8
0
  6
Continuous
 62
     7
370
    15
100
AcDbLine
 10
330.9823587244
 20
244.3667586471
 30
0.0
 11
293.9727790416
 21
241.1432043089
 31
0.0
  0
LINE
  5
2E0
330
1F
100
AcDbEntity
  8
0
  6
Continuous
 62
     7
370
    15
100
AcDbLine
 10
332.2277755829
 20
238.6166139083
 30
0.0
 11
333.4777733148
 21
237.3667484157
 31
0.0
  0
LINE
  5
2E1
330
1F
100
AcDbEntity
  8
0
  6
Continuous
 62
     7
370
    15
100
AcDbLine
 10
333.4777733148
 20
237.3667484157
 30
0.0
 11
334.4163709543
 21
237.2906677906
 31
0.0
  0
LINE
  5
2E2
330
1F
100
AcDbEntity
  8
0
  6
Continuous
 62
     7
370
    15
100
AcDbLine
 10
334.4163709543
 20
237.2906677906
 30
0.0
 11
333.1663713598
 21
238.5405314207
 31
0.0
  0
LINE
  5
2E3
330
1F
100
AcDbEntity
  8
0
  6
Continuous
 62
     7
370
    15
100
AcDbLine
 10
333.1663713598
 20
238.5405314207
 30
0.0
 11
332.2277755829
 21
238.6166139083
 31
0.0
  0
LINE
  5
2E4
330
1F
100
AcDbEntity
  8
0
  6
Continuous
 62
     7
370
    15
100
AcDbLine
 10
335.6663721619
 20
236.0408036228
 30
0.0
 11
335.6160140779
 21
235.9159786696
 31
0.0
  0
LINE
  5
2E5
330
1F
100
AcDbEntity
  8
0
  6
Continuous
 62
     7
370
    15
100
AcDbLine
 10
333.1663713598
 20
238.5405314207
 30
0.0
 11
333.1160116626
 21
238.4157070051
 31
0.0
  0
LINE
  5
2E6
330
1F
100
AcDbEntity
  8
0
  6
Continuous
 62
     7
370
    15
100
AcDbLine
 10
330.6663708072
 20
241.0402616187
 30
0.0
 11
330.6160127231
 21
240.9154366655
 31
0.0
  0
LINE
  5
2E7
330
1F
100
AcDbEntity
  8
0
  6
Continuous
 62
     7
370
    15
100
AcDbLine
 10
280.0779059237
 20
193.4678214498
 30
0.0
 11
280.0779053452
 21
192.952542678
 31
0.0
  0
LINE
  5
2E8
330
1F
100
AcDbEntity
  8
0
  6
Continuous
 62
     7
370
    15
100
AcDbLine
 10
280.0779059237
 20
193.4678214498
 30
0.0
 11
307.1707990737
 21
193.4678225337
 31
0.0
  0
LINE
  5
2E9
330
1F
100
AcDbEntity
  8
0
  6
Continuous
 62
     7
370
    15
100
AcDbLine
 10
280.0779053452
 20
192.952542678
 30
0.0
 11
307.1707976886
 21
192.9525440307
 31
0.0
  0
LINE
  5
2EA
330
1F
100
AcDbEntity
  8
0
  6
Continuous
 62
     7
370
    15
100
AcDbLine
 10
307.1707990737
 20
193.4678225337
 30
0.0
 11
307.1707976886
 21
192.9525440307
 31
0.0
  0
LINE
  5
2EB
330
1F
100
AcDbEntity
  8
0
  6
Continuous
 62
     7
370
    15
100
AcDbLine
 10
289.8743517335
 20
198.7675090757
 30
0.0
 11
287.374351718
 21
198.7675098755
 31
0.0
  0
LINE
  5
2EC
330
1F
100
AcDbEntity
  8
0
  6
Continuous
 62
     7
370
    15
100
AcDbLine
 10
287.374351718
 20
198.7675098755
 30
0.0
 11
287.3743512909
 21
197.7529328829
 31
0.0
  0
LINE
  5
2ED
330
1F
100
AcDbEntity
  8
0
  6
Continuous
 62
     7
370
    15
100
AcDbLine
 10
287.3743512909
 20
197.7529328829
 30
0.0
 11
289.8743513065
 21
197.7529320831
 31
0.0
  0
LINE
  5
2EE
330
1F
100
AcDbEntity
  8
0
  6
Continuous
 62
     7
370
    15
100
AcDbLine
 10
289.8743513065
 20
197.7529320831
 30
0.0
 11
289.8743517335
 21
198.7675090757
 31
0.0
  0
LINE
  5
2EF
330
1F
100
AcDbEntity
  8
0
  6
Continuous
 62
     7
370
    15
100
AcDbLine
 10
299.8743504321
 20
198.7675088142
 30
0.0
 11
297.3743520297
 21
198.7675090763
 31
0.0
  0
LINE
  5
2F0
330
1F
100
AcDbEntity
  8
0
  6
Continuous
 62
     7
370
    15
100
AcDbLine
 10
297.3743520297
 20
198.7675090763
 30
0.0
 11
297.3743516026
 21
197.7529320837
 31
0.0
  0
LINE
  5
2F1
330
1F
100
AcDbEntity
  8
0
  6
Continuous
 62
     7
370
    15
100
AcDbLine
 10
297.3743516026
 20
197.7529320837
 30
0.0
 11
299.8743518677
 21
197.752933684
 31
0.0
  0
LINE
  5
2F2
330
1F
100
AcDbEntity
  8
0
  6
Continuous
 62
     7
370
    15
100
AcDbLine
 10
299.8743518677
 20
197.752933684
 30
0.0
 11
299.8743504321
 21
198.7675088142
 31
0.0
  0
LINE
  5
2F3
330
1F
100
AcDbEntity
  8
0
  6
Continuous
 62
     7
370
    15
100
AcDbLine
 10
293.6243518833
 20
240.7948149034
 30
0.0
 11
280.0779059237
 21
193.4678214498
 31
0.0
  0
LINE
  5
2F4
330
1F
100
AcDbEntity
  8
0
  6
Continuous
 62
     7
370
    15
100
AcDbLine
 10
294.8743520142
 20
198.7675098762
 30
0.0
 11
292.3743517491
 21
198.7675082759
 31
0.0
  0
LINE
  5
2F5
330
1F
100
AcDbEntity
  8
0
  6
Continuous
 62
     7
370
    15
100
AcDbLine
 10
292.3743517491
 20
198.7675082759
 30
0.0
 11
292.3743531847
 21
197.7529331457
 31
0.0
  0
LINE
  5
2F6
330
1F
100
AcDbEntity
  8
0
  6
Continuous
 62
     7
370
    15
100
AcDbLine
 10
292.3743531847
 20
197.7529331457
 30
0.0
 11
294.8743515871
 21
197.7529328835
 31
0.0
  0
LINE
  5
2F7
330
1F
100
AcDbEntity
  8
0
  6
Continuous
 62
     7
370
    15
100
AcDbLine
 10
294.8743515871
 20
197.7529328835
 30
0.0
 11
294.8743520142
 21
198.7675098762
 31
0.0
  0
LINE
  5
2F8
330
1F
100
AcDbEntity
  8
0
  6
Continuous
 62
     7
370
    15
100
AcDbLine
 10
307.1707990737
 20
193.4678225337
 30
0.0
 11
293.6243518833
 21
240.7948149034
 31
0.0
  0
LINE
  5
2F9
330
1F
100
AcDbEntity
  8
0
  6
Continuous
 62
     7
370
    15
100
AcDbLine
 10
274.2234069466
 20
248.6454579457
 30
0.0
 11
276.3884688454
 21
249.3670673517
 31
0.0
  0
LINE
  5
2FA
330
1F
100
AcDbEntity
  8
0
  6
Continuous
 62
     7
370
    15
100
AcDbLine
 10
276.3884688454
 20
249.3670673517
 30
0.0
 11
275.8465719787
 21
249.5199942704
 31
0.0
  0
LINE
  5
2FB
330
1F
100
AcDbEntity
  8
0
  6
Continuous
 62
     7
370
    15
100
AcDbLine
 10
275.8465719787
 20
249.5199942704
 30
0.0
 11
273.6815068536
 21
248.7983859396
 31
0.0
  0
LINE
  5
2FC
330
1F
100
AcDbEntity
  8
0
  6
Continuous
 62
     7
370
    15
100
AcDbLine
 10
273.6815068536
 20
248.7983859396
 30
0.0
 11
274.2234069466
 21
248.6454579457
 31
0.0
  0
LINE
  5
2FD
330
1F
100
AcDbEntity
  8
0
  6
Continuous
 62
     7
370
    15
100
AcDbLine
 10
265.563153331
 20
245.7590186032
 30
0.0
 11
267.7282161612
 21
246.4806289404
 31
0.0
  0
LINE
  5
2FE
330
1F
100
AcDbEntity
  8
0
  6
Continuous
 62
     7
370
    15
100
AcDbLine
 10
267.7282161612
 20
246.4806289404
 30
0.0
 11
267.1863160682
 21
246.6335569343
 31
0.0
  0
LINE
  5
2FF
330
1F
100
AcDbEntity
  8
0
  6
Continuous
 62
     7
370
    15
100
AcDbLine
 10
267.1863160682
 20
246.6335569343
 30
0.0
 11
265.021253238
 21
245.9119465971
 31
0.0
  0
LINE
  5
300
330
1F
100
AcDbEntity
  8
0
  6
Continuous
 62
     7
370
    15
100
AcDbLine
 10
265.021253238
 20
245.9119465971
 30
0.0
 11
265.563153331
 21
245.7590186032
 31
0.0
  0
LINE
  5
301
330
1F
100
AcDbEntity
  8
0
  6
Continuous
 62
     7
370
    15
100
AcDbLine
 10
279.8767428038
 20
252.271968031
 30
0.0
 11
256.4136081351
 21
244.4517718194
 31
0.0
  0
LINE
  5
302
330
1F
100
AcDbEntity
  8
0
  6
Continuous
 62
     7
370
    15
100
AcDbLine
 10
293.4231873703
 20
241.2282172228
 30
0.0
 11
279.8767428038
 21
252.271968031
 31
0.0
  0
LINE
  5
303
330
1F
100
AcDbEntity
  8
0
  6
Continuous
 62
     7
370
    15
100
AcDbLine
 10
256.4136081351
 20
244.4517718194
 30
0.0
 11
293.4231873703
 21
241.2282172228
 31
0.0
  0
LINE
  5
304
330
1F
100
AcDbEntity
  8
0
  6
Continuous
 62
     7
370
    15
100
AcDbLine
 10
269.8932789913
 20
247.2022392777
 30
0.0
 11
272.0583441164
 21
247.9238476084
 31
0.0
  0
LINE
  5
305
330
1F
100
AcDbEntity
  8
0
  6
Continuous
 62
     7
370
    15
100
AcDbLine
 10
272.0583441164
 20
247.9238476084
 30
0.0
 11
271.5164440234
 21
248.0767756023
 31
0.0
  0
LINE
  5
306
330
1F
100
AcDbEntity
  8
0
  6
Continuous
 62
     7
370
    15
100
AcDbLine
 10
271.5164440234
 20
248.0767756023
 30
0.0
 11
269.3513821246
 21
247.3551661963
 31
0.0
  0
LINE
  5
307
330
1F
100
AcDbEntity
  8
0
  6
Continuous
 62
     7
370
    15
100
AcDbLine
 10
269.3513821246
 20
247.3551661963
 30
0.0
 11
269.8932789913
 21
247.2022392777
 31
0.0
  0
LINE
  5
308
330
1F
100
AcDbEntity
  8
0
  6
Continuous
 62
     7
370
    15
100
AcDbLine
 10
256.4136081351
 20
244.4517718194
 30
0.0
 11
256.4347465412
 21
244.3520897518
 31
0.0
  0
LINE
  5
309
330
1F
100
AcDbEntity
  8
0
  6
Continuous
 62
     7
370
    15
100
AcDbLine
 10
293.4231873703
 20
241.2282172228
 30
0.0
 11
293.5615866559
 21
240.5755349214
 31
0.0
  0
LINE
  5
30A
330
1F
100
AcDbEntity
  8
0
  6
Continuous
 62
     7
370
    15
100
AcDbLine
 10
267.1863160682
 20
246.6335569343
 30
0.0
 11
267.2020391987
 21
246.5594183516
 31
0.0
  0
LINE
  5
30B
330
1F
100
AcDbEntity
  8
0
  6
Continuous
 62
     7
370
    15
100
AcDbLine
 10
271.5164440234
 20
248.0767756023
 30
0.0
 11
271.5321639277
 21
248.0026380949
 31
0.0
  0
LINE
  5
30C
330
1F
100
AcDbEntity
  8
0
  6
Continuous
 62
     7
370
    15
100
AcDbLine
 10
275.8465719787
 20
249.5199942704
 30
0.0
 11
275.8622918829
 21
249.4458567629
 31
0.0
  0
LINE
  5
30D
330
1F
100
AcDbEntity
  8
0
  6
Continuous
 62
     7
370
    15
100
AcDbLine
 10
297.374352036
 20
251.0664051889
 30
0.0
 11
299.8743520515
 21
251.066404389
 31
0.0
  0
LINE
  5
30E
330
1F
100
AcDbEntity
  8
0
  6
Continuous
 62
     7
370
    15
100
AcDbLine
 10
299.8743520515
 20
251.066404389
 30
0.0
 11
299.8743524786
 21
251.3031556017
 31
0.0
  0
LINE
  5
30F
330
1F
100
AcDbEntity
  8
0
  6
Continuous
 62
     7
370
    15
100
AcDbLine
 10
299.8743524786
 20
251.3031556017
 30
0.0
 11
297.374352463
 21
251.3031564016
 31
0.0
  0
LINE
  5
310
330
1F
100
AcDbEntity
  8
0
  6
Continuous
 62
     7
370
    15
100
AcDbLine
 10
297.374352463
 20
251.3031564016
 30
0.0
 11
297.374352036
 21
251.0664051889
 31
0.0
  0
LINE
  5
311
330
1F
100
AcDbEntity
  8
0
  6
Continuous
 62
     7
370
    15
100
AcDbLine
 10
287.3743533374
 20
251.0664054504
 30
0.0
 11
289.8743517398
 21
251.0664051882
 31
0.0
  0
LINE
  5
312
330
1F
100
AcDbEntity
  8
0
  6
Continuous
 62
     7
370
    15
100
AcDbLine
 10
289.8743517398
 20
251.0664051882
 30
0.0
 11
289.8743521669
 21
251.3031564009
 31
0.0
  0
LINE
  5
313
330
1F
100
AcDbEntity
  8
0
  6
Continuous
 62
     7
370
    15
100
AcDbLine
 10
289.8743521669
 20
251.3031564009
 30
0.0
 11
287.3743519018
 21
251.3031548007
 31
0.0
  0
LINE
  5
314
330
1F
100
AcDbEntity
  8
0
  6
Continuous
 62
     7
370
    15
100
AcDbLine
 10
287.3743519018
 20
251.3031548007
 30
0.0
 11
287.3743533374
 21
251.0664054504
 31
0.0
  0
LINE
  5
315
330
1F
100
AcDbEntity
  8
0
  6
Continuous
 62
     7
370
    15
100
AcDbLine
 10
307.1707978458
 20
252.3030855959
 30
0.0
 11
280.0779046958
 21
252.3030845121
 31
0.0
  0
LINE
  5
316
330
1F
100
AcDbEntity
  8
0
  6
Continuous
 62
     7
370
    15
100
AcDbLine
 10
293.6243518862
 20
241.2593341097
 30
0.0
 11
307.1707978458
 21
252.3030855959
 31
0.0
  0
LINE
  5
317
330
1F
100
AcDbEntity
  8
0
  6
Continuous
 62
     7
370
    15
100
AcDbLine
 10
280.0779046958
 20
252.3030845121
 30
0.0
 11
293.6243518862
 21
241.2593341097
 31
0.0
  0
LINE
  5
318
330
1F
100
AcDbEntity
  8
0
  6
Continuous
 62
     7
370
    15
100
AcDbLine
 10
292.3743517553
 20
251.0664043884
 30
0.0
 11
294.8743520204
 21
251.0664059887
 31
0.0
  0
LINE
  5
319
330
1F
100
AcDbEntity
  8
0
  6
Continuous
 62
     7
370
    15
100
AcDbLine
 10
294.8743520204
 20
251.0664059887
 30
0.0
 11
294.8743505848
 21
251.3031553389
 31
0.0
  0
LINE
  5
31A
330
1F
100
AcDbEntity
  8
0
  6
Continuous
 62
     7
370
    15
100
AcDbLine
 10
294.8743505848
 20
251.3031553389
 30
0.0
 11
292.3743521824
 21
251.3031556011
 31
0.0
  0
LINE
  5
31B
330
1F
100
AcDbEntity
  8
0
  6
Continuous
 62
     7
370
    15
100
AcDbLine
 10
292.3743521824
 20
251.3031556011
 30
0.0
 11
292.3743517553
 21
251.0664043884
 31
0.0
  0
LINE
  5
31C
330
1F
100
AcDbEntity
  8
0
  6
Continuous
 62
     7
370
    15
100
AcDbLine
 10
293.6243518862
 20
241.2593341097
 30
0.0
 11
293.6243518864
 21
240.7948145045
 31
0.0
  0
LINE
  5
31D
330
1F
100
AcDbEntity
  8
0
  6
Continuous
 62
     7
370
    15
100
AcDbLine
 10
307.1707978458
 20
252.3030855959
 30
0.0
 11
307.1707971163
 21
252.1079675061
 31
0.0
  0
LINE
  5
31E
330
1F
100
AcDbEntity
  8
0
  6
Continuous
 62
     7
370
    15
100
AcDbLine
 10
280.0779046958
 20
252.3030845121
 30
0.0
 11
280.0779042158
 21
252.1079688223
 31
0.0
  0
LINE
  5
31F
330
1F
100
AcDbEntity
  8
0
  6
Continuous
 62
     7
370
    15
100
AcDbLine
 10
293.8255163967
 20
241.2282172219
 30
0.0
 11
293.6871171109
 21
240.5755349205
 31
0.0
  0
LINE
  5
320
330
1F
100
AcDbEntity
  8
0
  6
Continuous
 62
     7
370
    15
100
AcDbLine
 10
293.8255163967
 20
241.2282172219
 30
0.0
 11
330.8350955578
 21
244.4517713073
 31
0.0
  0
LINE
  5
321
330
1F
100
AcDbEntity
  8
0
  6
Continuous
 62
     7
370
    15
100
AcDbLine
 10
330.8350955578
 20
244.4517713073
 30
0.0
 11
330.8139582606
 21
244.3520896093
 31
0.0
  0
LINE
  5
322
330
1F
100
AcDbEntity
  8
0
  6
Continuous
 62
     7
370
    15
100
AcDbLine
 10
319.5204864705
 20
246.4806280741
 30
0.0
 11
321.6855501332
 21
245.7590183829
 31
0.0
  0
LINE
  5
323
330
1F
100
AcDbEntity
  8
0
  6
Continuous
 62
     7
370
    15
100
AcDbLine
 10
321.6855501332
 20
245.7590183829
 30
0.0
 11
322.2274494865
 21
245.9119461302
 31
0.0
  0
LINE
  5
324
330
1F
100
AcDbEntity
  8
0
  6
Continuous
 62
     7
370
    15
100
AcDbLine
 10
322.2274494865
 20
245.9119461302
 30
0.0
 11
320.0623858238
 21
246.6335558214
 31
0.0
  0
LINE
  5
325
330
1F
100
AcDbEntity
  8
0
  6
Continuous
 62
     7
370
    15
100
AcDbLine
 10
320.0623858238
 20
246.6335558214
 30
0.0
 11
319.5204864705
 21
246.4806280741
 31
0.0
  0
LINE
  5
326
330
1F
100
AcDbEntity
  8
0
  6
Continuous
 62
     7
370
    15
100
AcDbLine
 10
310.8602324246
 20
249.3670666372
 30
0.0
 11
313.0252960873
 21
248.645456946
 31
0.0
  0
LINE
  5
327
330
1F
100
AcDbEntity
  8
0
  6
Continuous
 62
     7
370
    15
100
AcDbLine
 10
313.0252960873
 20
248.645456946
 30
0.0
 11
313.5671954406
 21
248.7983846934
 31
0.0
  0
LINE
  5
328
330
1F
100
AcDbEntity
  8
0
  6
Continuous
 62
     7
370
    15
100
AcDbLine
 10
313.5671954406
 20
248.7983846934
 30
0.0
 11
311.4021317779
 21
249.5199943845
 31
0.0
  0
LINE
  5
329
330
1F
100
AcDbEntity
  8
0
  6
Continuous
 62
     7
370
    15
100
AcDbLine
 10
311.4021317779
 20
249.5199943845
 30
0.0
 11
310.8602324246
 21
249.3670666372
 31
0.0
  0
LINE
  5
32A
330
1F
100
AcDbEntity
  8
0
  6
Continuous
 62
     7
370
    15
100
AcDbLine
 10
330.8350955578
 20
244.4517713073
 30
0.0
 11
307.3719622378
 21
252.2719683208
 31
0.0
  0
LINE
  5
32B
330
1F
100
AcDbEntity
  8
0
  6
Continuous
 62
     7
370
    15
100
AcDbLine
 10
307.3719622378
 20
252.2719683208
 30
0.0
 11
293.8255163967
 21
241.2282172219
 31
0.0
  0
LINE
  5
32C
330
1F
100
AcDbEntity
  8
0
  6
Continuous
 62
     7
370
    15
100
AcDbLine
 10
315.1903595484
 20
247.923847322
 30
0.0
 11
317.3554230094
 21
247.202237698
 31
0.0
  0
LINE
  5
32D
330
1F
100
AcDbEntity
  8
0
  6
Continuous
 62
     7
370
    15
100
AcDbLine
 10
317.3554230094
 20
247.202237698
 30
0.0
 11
317.8973223627
 21
247.3551654454
 31
0.0
  0
LINE
  5
32E
330
1F
100
AcDbEntity
  8
0
  6
Continuous
 62
     7
370
    15
100
AcDbLine
 10
317.8973223627
 20
247.3551654454
 30
0.0
 11
315.7322589016
 21
248.0767750694
 31
0.0
  0
LINE
  5
32F
330
1F
100
AcDbEntity
  8
0
  6
Continuous
 62
     7
370
    15
100
AcDbLine
 10
315.7322589016
 20
248.0767750694
 30
0.0
 11
315.1903595484
 21
247.923847322
 31
0.0
  0
LINE
  5
330
330
1F
100
AcDbEntity
  8
0
  6
Continuous
 62
     7
370
    15
100
AcDbLine
 10
320.0623858238
 20
246.6335558214
 30
0.0
 11
320.0466650987
 21
246.5594180404
 31
0.0
  0
LINE
  5
331
330
1F
100
AcDbEntity
  8
0
  6
Continuous
 62
     7
370
    15
100
AcDbLine
 10
315.7322589016
 20
248.0767750694
 30
0.0
 11
315.7165381766
 21
248.0026372884
 31
0.0
  0
LINE
  5
332
330
1F
100
AcDbEntity
  8
0
  6
Continuous
 62
     7
370
    15
100
AcDbLine
 10
311.4021317779
 20
249.5199943845
 30
0.0
 11
311.3864110528
 21
249.4458566036
 31
0.0
  0
LINE
  5
333
330
1F
100
AcDbEntity
  8
0
  6
Continuous
 62
     7
370
    15
100
AcDbLine
 10
248.3272712279
 20
227.0817861399
 30
0.0
 11
248.3272726133
 21
228.5250054291
 31
0.0
  0
LINE
  5
334
330
1F
100
AcDbEntity
  8
0
  6
Continuous
 62
     7
370
    15
100
AcDbLine
 10
248.3272726133
 20
228.5250054291
 30
0.0
 11
247.2434731671
 21
228.1360927857
 31
0.0
  0
LINE
  5
335
330
1F
100
AcDbEntity
  8
0
  6
Continuous
 62
     7
370
    15
100
AcDbLine
 10
247.2434731671
 20
228.1360927857
 30
0.0
 11
247.2434717816
 21
226.6928734965
 31
0.0
  0
LINE
  5
336
330
1F
100
AcDbEntity
  8
0
  6
Continuous
 62
     7
370
    15
100
AcDbLine
 10
247.2434717816
 20
226.6928734965
 30
0.0
 11
248.3272712279
 21
227.0817861399
 31
0.0
  0
LINE
  5
337
330
1F
100
AcDbEntity
  8
0
  6
Continuous
 62
     7
370
    15
100
AcDbLine
 10
248.3272707748
 20
221.3089097703
 30
0.0
 11
248.3272712289
 21
222.7521281283
 31
0.0
  0
LINE
  5
338
330
1F
100
AcDbEntity
  8
0
  6
Continuous
 62
     7
370
    15
100
AcDbLine
 10
248.3272712289
 20
222.7521281283
 30
0.0
 11
247.2434717827
 21
222.3632154849
 31
0.0
  0
LINE
  5
339
330
1F
100
AcDbEntity
  8
0
  6
Continuous
 62
     7
370
    15
100
AcDbLine
 10
247.2434717827
 20
222.3632154849
 30
0.0
 11
247.2434745547
 21
220.9199960516
 31
0.0
  0
LINE
  5
33A
330
1F
100
AcDbEntity
  8
0
  6
Continuous
 62
     7
370
    15
100
AcDbLine
 10
247.2434745547
 20
220.9199960516
 30
0.0
 11
248.3272707748
 21
221.3089097703
 31
0.0
  0
LINE
  5
33B
330
1F
100
AcDbEntity
  8
0
  6
Continuous
 62
     7
370
    15
100
AcDbLine
 10
242.665997052
 20
230.7056503186
 30
0.0
 11
242.6659989295
 21
215.0652560183
 31
0.0
  0
LINE
  5
33C
330
1F
100
AcDbEntity
  8
0
  6
Continuous
 62
     7
370
    15
100
AcDbLine
 10
293.2220228583
 20
241.0270745074
 30
0.0
 11
242.665997052
 21
230.7056503186
 31
0.0
  0
LINE
  5
33D
330
1F
100
AcDbEntity
  8
0
  6
Continuous
 62
     7
370
    15
100
AcDbLine
 10
242.6659989295
 20
215.0652560183
 30
0.0
 11
293.2220228583
 21
241.0270745074
 31
0.0
  0
LINE
  5
33E
330
1F
100
AcDbEntity
  8
0
  6
Continuous
 62
     7
370
    15
100
AcDbLine
 10
248.3272726144
 20
224.1953474175
 30
0.0
 11
248.3272698424
 21
225.6385668507
 31
0.0
  0
LINE
  5
33F
330
1F
100
AcDbEntity
  8
0
  6
Continuous
 62
     7
370
    15
100
AcDbLine
 10
248.3272698424
 20
225.6385668507
 30
0.0
 11
247.2434736223
 21
225.249653132
 31
0.0
  0
LINE
  5
340
330
1F
100
AcDbEntity
  8
0
  6
Continuous
 62
     7
370
    15
100
AcDbLine
 10
247.2434736223
 20
225.249653132
 30
0.0
 11
247.2434731682
 21
223.806434774
 31
0.0
  0
LINE
  5
341
330
1F
100
AcDbEntity
  8
0
  6
Continuous
 62
     7
370
    15
100
AcDbLine
 10
247.2434731682
 20
223.806434774
 30
0.0
 11
248.3272726144
 21
224.1953474175
 31
0.0
  0
LINE
  5
342
330
1F
100
AcDbEntity
  8
0
  6
Continuous
 62
     7
370
    15
100
AcDbLine
 10
242.6659989295
 20
215.0652560183
 30
0.0
 11
242.7266354576
 21
214.9525870853
 31
0.0
  0
LINE
  5
343
330
1F
100
AcDbEntity
  8
0
  6
Continuous
 62
     7
370
    15
100
AcDbLine
 10
293.2220228583
 20
241.0270745074
 30
0.0
 11
293.3641798247
 21
240.7629444506
 31
0.0
  0
LINE
  5
344
330
1F
100
AcDbEntity
  8
0
  6
Continuous
 62
     7
370
    15
100
AcDbLine
 10
247.2434717827
 20
222.3632154849
 30
0.0
 11
247.4397919119
 21
221.9984484607
 31
0.0
  0
LINE
  5
345
330
1F
100
AcDbEntity
  8
0
  6
Continuous
 62
     7
370
    15
100
AcDbLine
 10
247.2434736223
 20
225.249653132
 30
0.0
 11
247.4397905253
 21
224.8848871832
 31
0.0
  0
LINE
  5
346
330
1F
100
AcDbEntity
  8
0
  6
Continuous
 62
     7
370
    15
100
AcDbLine
 10
247.2434731671
 20
228.1360927857
 30
0.0
 11
247.4397932963
 21
227.7713257615
 31
0.0
  0
LINE
  5
347
330
1F
100
AcDbEntity
  8
0
  6
Continuous
 62
     7
370
    15
100
AcDbLine
 10
242.719899594
 20
230.8217800502
 30
0.0
 11
242.7590817448
 21
230.7246561386
 31
0.0
  0
LINE
  5
348
330
1F
100
AcDbEntity
  8
0
  6
Continuous
 62
     7
370
    15
100
AcDbLine
 10
242.719899594
 20
230.8217800502
 30
0.0
 11
293.2759247294
 21
241.1432043074
 31
0.0
  0
LINE
  5
349
330
1F
100
AcDbEntity
  8
0
  6
Continuous
 62
     7
370
    15
100
AcDbLine
 10
293.2759247294
 20
241.1432043074
 30
0.0
 11
293.4097204475
 21
240.8115571186
 31
0.0
  0
LINE
  5
34A
330
1F
100
AcDbEntity
  8
0
  6
Continuous
 62
     7
370
    15
100
AcDbLine
 10
256.270930895
 20
239.8664774192
 30
0.0
 11
257.5209309834
 21
241.1163420675
 31
0.0
  0
LINE
  5
34B
330
1F
100
AcDbEntity
  8
0
  6
Continuous
 62
     7
370
    15
100
AcDbLine
 10
257.5209309834
 20
241.1163420675
 30
0.0
 11
256.582333771
 21
241.0402610154
 31
0.0
  0
LINE
  5
34C
330
1F
100
AcDbEntity
  8
0
  6
Continuous
 62
     7
370
    15
100
AcDbLine
 10
256.582333771
 20
241.0402610154
 30
0.0
 11
255.3323336825
 21
239.790396367
 31
0.0
  0
LINE
  5
34D
330
1F
100
AcDbEntity
  8
0
  6
Continuous
 62
     7
370
    15
100
AcDbLine
 10
255.3323336825
 20
239.790396367
 30
0.0
 11
256.270930895
 21
239.8664774192
 31
0.0
  0
LINE
  5
34E
330
1F
100
AcDbEntity
  8
0
  6
Continuous
 62
     7
370
    15
100
AcDbLine
 10
251.2709308903
 20
234.8670191749
 30
0.0
 11
252.5209309788
 21
236.1168838233
 31
0.0
  0
LINE
  5
34F
330
1F
100
AcDbEntity
  8
0
  6
Continuous
 62
     7
370
    15
100
AcDbLine
 10
252.5209309788
 20
236.1168838233
 30
0.0
 11
251.5823337663
 21
236.0408027711
 31
0.0
  0
LINE
  5
350
330
1F
100
AcDbEntity
  8
0
  6
Continuous
 62
     7
370
    15
100
AcDbLine
 10
251.5823337663
 20
236.0408027711
 30
0.0
 11
250.3323336779
 21
234.7909381228
 31
0.0
  0
LINE
  5
351
330
1F
100
AcDbEntity
  8
0
  6
Continuous
 62
     7
370
    15
100
AcDbLine
 10
250.3323336779
 20
234.7909381228
 30
0.0
 11
251.2709308903
 21
234.8670191749
 31
0.0
  0
LINE
  5
352
330
1F
100
AcDbEntity
  8
0
  6
Continuous
 62
     7
370
    15
100
AcDbLine
 10
256.2663459323
 20
244.3667586029
 30
0.0
 11
242.719899594
 21
230.8217800502
 31
0.0
  0
LINE
  5
353
330
1F
100
AcDbEntity
  8
0
  6
Continuous
 62
     7
370
    15
100
AcDbLine
 10
293.2759247294
 20
241.1432043074
 30
0.0
 11
256.2663459323
 21
244.3667586029
 31
0.0
  0
LINE
  5
354
330
1F
100
AcDbEntity
  8
0
  6
Continuous
 62
     7
370
    15
100
AcDbLine
 10
253.7709309508
 20
237.3667483552
 30
0.0
 11
255.0209309229
 21
238.6166128872
 31
0.0
  0
LINE
  5
355
330
1F
100
AcDbEntity
  8
0
  6
Continuous
 62
     7
370
    15
100
AcDbLine
 10
255.0209309229
 20
238.6166128872
 30
0.0
 11
254.0823337105
 21
238.5405318351
 31
0.0
  0
LINE
  5
356
330
1F
100
AcDbEntity
  8
0
  6
Continuous
 62
     7
370
    15
100
AcDbLine
 10
254.0823337105
 20
238.5405318351
 30
0.0
 11
252.8323337384
 21
237.2906673031
 31
0.0
  0
LINE
  5
357
330
1F
100
AcDbEntity
  8
0
  6
Continuous
 62
     7
370
    15
100
AcDbLine
 10
252.8323337384
 20
237.2906673031
 30
0.0
 11
253.7709309508
 21
237.3667483552
 31
0.0
  0
LINE
  5
358
330
1F
100
AcDbEntity
  8
0
  6
Continuous
 62
     7
370
    15
100
AcDbLine
 10
251.5823337663
 20
236.0408027711
 30
0.0
 11
251.6326914602
 21
235.9159782081
 31
0.0
  0
LINE
  5
359
330
1F
100
AcDbEntity
  8
0
  6
Continuous
 62
     7
370
    15
100
AcDbLine
 10
254.0823337105
 20
238.5405318351
 30
0.0
 11
254.1326914044
 21
238.415707272
 31
0.0
  0
LINE
  5
35A
330
1F
100
AcDbEntity
  8
0
  6
Continuous
 62
     7
370
    15
100
AcDbLine
 10
256.582333771
 20
241.0402610154
 30
0.0
 11
256.6326914649
 21
240.9154364523
 31
0.0
  0
LINE
  5
35B
330
1F
100
AcDbEntity
  8
0
  6
Continuous
 62
     7
370
    15
100
AcDbLine
 10
307.3719609657
 20
193.4989390148
 30
0.0
 11
307.1707976886
 21
192.9525440307
 31
0.0
  0
LINE
  5
35C
330
1F
100
AcDbEntity
  8
0
  6
Continuous
 62
     7
370
    15
100
AcDbLine
 10
307.3719609657
 20
193.4989390148
 30
0.0
 11
330.8350956344
 21
201.3191352263
 31
0.0
  0
LINE
  5
35D
330
1F
100
AcDbEntity
  8
0
  6
Continuous
 62
     7
370
    15
100
AcDbLine
 10
330.8350956344
 20
201.3191352263
 30
0.0
 11
330.6339318917
 21
200.7727397766
 31
0.0
  0
LINE
  5
35E
330
1F
100
AcDbEntity
  8
0
  6
Continuous
 62
     7
370
    15
100
AcDbLine
 10
307.1707976886
 20
192.9525440307
 30
0.0
 11
330.6339318917
 21
200.7727397766
 31
0.0
  0
LINE
  5
35F
330
1F
100
AcDbEntity
  8
0
  6
Continuous
 62
     7
370
    15
100
AcDbLine
 10
313.0252968229
 20
201.1884563189
 30
0.0
 11
310.8602349241
 21
200.4668469129
 31
0.0
  0
LINE
  5
360
330
1F
100
AcDbEntity
  8
0
  6
Continuous
 62
     7
370
    15
100
AcDbLine
 10
310.8602349241
 20
200.4668469129
 30
0.0
 11
311.4021317909
 21
199.5360942143
 31
0.0
  0
LINE
  5
361
330
1F
100
AcDbEntity
  8
0
  6
Continuous
 62
     7
370
    15
100
AcDbLine
 10
311.4021317909
 20
199.5360942143
 30
0.0
 11
313.5671969159
 21
200.257702545
 31
0.0
  0
LINE
  5
362
330
1F
100
AcDbEntity
  8
0
  6
Continuous
 62
     7
370
    15
100
AcDbLine
 10
313.5671969159
 20
200.257702545
 30
0.0
 11
313.0252968229
 21
201.1884563189
 31
0.0
  0
LINE
  5
363
330
1F
100
AcDbEntity
  8
0
  6
Continuous
 62
     7
370
    15
100
AcDbLine
 10
321.6855504385
 20
204.0748956614
 30
0.0
 11
319.5204876084
 21
203.3532853242
 31
0.0
  0
LINE
  5
364
330
1F
100
AcDbEntity
  8
0
  6
Continuous
 62
     7
370
    15
100
AcDbLine
 10
319.5204876084
 20
203.3532853242
 30
0.0
 11
320.0623877013
 21
202.4225315503
 31
0.0
  0
LINE
  5
365
330
1F
100
AcDbEntity
  8
0
  6
Continuous
 62
     7
370
    15
100
AcDbLine
 10
320.0623877013
 20
202.4225315503
 30
0.0
 11
322.2274505315
 21
203.1441418876
 31
0.0
  0
LINE
  5
366
330
1F
100
AcDbEntity
  8
0
  6
Continuous
 62
     7
370
    15
100
AcDbLine
 10
322.2274505315
 20
203.1441418876
 30
0.0
 11
321.6855504385
 21
204.0748956614
 31
0.0
  0
LINE
  5
367
330
1F
100
AcDbEntity
  8
0
  6
Continuous
 62
     7
370
    15
100
AcDbLine
 10
293.8255163992
 20
240.8259317903
 30
0.0
 11
307.3719609657
 21
193.4989390148
 31
0.0
  0
LINE
  5
368
330
1F
100
AcDbEntity
  8
0
  6
Continuous
 62
     7
370
    15
100
AcDbLine
 10
330.8350956344
 20
201.3191352263
 30
0.0
 11
293.8255163992
 21
240.8259317903
 31
0.0
  0
LINE
  5
369
330
1F
100
AcDbEntity
  8
0
  6
Continuous
 62
     7
370
    15
100
AcDbLine
 10
317.3554247782
 20
202.6316749869
 30
0.0
 11
315.1903596531
 21
201.9100666562
 31
0.0
  0
LINE
  5
36A
330
1F
100
AcDbEntity
  8
0
  6
Continuous
 62
     7
370
    15
100
AcDbLine
 10
315.1903596531
 20
201.9100666562
 30
0.0
 11
315.7322597461
 21
200.9793128823
 31
0.0
  0
LINE
  5
36B
330
1F
100
AcDbEntity
  8
0
  6
Continuous
 62
     7
370
    15
100
AcDbLine
 10
315.7322597461
 20
200.9793128823
 30
0.0
 11
317.8973216449
 21
201.7009222883
 31
0.0
  0
LINE
  5
36C
330
1F
100
AcDbEntity
  8
0
  6
Continuous
 62
     7
370
    15
100
AcDbLine
 10
317.8973216449
 20
201.7009222883
 30
0.0
 11
317.3554247782
 21
202.6316749869
 31
0.0
  0
LINE
  5
36D
330
1F
100
AcDbEntity
  8
0
  6
Continuous
 62
     7
370
    15
100
AcDbLine
 10
293.8255163992
 20
240.8259317903
 30
0.0
 11
293.7073296549
 21
240.504917114
 31
0.0
  0
LINE
  5
36E
330
1F
100
AcDbEntity
  8
0
  6
Continuous
 62
     7
370
    15
100
AcDbLine
 10
313.0252968229
 20
201.1884563189
 30
0.0
 11
312.9797630697
 21
201.0647776165
 31
0.0
  0
LINE
  5
36F
330
1F
100
AcDbEntity
  8
0
  6
Continuous
 62
     7
370
    15
100
AcDbLine
 10
317.3554247782
 20
202.6316749869
 30
0.0
 11
317.3098877987
 21
202.5079973597
 31
0.0
  0
LINE
  5
370
330
1F
100
AcDbEntity
  8
0
  6
Continuous
 62
     7
370
    15
100
AcDbLine
 10
321.6855504385
 20
204.0748956614
 30
0.0
 11
321.6400157539
 21
203.9512160278
 31
0.0
  0
LINE
  5
371
330
1F
100
AcDbEntity
  8
0
  6
Continuous
 62
     7
370
    15
100
AcDbLine
 10
279.8767415317
 20
193.498938725
 30
0.0
 11
280.0779053452
 21
192.952542678
 31
0.0
  0
LINE
  5
372
330
1F
100
AcDbEntity
  8
0
  6
Continuous
 62
     7
370
    15
100
AcDbLine
 10
279.8767415317
 20
193.498938725
 30
0.0
 11
293.4231873728
 21
240.8259317912
 31
0.0
  0
LINE
  5
373
330
1F
100
AcDbEntity
  8
0
  6
Continuous
 62
     7
370
    15
100
AcDbLine
 10
293.4231873728
 20
240.8259317912
 30
0.0
 11
293.5413741138
 21
240.5049171138
 31
0.0
  0
LINE
  5
374
330
1F
100
AcDbEntity
  8
0
  6
Continuous
 62
     7
370
    15
100
AcDbLine
 10
267.728217299
 20
203.3532861905
 30
0.0
 11
265.5631536363
 21
204.0748958817
 31
0.0
  0
LINE
  5
375
330
1F
100
AcDbEntity
  8
0
  6
Continuous
 62
     7
370
    15
100
AcDbLine
 10
265.5631536363
 20
204.0748958817
 30
0.0
 11
265.021254283
 21
203.1441423544
 31
0.0
  0
LINE
  5
376
330
1F
100
AcDbEntity
  8
0
  6
Continuous
 62
     7
370
    15
100
AcDbLine
 10
265.021254283
 20
203.1441423544
 30
0.0
 11
267.1863179457
 21
202.4225326632
 31
0.0
  0
LINE
  5
377
330
1F
100
AcDbEntity
  8
0
  6
Continuous
 62
     7
370
    15
100
AcDbLine
 10
267.1863179457
 20
202.4225326632
 30
0.0
 11
267.728217299
 21
203.3532861905
 31
0.0
  0
LINE
  5
378
330
1F
100
AcDbEntity
  8
0
  6
Continuous
 62
     7
370
    15
100
AcDbLine
 10
276.3884713449
 20
200.4668476274
 30
0.0
 11
274.2234076822
 21
201.1884573186
 31
0.0
  0
LINE
  5
379
330
1F
100
AcDbEntity
  8
0
  6
Continuous
 62
     7
370
    15
100
AcDbLine
 10
274.2234076822
 20
201.1884573186
 30
0.0
 11
273.6815083289
 21
200.2577037913
 31
0.0
  0
LINE
  5
37A
330
1F
100
AcDbEntity
  8
0
  6
Continuous
 62
     7
370
    15
100
AcDbLine
 10
273.6815083289
 20
200.2577037913
 30
0.0
 11
275.8465719917
 21
199.5360941001
 31
0.0
  0
LINE
  5
37B
330
1F
100
AcDbEntity
  8
0
  6
Continuous
 62
     7
370
    15
100
AcDbLine
 10
275.8465719917
 20
199.5360941001
 30
0.0
 11
276.3884713449
 21
200.4668476274
 31
0.0
  0
LINE
  5
37C
330
1F
100
AcDbEntity
  8
0
  6
Continuous
 62
     7
370
    15
100
AcDbLine
 10
256.4136082117
 20
201.3191357385
 30
0.0
 11
279.8767415317
 21
193.498938725
 31
0.0
  0
LINE
  5
37D
330
1F
100
AcDbEntity
  8
0
  6
Continuous
 62
     7
370
    15
100
AcDbLine
 10
293.4231873728
 20
240.8259317912
 30
0.0
 11
256.4136082117
 21
201.3191357385
 31
0.0
  0
LINE
  5
37E
330
1F
100
AcDbEntity
  8
0
  6
Continuous
 62
     7
370
    15
100
AcDbLine
 10
272.0583442211
 20
201.9100669426
 30
0.0
 11
269.8932807601
 21
202.6316765666
 31
0.0
  0
LINE
  5
37F
330
1F
100
AcDbEntity
  8
0
  6
Continuous
 62
     7
370
    15
100
AcDbLine
 10
269.8932807601
 20
202.6316765666
 30
0.0
 11
269.3513814068
 21
201.7009230392
 31
0.0
  0
LINE
  5
380
330
1F
100
AcDbEntity
  8
0
  6
Continuous
 62
     7
370
    15
100
AcDbLine
 10
269.3513814068
 20
201.7009230392
 30
0.0
 11
271.5164448679
 21
200.9793134153
 31
0.0
  0
LINE
  5
381
330
1F
100
AcDbEntity
  8
0
  6
Continuous
 62
     7
370
    15
100
AcDbLine
 10
271.5164448679
 20
200.9793134153
 30
0.0
 11
272.0583442211
 21
201.9100669426
 31
0.0
  0
LINE
  5
382
330
1F
100
AcDbEntity
  8
0
  6
Continuous
 62
     7
370
    15
100
AcDbLine
 10
256.4136082117
 20
201.3191357385
 30
0.0
 11
256.6147720252
 21
200.7727396915
 31
0.0
  0
LINE
  5
383
330
1F
100
AcDbEntity
  8
0
  6
Continuous
 62
     7
370
    15
100
AcDbLine
 10
256.6147720252
 20
200.7727396915
 30
0.0
 11
280.0779053452
 21
192.952542678
 31
0.0
  0
LINE
  5
384
330
1F
100
AcDbEntity
  8
0
  6
Continuous
 62
     7
370
    15
100
AcDbLine
 10
274.2234076822
 20
201.1884573186
 30
0.0
 11
274.2689419055
 21
201.0647775312
 31
0.0
  0
LINE
  5
385
330
1F
100
AcDbEntity
  8
0
  6
Continuous
 62
     7
370
    15
100
AcDbLine
 10
269.8932807601
 20
202.6316765666
 30
0.0
 11
269.9388149834
 21
202.5079967791
 31
0.0
  0
LINE
  5
386
330
1F
100
AcDbEntity
  8
0
  6
Continuous
 62
     7
370
    15
100
AcDbLine
 10
265.5631536363
 20
204.0748958817
 30
0.0
 11
265.6086878596
 21
203.9512160943
 31
0.0
  0
LINE
  5
387
330
1F
100
AcDbEntity
  8
0
  6
Continuous
 62
     7
370
    15
100
AcDbLine
 10
242.719900096
 20
214.9491277299
 30
0.0
 11
243.0683278827
 21
214.317718754
 31
0.0
  0
LINE
  5
388
330
1F
100
AcDbEntity
  8
0
  6
Continuous
 62
     7
370
    15
100
AcDbLine
 10
242.719900096
 20
214.9491277299
 30
0.0
 11
256.2663450451
 21
201.4041483986
 31
0.0
  0
LINE
  5
389
330
1F
100
AcDbEntity
  8
0
  6
Continuous
 62
     7
370
    15
100
AcDbLine
 10
256.2663450451
 20
201.4041483986
 30
0.0
 11
256.6147720252
 21
200.7727396915
 31
0.0
  0
LINE
  5
38A
330
1F
100
AcDbEntity
  8
0
  6
Continuous
 62
     7
370
    15
100
AcDbLine
 10
243.0683278827
 20
214.317718754
 30
0.0
 11
256.6147720252
 21
200.7727396915
 31
0.0
  0
LINE
  5
38B
330
1F
100
AcDbEntity
  8
0
  6
Continuous
 62
     7
370
    15
100
AcDbLine
 10
252.5209292471
 20
213.7170300166
 30
0.0
 11
251.2709296525
 21
214.9668936467
 31
0.0
  0
LINE
  5
38C
330
1F
100
AcDbEntity
  8
0
  6
Continuous
 62
     7
370
    15
100
AcDbLine
 10
251.2709296525
 20
214.9668936467
 30
0.0
 11
250.3323338757
 21
214.2651503544
 31
0.0
  0
LINE
  5
38D
330
1F
100
AcDbEntity
  8
0
  6
Continuous
 62
     7
370
    15
100
AcDbLine
 10
250.3323338757
 20
214.2651503544
 30
0.0
 11
251.5823316076
 21
213.0152848618
 31
0.0
  0
LINE
  5
38E
330
1F
100
AcDbEntity
  8
0
  6
Continuous
 62
     7
370
    15
100
AcDbLine
 10
251.5823316076
 20
213.0152848618
 30
0.0
 11
252.5209292471
 21
213.7170300166
 31
0.0
  0
LINE
  5
38F
330
1F
100
AcDbEntity
  8
0
  6
Continuous
 62
     7
370
    15
100
AcDbLine
 10
257.5209306019
 20
208.7175720208
 30
0.0
 11
256.2709293942
 21
209.9674361886
 31
0.0
  0
LINE
  5
390
330
1F
100
AcDbEntity
  8
0
  6
Continuous
 62
     7
370
    15
100
AcDbLine
 10
256.2709293942
 20
209.9674361886
 30
0.0
 11
255.3323317547
 21
209.2656910337
 31
0.0
  0
LINE
  5
391
330
1F
100
AcDbEntity
  8
0
  6
Continuous
 62
     7
370
    15
100
AcDbLine
 10
255.3323317547
 20
209.2656910337
 30
0.0
 11
256.5823329623
 21
208.015826866
 31
0.0
  0
LINE
  5
392
330
1F
100
AcDbEntity
  8
0
  6
Continuous
 62
     7
370
    15
100
AcDbLine
 10
256.5823329623
 20
208.015826866
 30
0.0
 11
257.5209306019
 21
208.7175720208
 31
0.0
  0
LINE
  5
393
330
1F
100
AcDbEntity
  8
0
  6
Continuous
 62
     7
370
    15
100
AcDbLine
 10
293.2759247279
 20
240.9109447042
 30
0.0
 11
242.719900096
 21
214.9491277299
 31
0.0
  0
LINE
  5
394
330
1F
100
AcDbEntity
  8
0
  6
Continuous
 62
     7
370
    15
100
AcDbLine
 10
256.2663450451
 20
201.4041483986
 30
0.0
 11
293.2759247279
 21
240.9109447042
 31
0.0
  0
LINE
  5
395
330
1F
100
AcDbEntity
  8
0
  6
Continuous
 62
     7
370
    15
100
AcDbLine
 10
255.0209281866
 20
211.2173003563
 30
0.0
 11
253.7709304547
 21
212.4671658489
 31
0.0
  0
LINE
  5
396
330
1F
100
AcDbEntity
  8
0
  6
Continuous
 62
     7
370
    15
100
AcDbLine
 10
253.7709304547
 20
212.4671658489
 30
0.0
 11
252.8323328152
 21
211.7654206941
 31
0.0
  0
LINE
  5
397
330
1F
100
AcDbEntity
  8
0
  6
Continuous
 62
     7
370
    15
100
AcDbLine
 10
252.8323328152
 20
211.7654206941
 30
0.0
 11
254.0823324097
 21
210.5155570639
 31
0.0
  0
LINE
  5
398
330
1F
100
AcDbEntity
  8
0
  6
Continuous
 62
     7
370
    15
100
AcDbLine
 10
254.0823324097
 20
210.5155570639
 30
0.0
 11
255.0209281866
 21
211.2173003563
 31
0.0
  0
LINE
  5
399
330
1F
100
AcDbEntity
  8
0
  6
Continuous
 62
     7
370
    15
100
AcDbLine
 10
293.2759247279
 20
240.9109447042
 30
0.0
 11
293.360036519
 21
240.7585241252
 31
0.0
  0
LINE
  5
39A
330
1F
100
AcDbEntity
  8
0
  6
Continuous
 62
     7
370
    15
100
AcDbLine
 10
256.2709293942
 20
209.9674361886
 30
0.0
 11
256.3497972488
 21
209.8245137255
 31
0.0
  0
LINE
  5
39B
330
1F
100
AcDbEntity
  8
0
  6
Continuous
 62
     7
370
    15
100
AcDbLine
 10
253.7709304547
 20
212.4671658489
 30
0.0
 11
253.8497983093
 21
212.3242433858
 31
0.0
  0
LINE
  5
39C
330
1F
100
AcDbEntity
  8
0
  6
Continuous
 62
     7
370
    15
100
AcDbLine
 10
251.2709296525
 20
214.9668936467
 30
0.0
 11
251.3497993698
 21
214.8239730461
 31
0.0
  0
LINE
  5
39D
330
1F
100
AcDbEntity
  8
0
  6
Continuous
 62
     7
370
    15
100
AcDbLine
 10
294.0266809112
 20
241.0270745057
 30
0.0
 11
293.8845239448
 21
240.7629444523
 31
0.0
  0
LINE
  5
39E
330
1F
100
AcDbEntity
  8
0
  6
Continuous
 62
     7
370
    15
100
AcDbLine
 10
294.0266809112
 20
241.0270745057
 30
0.0
 11
344.5827067175
 21
215.0652567271
 31
0.0
  0
LINE
  5
39F
330
1F
100
AcDbEntity
  8
0
  6
Continuous
 62
     7
370
    15
100
AcDbLine
 10
344.5827067175
 20
215.0652567271
 30
0.0
 11
344.5220669631
 21
214.9525863715
 31
0.0
  0
LINE
  5
3A0
330
1F
100
AcDbEntity
  8
0
  6
Continuous
 62
     7
370
    15
100
AcDbLine
 10
338.9214325416
 20
222.7521281247
 30
0.0
 11
338.9214311562
 21
221.3089088355
 31
0.0
  0
LINE
  5
3A1
330
1F
100
AcDbEntity
  8
0
  6
Continuous
 62
     7
370
    15
100
AcDbLine
 10
338.9214311562
 20
221.3089088355
 30
0.0
 11
340.0052306024
 21
220.919995699
 31
0.0
  0
LINE
  5
3A2
330
1F
100
AcDbEntity
  8
0
  6
Continuous
 62
     7
370
    15
100
AcDbLine
 10
340.0052306024
 20
220.919995699
 30
0.0
 11
340.0052319879
 21
222.3632149882
 31
0.0
  0
LINE
  5
3A3
330
1F
100
AcDbEntity
  8
0
  6
Continuous
 62
     7
370
    15
100
AcDbLine
 10
340.0052319879
 20
222.3632149882
 30
0.0
 11
338.9214325416
 21
222.7521281247
 31
0.0
  0
LINE
  5
3A4
330
1F
100
AcDbEntity
  8
0
  6
Continuous
 62
     7
370
    15
100
AcDbLine
 10
338.9214329947
 20
228.5250044942
 30
0.0
 11
338.9214325406
 21
227.0817861363
 31
0.0
  0
LINE
  5
3A5
330
1F
100
AcDbEntity
  8
0
  6
Continuous
 62
     7
370
    15
100
AcDbLine
 10
338.9214325406
 20
227.0817861363
 30
0.0
 11
340.0052319868
 21
226.6928729998
 31
0.0
  0
LINE
  5
3A6
330
1F
100
AcDbEntity
  8
0
  6
Continuous
 62
     7
370
    15
100
AcDbLine
 10
340.0052319868
 20
226.6928729998
 30
0.0
 11
340.0052292148
 21
228.136092433
 31
0.0
  0
LINE
  5
3A7
330
1F
100
AcDbEntity
  8
0
  6
Continuous
 62
     7
370
    15
100
AcDbLine
 10
340.0052292148
 20
228.136092433
 30
0.0
 11
338.9214329947
 21
228.5250044942
 31
0.0
  0
LINE
  5
3A8
330
1F
100
AcDbEntity
  8
0
  6
Continuous
 62
     7
370
    15
100
AcDbLine
 10
344.5827067175
 20
215.0652567271
 30
0.0
 11
344.58270484
 21
230.7056510275
 31
0.0
  0
LINE
  5
3A9
330
1F
100
AcDbEntity
  8
0
  6
Continuous
 62
     7
370
    15
100
AcDbLine
 10
344.58270484
 20
230.7056510275
 30
0.0
 11
294.0266809112
 21
241.0270745057
 31
0.0
  0
LINE
  5
3AA
330
1F
100
AcDbEntity
  8
0
  6
Continuous
 62
     7
370
    15
100
AcDbLine
 10
338.9214311551
 20
225.6385668471
 30
0.0
 11
338.9214339271
 21
224.1953474139
 31
0.0
  0
LINE
  5
3AB
330
1F
100
AcDbEntity
  8
0
  6
Continuous
 62
     7
370
    15
100
AcDbLine
 10
338.9214339271
 20
224.1953474139
 30
0.0
 11
340.0052301472
 21
223.8064353526
 31
0.0
  0
LINE
  5
3AC
330
1F
100
AcDbEntity
  8
0
  6
Continuous
 62
     7
370
    15
100
AcDbLine
 10
340.0052301472
 20
223.8064353526
 30
0.0
 11
340.0052306013
 21
225.2496537106
 31
0.0
  0
LINE
  5
3AD
330
1F
100
AcDbEntity
  8
0
  6
Continuous
 62
     7
370
    15
100
AcDbLine
 10
340.0052306013
 20
225.2496537106
 30
0.0
 11
338.9214311551
 21
225.6385668471
 31
0.0
  0
LINE
  5
3AE
330
1F
100
AcDbEntity
  8
0
  6
Continuous
 62
     7
370
    15
100
AcDbLine
 10
340.0052319879
 20
222.3632149882
 30
0.0
 11
339.8089118587
 21
221.9984486678
 31
0.0
  0
LINE
  5
3AF
330
1F
100
AcDbEntity
  8
0
  6
Continuous
 62
     7
370
    15
100
AcDbLine
 10
340.0052306013
 20
225.2496537106
 30
0.0
 11
339.8089104721
 21
224.8848873902
 31
0.0
  0
LINE
  5
3B0
330
1F
100
AcDbEntity
  8
0
  6
Continuous
 62
     7
370
    15
100
AcDbLine
 10
340.0052292148
 20
228.136092433
 30
0.0
 11
339.8089132431
 21
227.7713259686
 31
0.0
  0
LINE
  5
3B1
330
1F
100
AcDbEntity
  8
0
  6
Continuous
 62
     7
370
    15
100
AcDbLine
 10
330.9823578372
 20
201.4041484429
 30
0.0
 11
330.6339318917
 21
200.7727397766
 31
0.0
  0
LINE
  5
3B2
330
1F
100
AcDbEntity
  8
0
  6
Continuous
 62
     7
370
    15
100
AcDbLine
 10
330.9823578372
 20
201.4041484429
 30
0.0
 11
344.5288041755
 21
214.9491269955
 31
0.0
  0
LINE
  5
3B3
330
1F
100
AcDbEntity
  8
0
  6
Continuous
 62
     7
370
    15
100
AcDbLine
 10
344.5288041755
 20
214.9491269955
 30
0.0
 11
344.1803782299
 21
214.3177183292
 31
0.0
  0
LINE
  5
3B4
330
1F
100
AcDbEntity
  8
0
  6
Continuous
 62
     7
370
    15
100
AcDbLine
 10
330.6339318917
 20
200.7727397766
 30
0.0
 11
344.1803782299
 21
214.3177183292
 31
0.0
  0
LINE
  5
3B5
330
1F
100
AcDbEntity
  8
0
  6
Continuous
 62
     7
370
    15
100
AcDbLine
 10
330.9777728745
 20
209.9674368454
 30
0.0
 11
329.7277727861
 21
208.7175721971
 31
0.0
  0
LINE
  5
3B6
330
1F
100
AcDbEntity
  8
0
  6
Continuous
 62
     7
370
    15
100
AcDbLine
 10
329.7277727861
 20
208.7175721971
 30
0.0
 11
330.6663699985
 21
208.0158274693
 31
0.0
  0
LINE
  5
3B7
330
1F
100
AcDbEntity
  8
0
  6
Continuous
 62
     7
370
    15
100
AcDbLine
 10
330.6663699985
 20
208.0158274693
 30
0.0
 11
331.916370087
 21
209.2656921176
 31
0.0
  0
LINE
  5
3B8
330
1F
100
AcDbEntity
  8
0
  6
Continuous
 62
     7
370
    15
100
AcDbLine
 10
331.916370087
 20
209.2656921176
 30
0.0
 11
330.9777728745
 21
209.9674368454
 31
0.0
  0
LINE
  5
3B9
330
1F
100
AcDbEntity
  8
0
  6
Continuous
 62
     7
370
    15
100
AcDbLine
 10
335.9777728792
 20
214.9668950897
 30
0.0
 11
334.7277727907
 21
213.7170304413
 31
0.0
  0
LINE
  5
3BA
330
1F
100
AcDbEntity
  8
0
  6
Continuous
 62
     7
370
    15
100
AcDbLine
 10
334.7277727907
 20
213.7170304413
 30
0.0
 11
335.6663700032
 21
213.0152857135
 31
0.0
  0
LINE
  5
3BB
330
1F
100
AcDbEntity
  8
0
  6
Continuous
 62
     7
370
    15
100
AcDbLine
 10
335.6663700032
 20
213.0152857135
 30
0.0
 11
336.9163700916
 21
214.2651503619
 31
0.0
  0
LINE
  5
3BC
330
1F
100
AcDbEntity
  8
0
  6
Continuous
 62
     7
370
    15
100
AcDbLine
 10
336.9163700916
 20
214.2651503619
 30
0.0
 11
335.9777728792
 21
214.9668950897
 31
0.0
  0
LINE
  5
3BD
330
1F
100
AcDbEntity
  8
0
  6
Continuous
 62
     7
370
    15
100
AcDbLine
 10
293.9727790402
 20
240.9109447057
 30
0.0
 11
330.9823578372
 21
201.4041484429
 31
0.0
  0
LINE
  5
3BE
330
1F
100
AcDbEntity
  8
0
  6
Continuous
 62
     7
370
    15
100
AcDbLine
 10
344.5288041755
 20
214.9491269955
 30
0.0
 11
293.9727790402
 21
240.9109447057
 31
0.0
  0
LINE
  5
3BF
330
1F
100
AcDbEntity
  8
0
  6
Continuous
 62
     7
370
    15
100
AcDbLine
 10
333.4777728187
 20
212.4671659093
 30
0.0
 11
332.2277728466
 21
211.2173013774
 31
0.0
  0
LINE
  5
3C0
330
1F
100
AcDbEntity
  8
0
  6
Continuous
 62
     7
370
    15
100
AcDbLine
 10
332.2277728466
 20
211.2173013774
 30
0.0
 11
333.166370059
 21
210.5155566496
 31
0.0
  0
LINE
  5
3C1
330
1F
100
AcDbEntity
  8
0
  6
Continuous
 62
     7
370
    15
100
AcDbLine
 10
333.166370059
 20
210.5155566496
 30
0.0
 11
334.4163700311
 21
211.7654211816
 31
0.0
  0
LINE
  5
3C2
330
1F
100
AcDbEntity
  8
0
  6
Continuous
 62
     7
370
    15
100
AcDbLine
 10
334.4163700311
 20
211.7654211816
 30
0.0
 11
333.4777728187
 21
212.4671659093
 31
0.0
  0
LINE
  5
3C3
330
1F
100
AcDbEntity
  8
0
  6
Continuous
 62
     7
370
    15
100
AcDbLine
 10
293.9727790402
 20
240.9109447057
 30
0.0
 11
293.888667245
 21
240.7585241306
 31
0.0
  0
LINE
  5
3C4
330
1F
100
AcDbEntity
  8
0
  6
Continuous
 62
     7
370
    15
100
AcDbLine
 10
330.9777728745
 20
209.9674368454
 30
0.0
 11
330.8989052863
 21
209.824514116
 31
0.0
  0
LINE
  5
3C5
330
1F
100
AcDbEntity
  8
0
  6
Continuous
 62
     7
370
    15
100
AcDbLine
 10
333.4777728187
 20
212.4671659093
 30
0.0
 11
333.3989052304
 21
212.32424318
 31
0.0
  0
LINE
  5
3C6
330
1F
100
AcDbEntity
  8
0
  6
Continuous
 62
     7
370
    15
100
AcDbLine
 10
335.9777728792
 20
214.9668950897
 30
0.0
 11
335.8989052909
 21
214.8239723603
 31
0.0
  0
LINE
  5
3C7
330
1F
100
AcDbEntity
  8
0
  6
Continuous
 62
     7
370
    15
100
AcDbLine
 10
324.3818302374
 20
194.4129556284
 30
0.0
 11
324.6864154826
 21
194.5144730943
 31
0.0
  0
LINE
  5
3C8
330
1F
100
AcDbEntity
  8
0
  6
Continuous
 62
     7
370
    15
100
AcDbLine
 10
323.2726809579
 20
195.7097649753
 30
0.0
 11
323.1318315742
 21
195.6628201897
 31
0.0
  0
LINE
  5
3C9
330
1F
100
AcDbEntity
  8
0
  6
Continuous
 62
     7
370
    15
100
AcDbLine
 10
323.1318315742
 20
195.6628201897
 30
0.0
 11
324.3818302374
 21
194.4129556284
 31
0.0
  0
LINE
  5
3CA
330
1F
100
AcDbEntity
  8
0
  6
Continuous
 62
     7
370
    15
100
AcDbLine
 10
325.7726808287
 20
193.2100362462
 30
0.0
 11
325.6318305137
 21
193.1630905294
 31
0.0
  0
LINE
  5
3CB
330
1F
100
AcDbEntity
  8
0
  6
Continuous
 62
     7
370
    15
100
AcDbLine
 10
325.6318305137
 20
193.1630905294
 30
0.0
 11
326.4092525074
 21
192.3857530873
 31
0.0
  0
LINE
  5
3CC
330
1F
100
AcDbEntity
  8
0
  6
Continuous
 62
     7
370
    15
100
AcDbLine
 10
321.699438653
 20
197.0950577915
 30
0.0
 11
321.8818303665
 21
196.9126843575
 31
0.0
  0
LINE
  5
3CD
330
1F
100
AcDbEntity
  8
0
  6
Continuous
 62
     7
370
    15
100
AcDbLine
 10
321.8818303665
 20
196.9126843575
 30
0.0
 11
322.1864173496
 21
197.0142024858
 31
0.0
  0
LINE
  5
3CE
330
1F
100
AcDbEntity
  8
0
  6
Continuous
 62
     7
370
    15
100
AcDbLine
 10
261.8410142175
 20
175.2347614143
 30
0.0
 11
263.0910128807
 21
173.984896853
 31
0.0
  0
LINE
  5
3CF
330
1F
100
AcDbEntity
  8
0
  6
Continuous
 62
     7
370
    15
100
AcDbLine
 10
259.3410143466
 20
177.7344901434
 30
0.0
 11
260.5910139412
 21
176.4846265133
 31
0.0
  0
LINE
  5
3D0
330
1F
100
AcDbEntity
  8
0
  6
Continuous
 62
     7
370
    15
100
AcDbLine
 10
264.3410140883
 20
172.7350326852
 30
0.0
 11
265.5910144894
 21
171.4851687863
 31
0.0
  0
LINE
  5
3D1
330
1F
100
AcDbEntity
  8
0
  6
Continuous
 62
     7
370
    15
100
AcDbLine
 10
274.5525460398
 20
167.368296405
 30
0.0
 11
276.7176095009
 21
166.646686781
 31
0.0
  0
LINE
  5
3D2
330
1F
100
AcDbEntity
  8
0
  6
Continuous
 62
     7
370
    15
100
AcDbLine
 10
270.2224189161
 20
168.8115157202
 30
0.0
 11
272.3874825788
 21
168.089906029
 31
0.0
  0
LINE
  5
3D3
330
1F
100
AcDbEntity
  8
0
  6
Continuous
 62
     7
370
    15
100
AcDbLine
 10
278.882672962
 20
165.9250771571
 30
0.0
 11
281.0477366247
 21
165.2034674659
 31
0.0
  0
LINE
  5
3D4
330
1F
100
AcDbEntity
  8
0
  6
Continuous
 62
     7
370
    15
100
AcDbLine
 10
292.3743522527
 20
164.2248413659
 30
0.0
 11
294.8743515864
 21
164.224842035
 31
0.0
  0
LINE
  5
3D5
330
1F
100
AcDbEntity
  8
0
  6
Continuous
 62
     7
370
    15
100
AcDbLine
 10
287.3743530281
 20
164.2248426968
 30
0.0
 11
289.8743522371
 21
164.2248421658
 31
0.0
  0
LINE
  5
3D6
330
1F
100
AcDbEntity
  8
0
  6
Continuous
 62
     7
370
    15
100
AcDbLine
 10
297.3743525333
 20
164.2248421664
 30
0.0
 11
299.8743509357
 21
164.2248419042
 31
0.0
  0
LINE
  5
3D7
330
1F
100
AcDbEntity
  8
0
  6
Continuous
 62
     7
370
    15
100
AcDbLine
 10
310.5310951142
 20
166.6466862477
 30
0.0
 11
312.6961586262
 21
167.3682951161
 31
0.0
  0
LINE
  5
3D8
330
1F
100
AcDbEntity
  8
0
  6
Continuous
 62
     7
370
    15
100
AcDbLine
 10
306.2009687721
 20
165.203467042
 30
0.0
 11
308.3660306709
 21
165.9250764481
 31
0.0
  0
LINE
  5
3D9
330
1F
100
AcDbEntity
  8
0
  6
Continuous
 62
     7
370
    15
100
AcDbLine
 10
314.8612214563
 20
168.0899054534
 30
0.0
 11
317.0262838209
 21
168.811515325
 31
0.0
  0
LINE
  5
3DA
330
1F
100
AcDbEntity
  8
0
  6
Continuous
 62
     7
370
    15
100
AcDbLine
 10
324.1576886561
 20
173.9848973705
 30
0.0
 11
325.3182644897
 21
175.1453474534
 31
0.0
  0
LINE
  5
3DB
330
1F
100
AcDbEntity
  8
0
  6
Continuous
 62
     7
370
    15
100
AcDbLine
 10
321.6576885956
 20
171.4851681902
 30
0.0
 11
322.907688684
 21
172.7350328386
 31
0.0
  0
LINE
  5
3DC
330
1F
100
AcDbEntity
  8
0
  6
Continuous
 62
     7
370
    15
100
AcDbLine
 10
327.3794138862
 20
177.20627352
 30
0.0
 11
327.5298434368
 21
177.3566867712
 31
0.0
  0
LINE
  5
3DD
330
1F
100
AcDbEntity
  8
0
  6
Continuous
 62
     7
370
    15
100
AcDbLine
 10
283.7159790837
 20
163.6475538999
 30
0.0
 11
303.5327246149
 21
163.6475537471
 31
0.0
  0
LINE
  5
3DE
330
1F
100
AcDbEntity
  8
0
  6
Continuous
 62
     7
370
    15
100
AcDbLine
 10
266.5541744305
 20
169.3675356119
 30
0.0
 11
283.7159790837
 21
163.6475538999
 31
0.0
  0
LINE
  5
3DF
330
1F
100
AcDbEntity
  8
0
  6
Continuous
 62
     7
370
    15
100
AcDbLine
 10
256.6458014356
 20
179.2748347082
 30
0.0
 11
266.5541744305
 21
169.3675356119
 31
0.0
  0
LINE
  5
3E0
330
1F
100
AcDbEntity
  8
0
  6
Continuous
 62
     7
370
    15
100
AcDbLine
 10
256.6458022924
 20
183.3047694292
 30
0.0
 11
256.6458014356
 21
179.2748347082
 31
0.0
  0
LINE
  5
3E1
330
1F
100
AcDbEntity
  8
0
  6
Continuous
 62
     7
370
    15
100
AcDbLine
 10
330.6029028774
 20
180.6167962092
 30
0.0
 11
330.6029029258
 21
183.3047693883
 31
0.0
  0
LINE
  5
3E2
330
1F
100
AcDbEntity
  8
0
  6
Continuous
 62
     7
370
    15
100
AcDbLine
 10
320.6945295328
 20
169.3675357238
 30
0.0
 11
326.2125771957
 21
174.8849854947
 31
0.0
  0
LINE
  5
3E3
330
1F
100
AcDbEntity
  8
0
  6
Continuous
 62
     7
370
    15
100
AcDbLine
 10
303.5327246149
 20
163.6475537471
 30
0.0
 11
320.6945295328
 21
169.3675357238
 31
0.0
  0
LINE
  5
3E4
330
1F
100
AcDbEntity
  8
0
  6
Continuous
 62
     7
370
    15
100
AcDbLine
 10
303.5327246149
 20
162.8310129439
 30
0.0
 11
303.5327246149
 21
163.6475537471
 31
0.0
  0
LINE
  5
3E5
330
1F
100
AcDbEntity
  8
0
  6
Continuous
 62
     7
370
    15
100
AcDbLine
 10
283.7159790837
 20
162.8310130968
 30
0.0
 11
283.7159790837
 21
163.6475538999
 31
0.0
  0
LINE
  5
3E6
330
1F
100
AcDbEntity
  8
0
  6
Continuous
 62
     7
370
    15
100
AcDbLine
 10
283.7159790837
 20
162.8310130968
 30
0.0
 11
303.5327246149
 21
162.8310129439
 31
0.0
  0
LINE
  5
3E7
330
1F
100
AcDbEntity
  8
0
  6
Continuous
 62
     7
370
    15
100
AcDbLine
 10
320.6945295328
 20
168.5509949206
 30
0.0
 11
320.6945295328
 21
169.3675357238
 31
0.0
  0
LINE
  5
3E8
330
1F
100
AcDbEntity
  8
0
  6
Continuous
 62
     7
370
    15
100
AcDbLine
 10
303.5327246149
 20
162.8310129439
 30
0.0
 11
320.6945295328
 21
168.5509949206
 31
0.0
  0
LINE
  5
3E9
330
1F
100
AcDbEntity
  8
0
  6
Continuous
 62
     7
370
    15
100
AcDbLine
 10
266.5541744305
 20
168.5509948087
 30
0.0
 11
266.5541744305
 21
169.3675356119
 31
0.0
  0
LINE
  5
3EA
330
1F
100
AcDbEntity
  8
0
  6
Continuous
 62
     7
370
    15
100
AcDbLine
 10
266.5541744305
 20
168.5509948087
 30
0.0
 11
283.7159790837
 21
162.8310130968
 31
0.0
  0
LINE
  5
3EB
330
1F
100
AcDbEntity
  8
0
  6
Continuous
 62
     7
370
    15
100
AcDbLine
 10
320.6945295328
 20
168.5509949206
 30
0.0
 11
326.8249891348
 21
174.6807902746
 31
0.0
  0
LINE
  5
3EC
330
1F
100
AcDbEntity
  8
0
  6
Continuous
 62
     7
370
    15
100
AcDbLine
 10
256.6458014356
 20
178.4582939051
 30
0.0
 11
256.6458014356
 21
179.2748347082
 31
0.0
  0
LINE
  5
3ED
330
1F
100
AcDbEntity
  8
0
  6
Continuous
 62
     7
370
    15
100
AcDbLine
 10
256.6458014356
 20
178.4582939051
 30
0.0
 11
266.5541744305
 21
168.5509948087
 31
0.0
  0
LINE
  5
3EE
330
1F
100
AcDbEntity
  8
0
  6
Continuous
 62
     7
370
    15
100
AcDbLine
 10
330.0125074639
 20
181.1062158925
 30
0.0
 11
337.0041437546
 21
207.1422643362
 31
0.0
  0
LINE
  5
3EF
330
1F
100
AcDbEntity
  8
0
  6
Continuous
 62
     7
370
    15
100
AcDbLine
 10
339.8089118587
 20
222.4147017196
 30
0.0
 11
338.9214325416
 21
222.5672626377
 31
0.0
  0
LINE
  5
3F0
330
1F
100
AcDbEntity
  8
0
  6
Continuous
 62
     7
370
    15
100
AcDbLine
 10
339.8089116281
 20
220.9904429602
 30
0.0
 11
339.8089118587
 21
222.4147017196
 31
0.0
  0
LINE
  5
3F1
330
1F
100
AcDbEntity
  8
0
  6
Continuous
 62
     7
370
    15
100
AcDbLine
 10
339.8089104721
 20
225.3011404421
 30
0.0
 11
338.9214311551
 21
225.4537013601
 31
0.0
  0
LINE
  5
3F2
330
1F
100
AcDbEntity
  8
0
  6
Continuous
 62
     7
370
    15
100
AcDbLine
 10
339.8089102416
 20
223.8768816827
 30
0.0
 11
339.8089104721
 21
225.3011404421
 31
0.0
  0
LINE
  5
3F3
330
1F
100
AcDbEntity
  8
0
  6
Continuous
 62
     7
370
    15
100
AcDbLine
 10
339.8089132431
 20
228.1875790204
 30
0.0
 11
338.9214329947
 21
228.3401390072
 31
0.0
  0
LINE
  5
3F4
330
1F
100
AcDbEntity
  8
0
  6
Continuous
 62
     7
370
    15
100
AcDbLine
 10
339.8089130125
 20
226.763320261
 30
0.0
 11
339.8089132431
 21
228.1875790204
 31
0.0
  0
LINE
  5
3F5
330
1F
100
AcDbEntity
  8
0
  6
Continuous
 62
     7
370
    15
100
AcDbLine
 10
319.964226287
 20
246.5868933001
 30
0.0
 11
319.707335856
 21
246.4183508638
 31
0.0
  0
LINE
  5
3F6
330
1F
100
AcDbEntity
  8
0
  6
Continuous
 62
     7
370
    15
100
AcDbLine
 10
322.0984850202
 20
245.8755508062
 30
0.0
 11
319.964226287
 21
246.5868933001
 31
0.0
  0
LINE
  5
3F7
330
1F
100
AcDbEntity
  8
0
  6
Continuous
 62
     7
370
    15
100
AcDbLine
 10
315.6340993649
 20
248.030112548
 30
0.0
 11
315.3772089339
 21
247.8615701118
 31
0.0
  0
LINE
  5
3F8
330
1F
100
AcDbEntity
  8
0
  6
Continuous
 62
     7
370
    15
100
AcDbLine
 10
317.7683577956
 20
247.3187701549
 30
0.0
 11
315.6340993649
 21
248.030112548
 31
0.0
  0
LINE
  5
3F9
330
1F
100
AcDbEntity
  8
0
  6
Continuous
 62
     7
370
    15
100
AcDbLine
 10
311.3039722411
 20
249.4733318632
 30
0.0
 11
311.0470818101
 21
249.3047894269
 31
0.0
  0
LINE
  5
3FA
330
1F
100
AcDbEntity
  8
0
  6
Continuous
 62
     7
370
    15
100
AcDbLine
 10
313.4382307726
 20
248.7619894365
 30
0.0
 11
311.3039722411
 21
249.4733318632
 31
0.0
  0
LINE
  5
3FB
330
1F
100
AcDbEntity
  8
0
  6
Continuous
 62
     7
370
    15
100
AcDbLine
 10
325.8102406355
 20
193.3907710736
 30
0.0
 11
325.7403699994
 21
193.0545625184
 31
0.0
  0
LINE
  5
3FC
330
1F
100
AcDbEntity
  8
0
  6
Continuous
 62
     7
370
    15
100
AcDbLine
 10
324.560241041
 20
194.6406347037
 30
0.0
 11
325.8102406355
 21
193.3907710736
 31
0.0
  0
LINE
  5
3FD
330
1F
100
AcDbEntity
  8
0
  6
Continuous
 62
     7
370
    15
100
AcDbLine
 10
324.5226812342
 20
194.4598998763
 30
0.0
 11
324.560241041
 21
194.6406347037
 31
0.0
  0
LINE
  5
3FE
330
1F
100
AcDbEntity
  8
0
  6
Continuous
 62
     7
370
    15
100
AcDbLine
 10
323.3102407647
 20
195.8904998027
 30
0.0
 11
323.2403710598
 21
195.5542921787
 31
0.0
  0
LINE
  5
3FF
330
1F
100
AcDbEntity
  8
0
  6
Continuous
 62
     7
370
    15
100
AcDbLine
 10
322.0602412949
 20
197.1403646328
 30
0.0
 11
323.3102407647
 21
195.8904998027
 31
0.0
  0
LINE
  5
400
330
1F
100
AcDbEntity
  8
0
  6
Continuous
 62
     7
370
    15
100
AcDbLine
 10
322.0226805568
 20
196.9596288742
 30
0.0
 11
322.0602412949
 21
197.1403646328
 31
0.0
  0
LINE
  5
401
330
1F
100
AcDbEntity
  8
0
  6
Continuous
 62
     7
370
    15
100
AcDbLine
 10
335.4963542476
 20
236.0356230986
 30
0.0
 11
334.8906952822
 21
235.9539825967
 31
0.0
  0
LINE
  5
402
330
1F
100
AcDbEntity
  8
0
  6
Continuous
 62
     7
370
    15
100
AcDbLine
 10
336.7257189088
 20
234.8063917991
 30
0.0
 11
335.4963542476
 21
236.0356230986
 31
0.0
  0
LINE
  5
403
330
1F
100
AcDbEntity
  8
0
  6
Continuous
 62
     7
370
    15
100
AcDbLine
 10
332.996355308
 20
238.5353527589
 30
0.0
 11
332.39069448
 21
238.4537103945
 31
0.0
  0
LINE
  5
404
330
1F
100
AcDbEntity
  8
0
  6
Continuous
 62
     7
370
    15
100
AcDbLine
 10
334.2257199693
 20
237.3061214594
 30
0.0
 11
332.996355308
 21
238.5353527589
 31
0.0
  0
LINE
  5
405
330
1F
100
AcDbEntity
  8
0
  6
Continuous
 62
     7
370
    15
100
AcDbLine
 10
330.4963528928
 20
241.0350810944
 30
0.0
 11
329.8906955405
 21
240.9534400548
 31
0.0
  0
LINE
  5
406
330
1F
100
AcDbEntity
  8
0
  6
Continuous
 62
     7
370
    15
100
AcDbLine
 10
331.725717554
 20
239.8058497949
 30
0.0
 11
330.4963528928
 21
241.0350810944
 31
0.0
  0
LINE
  5
407
330
1F
100
AcDbEntity
  8
0
  6
Continuous
 62
     7
370
    15
100
AcDbLine
 10
251.7523510712
 20
236.0356228563
 30
0.0
 11
252.358008079
 21
235.9539821612
 31
0.0
  0
LINE
  5
408
330
1F
100
AcDbEntity
  8
0
  6
Continuous
 62
     7
370
    15
100
AcDbLine
 10
251.7523510712
 20
236.0356228563
 30
0.0
 11
250.5229865298
 21
234.8063915192
 31
0.0
  0
LINE
  5
409
330
1F
100
AcDbEntity
  8
0
  6
Continuous
 62
     7
370
    15
100
AcDbLine
 10
254.2523510153
 20
238.5353519203
 30
0.0
 11
254.8580080231
 21
238.4537112251
 31
0.0
  0
LINE
  5
40A
330
1F
100
AcDbEntity
  8
0
  6
Continuous
 62
     7
370
    15
100
AcDbLine
 10
254.2523510153
 20
238.5353519203
 30
0.0
 11
253.0229865904
 21
237.3061206995
 31
0.0
  0
LINE
  5
40B
330
1F
100
AcDbEntity
  8
0
  6
Continuous
 62
     7
370
    15
100
AcDbLine
 10
256.7523510758
 20
241.0350811006
 30
0.0
 11
257.3580080837
 21
240.9534404054
 31
0.0
  0
LINE
  5
40C
330
1F
100
AcDbEntity
  8
0
  6
Continuous
 62
     7
370
    15
100
AcDbLine
 10
256.7523510758
 20
241.0350811006
 30
0.0
 11
255.5229865345
 21
239.8058497634
 31
0.0
  0
LINE
  5
40D
330
1F
100
AcDbEntity
  8
0
  6
Continuous
 62
     7
370
    15
100
AcDbLine
 10
267.2844766607
 20
246.5868940611
 30
0.0
 11
267.5413682996
 21
246.4183512223
 31
0.0
  0
LINE
  5
40E
330
1F
100
AcDbEntity
  8
0
  6
Continuous
 62
     7
370
    15
100
AcDbLine
 10
267.2844766607
 20
246.5868940611
 30
0.0
 11
265.1502188344
 21
245.8755518019
 31
0.0
  0
LINE
  5
40F
330
1F
100
AcDbEntity
  8
0
  6
Continuous
 62
     7
370
    15
100
AcDbLine
 10
271.6146046159
 20
248.0301127291
 30
0.0
 11
271.8714962548
 21
247.8615698903
 31
0.0
  0
LINE
  5
410
330
1F
100
AcDbEntity
  8
0
  6
Continuous
 62
     7
370
    15
100
AcDbLine
 10
271.6146046159
 20
248.0301127291
 30
0.0
 11
269.4803435635
 21
247.3187715452
 31
0.0
  0
LINE
  5
411
330
1F
100
AcDbEntity
  8
0
  6
Continuous
 62
     7
370
    15
100
AcDbLine
 10
275.9447302763
 20
249.4733334036
 30
0.0
 11
276.2016209838
 21
249.3047896336
 31
0.0
  0
LINE
  5
412
330
1F
100
AcDbEntity
  8
0
  6
Continuous
 62
     7
370
    15
100
AcDbLine
 10
275.9447302763
 20
249.4733334036
 30
0.0
 11
273.8104715187
 21
248.7619902132
 31
0.0
  0
LINE
  5
413
330
1F
100
AcDbEntity
  8
0
  6
Continuous
 62
     7
370
    15
100
AcDbLine
 10
281.4313077596
 20
192.9525423015
 30
0.0
 11
283.7568561065
 21
164.3005254849
 31
0.0
  0
LINE
  5
414
330
1F
100
AcDbEntity
  8
0
  6
Continuous
 62
     7
370
    15
100
AcDbLine
 10
283.7568561065
 20
164.3005254849
 30
0.0
 11
281.0477366247
 21
165.2034674659
 31
0.0
  0
LINE
  5
415
330
1F
100
AcDbEntity
  8
0
  6
Continuous
 62
     7
370
    15
100
AcDbLine
 10
278.882672962
 20
165.9250771571
 30
0.0
 11
276.7176095009
 21
166.646686781
 31
0.0
  0
LINE
  5
416
330
1F
100
AcDbEntity
  8
0
  6
Continuous
 62
     7
370
    15
100
AcDbLine
 10
274.5525460398
 20
167.368296405
 30
0.0
 11
272.3874825788
 21
168.089906029
 31
0.0
  0
LINE
  5
417
330
1F
100
AcDbEntity
  8
0
  6
Continuous
 62
     7
370
    15
100
AcDbLine
 10
270.2224189161
 20
168.8115157202
 30
0.0
 11
267.5132994343
 21
169.7144577012
 31
0.0
  0
LINE
  5
418
330
1F
100
AcDbEntity
  8
0
  6
Continuous
 62
     7
370
    15
100
AcDbLine
 10
267.5132994343
 20
169.7144577012
 30
0.0
 11
261.2625941253
 21
199.2236334224
 31
0.0
  0
LINE
  5
419
330
1F
100
AcDbEntity
  8
0
  6
Continuous
 62
     7
370
    15
100
AcDbLine
 10
265.1477986692
 20
203.1019628159
 30
0.0
 11
265.1194138198
 21
203.2937776349
 31
0.0
  0
LINE
  5
41A
330
1F
100
AcDbEntity
  8
0
  6
Continuous
 62
     7
370
    15
100
AcDbLine
 10
265.1194138198
 20
203.2937776349
 30
0.0
 11
267.2752322128
 21
202.5752493664
 31
0.0
  0
LINE
  5
41B
330
1F
100
AcDbEntity
  8
0
  6
Continuous
 62
     7
370
    15
100
AcDbLine
 10
269.477925793
 20
201.6587435007
 30
0.0
 11
269.4495409435
 21
201.8505583198
 31
0.0
  0
LINE
  5
41C
330
1F
100
AcDbEntity
  8
0
  6
Continuous
 62
     7
370
    15
100
AcDbLine
 10
269.4495409435
 20
201.8505583198
 30
0.0
 11
271.6053592358
 21
201.1320300848
 31
0.0
  0
LINE
  5
41D
330
1F
100
AcDbEntity
  8
0
  6
Continuous
 62
     7
370
    15
100
AcDbLine
 10
273.8080527151
 20
200.2155242527
 30
0.0
 11
273.7796678657
 21
200.4073390718
 31
0.0
  0
LINE
  5
41E
330
1F
100
AcDbEntity
  8
0
  6
Continuous
 62
     7
370
    15
100
AcDbLine
 10
273.7796678657
 20
200.4073390718
 30
0.0
 11
275.9354864604
 21
199.688810736
 31
0.0
  0
LINE
  5
41F
330
1F
100
AcDbEntity
  8
0
  6
Continuous
 62
     7
370
    15
100
AcDbLine
 10
283.7568561065
 20
164.3005254849
 30
0.0
 11
284.1924785155
 21
164.8858705742
 31
0.0
  0
LINE
  5
420
330
1F
100
AcDbEntity
  8
0
  6
Continuous
 62
     7
370
    15
100
AcDbLine
 10
273.7796678657
 20
200.4073390718
 30
0.0
 11
274.2689419055
 21
201.0647775312
 31
0.0
  0
LINE
  5
421
330
1F
100
AcDbEntity
  8
0
  6
Continuous
 62
     7
370
    15
100
AcDbLine
 10
274.2689419055
 20
201.0647775312
 30
0.0
 11
276.3355646486
 21
200.3759779245
 31
0.0
  0
LINE
  5
422
330
1F
100
AcDbEntity
  8
0
  6
Continuous
 62
     7
370
    15
100
AcDbLine
 10
269.4495409435
 20
201.8505583198
 30
0.0
 11
269.9388149834
 21
202.5079967791
 31
0.0
  0
LINE
  5
423
330
1F
100
AcDbEntity
  8
0
  6
Continuous
 62
     7
370
    15
100
AcDbLine
 10
269.9388149834
 20
202.5079967791
 30
0.0
 11
272.0054377265
 21
201.8191971724
 31
0.0
  0
LINE
  5
424
330
1F
100
AcDbEntity
  8
0
  6
Continuous
 62
     7
370
    15
100
AcDbLine
 10
265.1194138198
 20
203.2937776349
 30
0.0
 11
265.6086878596
 21
203.9512160943
 31
0.0
  0
LINE
  5
425
330
1F
100
AcDbEntity
  8
0
  6
Continuous
 62
     7
370
    15
100
AcDbLine
 10
265.6086878596
 20
203.9512160943
 30
0.0
 11
267.6753108044
 21
203.2624164204
 31
0.0
  0
LINE
  5
426
330
1F
100
AcDbEntity
  8
0
  6
Continuous
 62
     7
370
    15
100
AcDbLine
 10
260.9243363421
 20
199.3363719243
 30
0.0
 11
267.1551250879
 21
169.9212270211
 31
0.0
  0
LINE
  5
427
330
1F
100
AcDbEntity
  8
0
  6
Continuous
 62
     7
370
    15
100
AcDbLine
 10
267.1551250879
 20
169.9212270211
 30
0.0
 11
265.5910144894
 21
171.4851687863
 31
0.0
  0
LINE
  5
428
330
1F
100
AcDbEntity
  8
0
  6
Continuous
 62
     7
370
    15
100
AcDbLine
 10
264.3410140883
 20
172.7350326852
 30
0.0
 11
263.0910128807
 21
173.984896853
 31
0.0
  0
LINE
  5
429
330
1F
100
AcDbEntity
  8
0
  6
Continuous
 62
     7
370
    15
100
AcDbLine
 10
261.8410142175
 20
175.2347614143
 30
0.0
 11
260.5910139412
 21
176.4846265133
 31
0.0
  0
LINE
  5
42A
330
1F
100
AcDbEntity
  8
0
  6
Continuous
 62
     7
370
    15
100
AcDbLine
 10
259.3410143466
 20
177.7344901434
 30
0.0
 11
257.7769029416
 21
179.2984321774
 31
0.0
  0
LINE
  5
42B
330
1F
100
AcDbEntity
  8
0
  6
Continuous
 62
     7
370
    15
100
AcDbLine
 10
257.7769029416
 20
179.2984321774
 30
0.0
 11
250.3200932577
 21
207.0667367707
 31
0.0
  0
LINE
  5
42C
330
1F
100
AcDbEntity
  8
0
  6
Continuous
 62
     7
370
    15
100
AcDbLine
 10
250.5907804146
 20
214.0067296812
 30
0.0
 11
250.5023483143
 21
214.373302313
 31
0.0
  0
LINE
  5
42D
330
1F
100
AcDbEntity
  8
0
  6
Continuous
 62
     7
370
    15
100
AcDbLine
 10
250.5023483143
 20
214.373302313
 30
0.0
 11
251.7414989987
 21
213.1342858411
 31
0.0
  0
LINE
  5
42E
330
1F
100
AcDbEntity
  8
0
  6
Continuous
 62
     7
370
    15
100
AcDbLine
 10
253.0907812168
 20
211.5070018834
 30
0.0
 11
253.0023507296
 21
211.8735739775
 31
0.0
  0
LINE
  5
42F
330
1F
100
AcDbEntity
  8
0
  6
Continuous
 62
     7
370
    15
100
AcDbLine
 10
253.0023507296
 20
211.8735739775
 30
0.0
 11
254.2414998009
 21
210.6345580432
 31
0.0
  0
LINE
  5
430
330
1F
100
AcDbEntity
  8
0
  6
Continuous
 62
     7
370
    15
100
AcDbLine
 10
255.5907801563
 20
209.0072722231
 30
0.0
 11
255.5023496691
 21
209.3738443172
 31
0.0
  0
LINE
  5
431
330
1F
100
AcDbEntity
  8
0
  6
Continuous
 62
     7
370
    15
100
AcDbLine
 10
255.5023496691
 20
209.3738443172
 30
0.0
 11
256.7414987404
 21
208.1348283829
 31
0.0
  0
LINE
  5
432
330
1F
100
AcDbEntity
  8
0
  6
Continuous
 62
     7
370
    15
100
AcDbLine
 10
267.1551250879
 20
169.9212270211
 30
0.0
 11
267.4376735897
 21
170.0714844121
 31
0.0
  0
LINE
  5
433
330
1F
100
AcDbEntity
  8
0
  6
Continuous
 62
     7
370
    15
100
AcDbLine
 10
255.5023496691
 20
209.3738443172
 30
0.0
 11
256.3497972488
 21
209.8245137255
 31
0.0
  0
LINE
  5
434
330
1F
100
AcDbEntity
  8
0
  6
Continuous
 62
     7
370
    15
100
AcDbLine
 10
256.3497972488
 20
209.8245137255
 30
0.0
 11
257.484270914
 21
208.6901653559
 31
0.0
  0
LINE
  5
435
330
1F
100
AcDbEntity
  8
0
  6
Continuous
 62
     7
370
    15
100
AcDbLine
 10
253.0023507296
 20
211.8735739775
 30
0.0
 11
253.8497983093
 21
212.3242433858
 31
0.0
  0
LINE
  5
436
330
1F
100
AcDbEntity
  8
0
  6
Continuous
 62
     7
370
    15
100
AcDbLine
 10
253.8497983093
 20
212.3242433858
 30
0.0
 11
254.9842701118
 21
211.1898931538
 31
0.0
  0
LINE
  5
437
330
1F
100
AcDbEntity
  8
0
  6
Continuous
 62
     7
370
    15
100
AcDbLine
 10
250.5023483143
 20
214.373302313
 30
0.0
 11
251.3497993698
 21
214.8239730461
 31
0.0
  0
LINE
  5
438
330
1F
100
AcDbEntity
  8
0
  6
Continuous
 62
     7
370
    15
100
AcDbLine
 10
251.3497993698
 20
214.8239730461
 30
0.0
 11
252.4842711723
 21
213.6896228141
 31
0.0
  0
LINE
  5
439
330
1F
100
AcDbEntity
  8
0
  6
Continuous
 62
     7
370
    15
100
AcDbLine
 10
257.6458022964
 20
179.5808842007
 30
0.0
 11
257.6986152783
 21
179.5899632467
 31
0.0
  0
LINE
  5
43A
330
1F
100
AcDbEntity
  8
0
  6
Continuous
 62
     7
370
    15
100
AcDbLine
 10
250.2445602137
 20
207.1422629333
 30
0.0
 11
257.6458022964
 21
179.5808842007
 31
0.0
  0
LINE
  5
43B
330
1F
100
AcDbEntity
  8
0
  6
Continuous
 62
     7
370
    15
100
AcDbLine
 10
247.4397919119
 20
222.4147015126
 30
0.0
 11
248.3272712289
 21
222.5672626413
 31
0.0
  0
LINE
  5
43C
330
1F
100
AcDbEntity
  8
0
  6
Continuous
 62
     7
370
    15
100
AcDbLine
 10
247.4397919119
 20
222.4147015126
 30
0.0
 11
247.4397916813
 21
220.9904427532
 31
0.0
  0
LINE
  5
43D
330
1F
100
AcDbEntity
  8
0
  6
Continuous
 62
     7
370
    15
100
AcDbLine
 10
247.4397905253
 20
225.301140235
 30
0.0
 11
248.3272698424
 21
225.4537013637
 31
0.0
  0
LINE
  5
43E
330
1F
100
AcDbEntity
  8
0
  6
Continuous
 62
     7
370
    15
100
AcDbLine
 10
247.4397905253
 20
225.301140235
 30
0.0
 11
247.4397902948
 21
223.8768814756
 31
0.0
  0
LINE
  5
43F
330
1F
100
AcDbEntity
  8
0
  6
Continuous
 62
     7
370
    15
100
AcDbLine
 10
247.4397932963
 20
228.1875788134
 30
0.0
 11
248.3272726133
 21
228.3401399421
 31
0.0
  0
LINE
  5
440
330
1F
100
AcDbEntity
  8
0
  6
Continuous
 62
     7
370
    15
100
AcDbLine
 10
247.4397932963
 20
228.1875788134
 30
0.0
 11
247.4397930657
 21
226.763320054
 31
0.0
  0
LINE
  5
441
330
1F
100
AcDbEntity
  8
0
  6
Continuous
 62
     7
370
    15
100
AcDbLine
 10
299.874351869
 20
251.2413087831
 30
0.0
 11
297.3743518535
 21
251.2413095829
 31
0.0
  0
LINE
  5
442
330
1F
100
AcDbEntity
  8
0
  6
Continuous
 62
     7
370
    15
100
AcDbLine
 10
294.874351838
 20
251.2413103828
 30
0.0
 11
292.3743515729
 21
251.2413087825
 31
0.0
  0
LINE
  5
443
330
1F
100
AcDbEntity
  8
0
  6
Continuous
 62
     7
370
    15
100
AcDbLine
 10
289.8743515573
 20
251.2413095823
 30
0.0
 11
287.3743515418
 21
251.2413103821
 31
0.0
  0
LINE
  5
444
330
1F
100
AcDbEntity
  8
0
  6
Continuous
 62
     7
370
    15
100
AcDbLine
 10
305.3342652552
 20
192.9525415289
 30
0.0
 11
303.0025739013
 21
164.2248419561
 31
0.0
  0
LINE
  5
445
330
1F
100
AcDbEntity
  8
0
  6
Continuous
 62
     7
370
    15
100
AcDbLine
 10
303.0025739013
 20
164.2248419561
 30
0.0
 11
299.8743509357
 21
164.2248419042
 31
0.0
  0
LINE
  5
446
330
1F
100
AcDbEntity
  8
0
  6
Continuous
 62
     7
370
    15
100
AcDbLine
 10
297.3743525333
 20
164.2248421664
 30
0.0
 11
294.8743515864
 21
164.224842035
 31
0.0
  0
LINE
  5
447
330
1F
100
AcDbEntity
  8
0
  6
Continuous
 62
     7
370
    15
100
AcDbLine
 10
292.3743522527
 20
164.2248413659
 30
0.0
 11
289.8743522371
 21
164.2248421658
 31
0.0
  0
LINE
  5
448
330
1F
100
AcDbEntity
  8
0
  6
Continuous
 62
     7
370
    15
100
AcDbLine
 10
287.3743530281
 20
164.2248426968
 30
0.0
 11
284.2461308691
 21
164.2248423761
 31
0.0
  0
LINE
  5
449
330
1F
100
AcDbEntity
  8
0
  6
Continuous
 62
     7
370
    15
100
AcDbLine
 10
284.2461308691
 20
164.2248423761
 30
0.0
 11
281.9144398012
 21
192.9525409393
 31
0.0
  0
LINE
  5
44A
330
1F
100
AcDbEntity
  8
0
  6
Continuous
 62
     7
370
    15
100
AcDbLine
 10
287.3743519005
 20
197.9177524607
 30
0.0
 11
289.874351916
 21
197.9177516609
 31
0.0
  0
LINE
  5
44B
330
1F
100
AcDbEntity
  8
0
  6
Continuous
 62
     7
370
    15
100
AcDbLine
 10
292.3743519316
 20
197.9177508611
 30
0.0
 11
294.8743521966
 21
197.9177524613
 31
0.0
  0
LINE
  5
44C
330
1F
100
AcDbEntity
  8
0
  6
Continuous
 62
     7
370
    15
100
AcDbLine
 10
297.3743522122
 20
197.9177516615
 30
0.0
 11
299.8743522277
 21
197.9177508617
 31
0.0
  0
LINE
  5
44D
330
1F
100
AcDbEntity
  8
0
  6
Continuous
 62
     7
370
    15
100
AcDbLine
 10
297.3743506829
 20
198.6508734985
 30
0.0
 11
299.8743525611
 21
198.6508745611
 31
0.0
  0
LINE
  5
44E
330
1F
100
AcDbEntity
  8
0
  6
Continuous
 62
     7
370
    15
100
AcDbLine
 10
292.3743522649
 20
198.6508745605
 30
0.0
 11
294.8743522805
 21
198.6508737607
 31
0.0
  0
LINE
  5
44F
330
1F
100
AcDbEntity
  8
0
  6
Continuous
 62
     7
370
    15
100
AcDbLine
 10
287.3743519843
 20
198.65087376
 30
0.0
 11
289.8743519999
 21
198.6508729602
 31
0.0
  0
LINE
  5
450
330
1F
100
AcDbEntity
  8
0
  6
Continuous
 62
     7
370
    15
100
AcDbLine
 10
321.4967629668
 20
179.9325083083
 30
0.0
 11
321.7630912893
 21
180.0099686934
 31
0.0
  0
LINE
  5
451
330
1F
100
AcDbEntity
  8
0
  6
Continuous
 62
     7
370
    15
100
AcDbLine
 10
321.1203111587
 20
178.1553010036
 30
0.0
 11
321.4967629668
 21
179.9325083083
 31
0.0
  0
LINE
  5
452
330
1F
100
AcDbEntity
  8
0
  6
Continuous
 62
     7
370
    15
100
AcDbLine
 10
321.3307316573
 20
178.2165012174
 30
0.0
 11
321.1203111587
 21
178.1553010036
 31
0.0
  0
LINE
  5
453
330
1F
100
AcDbEntity
  8
0
  6
Continuous
 62
     7
370
    15
100
AcDbLine
 10
320.7438593506
 20
176.3780936988
 30
0.0
 11
321.0101876731
 21
176.4555548444
 31
0.0
  0
LINE
  5
454
330
1F
100
AcDbEntity
  8
0
  6
Continuous
 62
     7
370
    15
100
AcDbLine
 10
320.3674043163
 20
174.6008878496
 30
0.0
 11
320.7438593506
 21
176.3780936988
 31
0.0
  0
LINE
  5
455
330
1F
100
AcDbEntity
  8
0
  6
Continuous
 62
     7
370
    15
100
AcDbLine
 10
320.5778280411
 20
174.6620866079
 30
0.0
 11
320.3674043163
 21
174.6008878496
 31
0.0
  0
LINE
  5
456
330
1F
100
AcDbEntity
  8
0
  6
Continuous
 62
     7
370
    15
100
AcDbLine
 10
320.6032062634
 20
173.8112885017
 30
0.0
 11
319.735403957
 21
169.7144571538
 31
0.0
  0
LINE
  5
457
330
1F
100
AcDbEntity
  8
0
  6
Continuous
 62
     7
370
    15
100
AcDbLine
 10
319.735403957
 20
169.7144571538
 30
0.0
 11
317.0262838209
 21
168.811515325
 31
0.0
  0
LINE
  5
458
330
1F
100
AcDbEntity
  8
0
  6
Continuous
 62
     7
370
    15
100
AcDbLine
 10
314.8612214563
 20
168.0899054534
 30
0.0
 11
312.6961586262
 21
167.3682951161
 31
0.0
  0
LINE
  5
459
330
1F
100
AcDbEntity
  8
0
  6
Continuous
 62
     7
370
    15
100
AcDbLine
 10
310.5310951142
 20
166.6466862477
 30
0.0
 11
308.3660306709
 21
165.9250764481
 31
0.0
  0
LINE
  5
45A
330
1F
100
AcDbEntity
  8
0
  6
Continuous
 62
     7
370
    15
100
AcDbLine
 10
306.2009687721
 20
165.203467042
 30
0.0
 11
303.4918481703
 21
164.3005247476
 31
0.0
  0
LINE
  5
45B
330
1F
100
AcDbEntity
  8
0
  6
Continuous
 62
     7
370
    15
100
AcDbLine
 10
303.4918481703
 20
164.3005247476
 30
0.0
 11
305.8173941829
 21
192.952542017
 31
0.0
  0
LINE
  5
45C
330
1F
100
AcDbEntity
  8
0
  6
Continuous
 62
     7
370
    15
100
AcDbLine
 10
311.3132197174
 20
199.6888095452
 30
0.0
 11
313.4690363234
 21
200.4073381774
 31
0.0
  0
LINE
  5
45D
330
1F
100
AcDbEntity
  8
0
  6
Continuous
 62
     7
370
    15
100
AcDbLine
 10
313.4690363234
 20
200.4073381774
 30
0.0
 11
313.4406503442
 21
200.2155249766
 31
0.0
  0
LINE
  5
45E
330
1F
100
AcDbEntity
  8
0
  6
Continuous
 62
     7
370
    15
100
AcDbLine
 10
315.6433444465
 20
201.1320292885
 30
0.0
 11
317.7991642787
 21
201.8505568455
 31
0.0
  0
LINE
  5
45F
330
1F
100
AcDbEntity
  8
0
  6
Continuous
 62
     7
370
    15
100
AcDbLine
 10
317.7991642787
 20
201.8505568455
 30
0.0
 11
317.7707782994
 21
201.6587436446
 31
0.0
  0
LINE
  5
460
330
1F
100
AcDbEntity
  8
0
  6
Continuous
 62
     7
370
    15
100
AcDbLine
 10
319.9734724017
 20
202.5752479565
 30
0.0
 11
322.129289939
 21
203.29377752
 31
0.0
  0
LINE
  5
461
330
1F
100
AcDbEntity
  8
0
  6
Continuous
 62
     7
370
    15
100
AcDbLine
 10
322.129289939
 20
203.29377752
 30
0.0
 11
322.1009030285
 21
203.1019633879
 31
0.0
  0
LWPOLYLINE
  5
462
330
1F
100
AcDbEntity
  8
0
  6
Continuous
 62
     7
370
    15
100
AcDbPolyline
 90
       22
 70
   128
 43
0.0
 10
323.2815065331
 20
186.4553750513
 10
322.1950246633
 20
186.2004897284
 10
321.1582489337
 20
186.0810366211
 10
320.1922827242
 20
186.0994495199
 10
319.3167956011
 20
186.2553501621
 10
318.5496053297
 20
186.5455675646
 10
317.9063332922
 20
186.9641931408
 10
317.4000706162
 20
187.5027027989
 10
317.0411284839
 20
188.150135723
 10
316.8368084332
 20
188.8933116545
 10
316.7912734018
 20
189.7171032137
 10
316.9054481437
 20
190.6047373273
 10
317.1770107437
 20
191.5381486103
 10
317.6004328606
 20
192.4983310666
 10
318.1670917125
 20
193.4657405912
 10
318.8654543712
 20
194.4206826558
 10
319.6813056283
 20
195.3437192749
 10
320.5980324708
 20
196.2160550576
 10
321.5969775067
 20
197.0199393282
 10
322.6578009047
 20
197.7389996688
 10
323.7589113512
 20
198.3586032409
 10
324.7178141264
 20
198.8009135222
  0
LINE
  5
463
330
1F
100
AcDbEntity
  8
0
  6
Continuous
 62
     7
370
    15
100
AcDbLine
 10
323.2815065331
 20
186.4553750513
 30
0.0
 11
322.8297648223
 21
184.3227261885
 31
0.0
  0
LINE
  5
464
330
1F
100
AcDbEntity
  8
0
  6
Continuous
 62
     7
370
    15
100
AcDbLine
 10
303.4918481703
 20
164.3005247476
 30
0.0
 11
303.0562256298
 21
164.8858698808
 31
0.0
  0
LINE
  5
465
330
1F
100
AcDbEntity
  8
0
  6
Continuous
 62
     7
370
    15
100
AcDbLine
 10
313.4690363234
 20
200.4073381774
 30
0.0
 11
312.9797630697
 21
201.0647776165
 31
0.0
  0
LINE
  5
466
330
1F
100
AcDbEntity
  8
0
  6
Continuous
 62
     7
370
    15
100
AcDbLine
 10
310.9131394843
 20
200.3759778395
 30
0.0
 11
312.9797630697
 21
201.0647776165
 31
0.0
  0
LINE
  5
467
330
1F
100
AcDbEntity
  8
0
  6
Continuous
 62
     7
370
    15
100
AcDbLine
 10
317.7991642787
 20
201.8505568455
 30
0.0
 11
317.3098877987
 21
202.5079973597
 31
0.0
  0
LINE
  5
468
330
1F
100
AcDbEntity
  8
0
  6
Continuous
 62
     7
370
    15
100
AcDbLine
 10
315.2432674395
 20
201.8191965076
 30
0.0
 11
317.3098877987
 21
202.5079973597
 31
0.0
  0
LINE
  5
469
330
1F
100
AcDbEntity
  8
0
  6
Continuous
 62
     7
370
    15
100
AcDbLine
 10
322.129289939
 20
203.29377752
 30
0.0
 11
321.6400157539
 21
203.9512160278
 31
0.0
  0
LINE
  5
46A
330
1F
100
AcDbEntity
  8
0
  6
Continuous
 62
     7
370
    15
100
AcDbLine
 10
319.5733921685
 20
203.2624162509
 30
0.0
 11
321.6400157539
 21
203.9512160278
 31
0.0
  0
LINE
  5
46B
330
1F
100
AcDbEntity
  8
0
  6
Continuous
 62
     7
370
    15
100
AcDbLine
 10
323.2815065331
 20
186.4553750513
 30
0.0
 11
322.7922328136
 21
187.1128125038
 31
0.0
  0
LWPOLYLINE
  5
46C
330
1F
100
AcDbEntity
  8
0
  6
Continuous
 62
     7
370
    15
100
AcDbPolyline
 90
        8
 70
   128
 43
0.0
 10
322.7922328136
 20
187.1128125038
 10
321.7057509439
 20
186.8579271808
 10
320.668971988
 20
186.7384751488
 10
319.7030090048
 20
186.7568869724
 10
318.8275218817
 20
186.9127891355
 10
318.0603320759
 20
187.2030054827
 10
317.4170591072
 20
187.6216301277
 10
317.1949200557
 20
187.8257935751
  0
LINE
  5
46D
330
1F
100
AcDbEntity
  8
0
  6
Continuous
 62
     7
370
    15
100
AcDbLine
 10
323.6396803095
 20
186.6621447003
 30
0.0
 11
323.1879385988
 21
184.5294958375
 31
0.0
  0
LWPOLYLINE
  5
46E
330
1F
100
AcDbEntity
  8
0
  6
Continuous
 62
     7
370
    15
100
AcDbPolyline
 90
       16
 70
   128
 43
0.0
 10
323.6396803095
 20
186.6621447003
 10
324.3055119486
 20
187.4188491015
 10
324.9853780466
 20
188.2903933581
 10
325.6654405796
 20
189.2590351159
 10
326.3318517783
 20
190.3050546273
 10
326.9710451642
 20
191.4071604457
 10
327.5700106859
 20
192.5429147274
 10
328.1165550377
 20
193.689195691
 10
328.5995499361
 20
194.8226721567
 10
329.0091661434
 20
195.920265144
 10
329.3370657986
 20
196.9596339158
 10
329.5765685702
 20
197.9196183818
 10
329.7228033733
 20
198.7806795453
 10
329.7727901052
 20
199.5252840905
 10
329.7255160415
 20
200.1382756004
 10
329.6485013834
 20
200.4442997959
  0
LINE
  5
46F
330
1F
100
AcDbEntity
  8
0
  6
Continuous
 62
     7
370
    15
100
AcDbLine
 10
331.7463527821
 20
209.3738447916
 30
0.0
 11
330.5072026017
 21
208.1348288756
 31
0.0
  0
LINE
  5
470
330
1F
100
AcDbEntity
  8
0
  6
Continuous
 62
     7
370
    15
100
AcDbLine
 10
331.6579227488
 20
209.0072722436
 30
0.0
 11
331.7463527821
 21
209.3738447916
 31
0.0
  0
LINE
  5
471
330
1F
100
AcDbEntity
  8
0
  6
Continuous
 62
     7
370
    15
100
AcDbLine
 10
334.2463527263
 20
211.8735738555
 30
0.0
 11
333.007202604
 21
210.6345579977
 31
0.0
  0
LINE
  5
472
330
1F
100
AcDbEntity
  8
0
  6
Continuous
 62
     7
370
    15
100
AcDbLine
 10
334.1579226929
 20
211.5070013075
 30
0.0
 11
334.2463527263
 21
211.8735738555
 31
0.0
  0
LINE
  5
473
330
1F
100
AcDbEntity
  8
0
  6
Continuous
 62
     7
370
    15
100
AcDbLine
 10
336.7463527868
 20
214.3733030358
 30
0.0
 11
335.5072026063
 21
213.1342871199
 31
0.0
  0
LINE
  5
474
330
1F
100
AcDbEntity
  8
0
  6
Continuous
 62
     7
370
    15
100
AcDbLine
 10
336.6579227535
 20
214.0067304879
 30
0.0
 11
336.7463527868
 21
214.3733030358
 31
0.0
  0
LINE
  5
475
330
1F
100
AcDbEntity
  8
0
  6
Continuous
 62
     7
370
    15
100
AcDbLine
 10
329.9673185521
 20
181.1436776851
 30
0.0
 11
336.9286122532
 21
207.0667370314
 31
0.0
  0
LINE
  5
476
330
1F
100
AcDbEntity
  8
0
  6
Continuous
 62
     7
370
    15
100
AcDbLine
 10
322.907688684
 20
172.7350328386
 30
0.0
 11
324.1576886561
 21
173.9848973705
 31
0.0
  0
LINE
  5
477
330
1F
100
AcDbEntity
  8
0
  6
Continuous
 62
     7
370
    15
100
AcDbLine
 10
320.0935777335
 20
169.9212268028
 30
0.0
 11
321.6576885956
 21
171.4851681902
 31
0.0
  0
LINE
  5
478
330
1F
100
AcDbEntity
  8
0
  6
Continuous
 62
     7
370
    15
100
AcDbLine
 10
320.8796650141
 20
173.6322930091
 30
0.0
 11
320.0935777335
 21
169.9212268028
 31
0.0
  0
LINE
  5
479
330
1F
100
AcDbEntity
  8
0
  6
Continuous
 62
     7
370
    15
100
AcDbLine
 10
331.7463527821
 20
209.3738447916
 30
0.0
 11
330.8989052863
 21
209.824514116
 31
0.0
  0
LINE
  5
47A
330
1F
100
AcDbEntity
  8
0
  6
Continuous
 62
     7
370
    15
100
AcDbLine
 10
330.8989052863
 20
209.824514116
 30
0.0
 11
329.7644327364
 21
208.6901644886
 31
0.0
  0
LINE
  5
47B
330
1F
100
AcDbEntity
  8
0
  6
Continuous
 62
     7
370
    15
100
AcDbLine
 10
323.6396803095
 20
186.6621447003
 30
0.0
 11
322.7922328136
 21
187.1128125038
 31
0.0
  0
LWPOLYLINE
  5
47C
330
1F
100
AcDbEntity
  8
0
  6
Continuous
 62
     7
370
    15
100
AcDbPolyline
 90
       15
 70
   128
 43
0.0
 10
322.7922328136
 20
187.1128125038
 10
323.4580644528
 20
187.8695169051
 10
324.1379305508
 20
188.7410611616
 10
324.8179898575
 20
189.7097039947
 10
325.4844010562
 20
190.7557250271
 10
326.1235944421
 20
191.8578293245
 10
326.7225599639
 20
192.9935836062
 10
327.2691043156
 20
194.1398645698
 10
327.7521024402
 20
195.2733399602
 10
328.1617186475
 20
196.3709329476
 10
328.4896150765
 20
197.4103027946
 10
328.7291178482
 20
198.3702887815
 10
328.8753526512
 20
199.2313469031
 10
328.9253426093
 20
199.975953415
 10
328.9200888606
 20
200.2015205743
  0
LINE
  5
47D
330
1F
100
AcDbEntity
  8
0
  6
Continuous
 62
     7
370
    15
100
AcDbLine
 10
334.2463527263
 20
211.8735738555
 30
0.0
 11
333.3989052304
 21
212.32424318
 31
0.0
  0
LINE
  5
47E
330
1F
100
AcDbEntity
  8
0
  6
Continuous
 62
     7
370
    15
100
AcDbLine
 10
333.3989052304
 20
212.32424318
 30
0.0
 11
332.2644327387
 21
211.1898936107
 31
0.0
  0
LINE
  5
47F
330
1F
100
AcDbEntity
  8
0
  6
Continuous
 62
     7
370
    15
100
AcDbLine
 10
336.7463527868
 20
214.3733030358
 30
0.0
 11
335.8989052909
 21
214.8239723603
 31
0.0
  0
LINE
  5
480
330
1F
100
AcDbEntity
  8
0
  6
Continuous
 62
     7
370
    15
100
AcDbLine
 10
335.8989052909
 20
214.8239723603
 30
0.0
 11
334.7644328574
 21
213.6896228492
 31
0.0
  0
LINE
  5
481
330
1F
100
AcDbEntity
  8
0
  6
Continuous
 62
     7
370
    15
100
AcDbLine
 10
320.0935777335
 20
169.9212268028
 30
0.0
 11
319.8110307109
 21
170.07148379
 31
0.0
  0
LWPOLYLINE
  5
482
330
1F
100
AcDbEntity
  8
0
  6
Continuous
 62
     7
370
    15
100
AcDbPolyline
 90
        8
 70
   128
 43
0.0
 10
323.1778685074
 20
177.1031317252
 10
324.0369575417
 20
177.3577072337
 10
325.0882330295
 20
177.290876829
 10
326.2794448063
 20
176.9616667203
 10
327.5583307342
 20
176.4291083488
 10
328.8726268124
 20
175.7522312935
 10
330.5601085562
 20
174.7460795895
 10
331.1496207684
 20
174.3559945808
  0
LINE
  5
483
330
1F
100
AcDbEntity
  8
0
  6
Continuous
 62
     7
370
    15
100
AcDbLine
 10
323.8236404413
 20
180.1517845767
 30
0.0
 11
323.1778685074
 21
177.1031317252
 31
0.0
  0
LINE
  5
484
330
1F
100
AcDbEntity
  8
0
  6
Continuous
 62
     7
370
    15
100
AcDbLine
 10
340.8132309491
 20
168.3338861584
 30
0.0
 11
340.7783355549
 21
168.362814373
 31
0.0
  0
LWPOLYLINE
  5
485
330
1F
100
AcDbEntity
  8
0
  6
Continuous
 62
     7
370
    15
100
AcDbPolyline
 90
        9
 70
   128
 43
0.0
 10
340.5839147661
 20
166.8569940465
 10
340.8500575189
 20
166.7274741002
 10
341.0894923513
 20
166.7256012131
 10
341.2680847114
 20
166.8516430684
 10
341.3603751714
 20
167.0876349313
 10
341.3532135515
 20
167.3999380727
 10
341.2476257055
 20
167.744032872
 10
341.0586478889
 20
168.0708805269
 10
340.8132309491
 20
168.3338861584
  0
LWPOLYLINE
  5
486
330
1F
100
AcDbEntity
  8
0
  6
Continuous
 62
     7
370
    15
100
AcDbPolyline
 90
       12
 70
   128
 43
0.0
 10
322.6051010876
 20
174.4499433955
 10
322.7454840507
 20
174.8734371384
 10
323.0591442843
 20
175.1593802469
 10
323.5370497248
 20
175.3115877223
 10
324.1701572662
 20
175.3338776876
 10
325.2401110169
 20
175.1681000662
 10
326.5484981251
 20
174.787188343
 10
328.0738939973
 20
174.2001904918
 10
330.7220274323
 20
172.9530700085
 10
333.7379403456
 20
171.2931416468
 10
337.0493348197
 20
169.2509394044
 10
340.5839147661
 20
166.8569940465
  0
LWPOLYLINE
  5
487
330
1F
100
AcDbEntity
  8
0
  6
Continuous
 62
     7
370
    15
100
AcDbPolyline
 90
        9
 70
   128
 43
0.0
 10
320.4718744745
 20
173.914208809
 10
320.8388332764
 20
173.6555732785
 10
321.2062037968
 20
173.4857349467
 10
321.5579671637
 20
173.4120989052
 10
321.8787779751
 20
173.4378781891
 10
322.1546465168
 20
173.5619474088
 10
322.3735372323
 20
173.7788956703
 10
322.5259028361
 20
174.0792614596
 10
322.6051010876
 20
174.4499433955
  0
LINE
  5
488
330
1F
100
AcDbEntity
  8
0
  6
Continuous
 62
     7
370
    15
100
AcDbLine
 10
320.6224538141
 20
174.6250918398
 30
0.0
 11
320.4718744745
 21
173.914208809
 31
0.0
  0
LINE
  5
489
330
1F
100
AcDbEntity
  8
0
  6
Continuous
 62
     7
370
    15
100
AcDbLine
 10
320.4098630997
 20
174.8013248112
 30
0.0
 11
320.6224538141
 21
174.6250918398
 31
0.0
  0
LINE
  5
48A
330
1F
100
AcDbEntity
  8
0
  6
Continuous
 62
     7
370
    15
100
AcDbLine
 10
320.9989088483
 20
176.4022980692
 30
0.0
 11
320.9542798492
 21
176.4392939126
 31
0.0
  0
LINE
  5
48B
330
1F
100
AcDbEntity
  8
0
  6
Continuous
 62
     7
370
    15
100
AcDbLine
 10
321.3753606564
 20
178.1795046135
 30
0.0
 11
320.9989088483
 21
176.4022980692
 31
0.0
  0
LINE
  5
48C
330
1F
100
AcDbEntity
  8
0
  6
Continuous
 62
     7
370
    15
100
AcDbLine
 10
321.1627667159
 20
178.3557386602
 30
0.0
 11
321.3753606564
 21
178.1795046135
 31
0.0
  0
LINE
  5
48D
330
1F
100
AcDbEntity
  8
0
  6
Continuous
 62
     7
370
    15
100
AcDbLine
 10
321.7518124645
 20
179.9567119182
 30
0.0
 11
321.7071834654
 21
179.9937077616
 31
0.0
  0
LINE
  5
48E
330
1F
100
AcDbEntity
  8
0
  6
Continuous
 62
     7
370
    15
100
AcDbLine
 10
321.9751759746
 20
181.0111965958
 30
0.0
 11
321.7518124645
 21
179.9567119182
 31
0.0
  0
LINE
  5
48F
330
1F
100
AcDbEntity
  8
0
  6
Continuous
 62
     7
370
    15
100
AcDbLine
 10
340.8132309491
 20
168.3338861584
 30
0.0
 11
341.5203366116
 21
168.7420899921
 31
0.0
  0
LWPOLYLINE
  5
490
330
1F
100
AcDbEntity
  8
0
  6
Continuous
 62
     7
370
    15
100
AcDbPolyline
 90
        7
 70
   128
 43
0.0
 10
341.8697175391
 20
167.1651581665
 10
341.9751913053
 20
167.2598478333
 10
342.0674808339
 20
167.495838765
 10
342.0603256664
 20
167.8081397558
 10
341.9547322994
 20
168.1522376369
 10
341.7657609351
 20
168.4790831413
 10
341.5203366116
 20
168.7420899921
  0
LINE
  5
491
330
1F
100
AcDbEntity
  8
0
  6
Continuous
 62
     7
370
    15
100
AcDbLine
 10
341.5203366116
 20
168.7420899921
 30
0.0
 11
341.4854412174
 21
168.7710182067
 31
0.0
  0
LINE
  5
492
330
1F
100
AcDbEntity
  8
0
  6
Continuous
 62
     7
370
    15
100
AcDbLine
 10
322.6051010876
 20
174.4499433955
 30
0.0
 11
323.3122072158
 21
174.8581476948
 31
0.0
  0
LWPOLYLINE
  5
493
330
1F
100
AcDbEntity
  8
0
  6
Continuous
 62
     7
370
    15
100
AcDbPolyline
 90
        3
 70
   128
 43
0.0
 10
323.3122072158
 20
174.8581476948
 10
323.4525901789
 20
175.2816414376
 10
323.457728162
 20
175.286325034
  0
LINE
  5
494
330
1F
100
AcDbEntity
  8
0
  6
Continuous
 62
     7
370
    15
100
AcDbLine
 10
323.1778685074
 20
177.1031317252
 30
0.0
 11
323.8849746355
 21
177.5113360244
 31
0.0
  0
LWPOLYLINE
  5
495
330
1F
100
AcDbEntity
  8
0
  6
Continuous
 62
     7
370
    15
100
AcDbPolyline
 90
        5
 70
   128
 43
0.0
 10
323.8849746355
 20
177.5113360244
 10
324.7440636699
 20
177.7659115329
 10
325.7953423839
 20
177.699080053
 10
326.9865509345
 20
177.3698710195
 10
328.0462839294
 20
176.9285729197
  0
LINE
  5
496
330
1F
100
AcDbEntity
  8
0
  6
Continuous
 62
     7
370
    15
100
AcDbLine
 10
324.3781711985
 20
179.8396731931
 30
0.0
 11
323.8849746355
 21
177.5113360244
 31
0.0
  0
ARC
  5
497
330
1F
100
AcDbEntity
  8
0
  6
Continuous
 62
     7
370
    15
100
AcDbCircle
 10
322.195791263
 20
174.8699032931
 30
0.0
 40
1.116477842862677
100
AcDbArc
 50
303.0895525554
 51
359.3967111663
  0
ENDSEC
  0
SECTION
  2
OBJECTS
  0
DICTIONARY
  5
C
330
0
100
AcDbDictionary
281
     1
  3
ACAD_GROUP
350
D
  3
ACAD_LAYOUT
350
1A
  3
ACAD_MLEADERSTYLE
350
49A
  3
ACAD_MLINESTYLE
350
17
  3
ACAD_PLOTSETTINGS
350
19
  3
ACAD_PLOTSTYLENAME
350
E
  3
ACAD_SCALELIST
350
63
  3
ACAD_VISUALSTYLE
350
2A
  3
AcDbVariableDictionary
350
498
  0
DICTIONARY
  5
D
102
{ACAD_REACTORS
330
C
102
}
330
C
100
AcDbDictionary
281
     1
  0
DICTIONARY
  5
1A
102
{ACAD_REACTORS
330
C
102
}
330
C
100
AcDbDictionary
281
     1
  3
Layout1
350
1E
  3
Layout2
350
26
  3
Model
350
22
  0
DICTIONARY
  5
49A
102
{ACAD_REACTORS
330
C
102
}
330
C
100
AcDbDictionary
281
     1
  0
DICTIONARY
  5
17
102
{ACAD_REACTORS
330
C
102
}
330
C
100
AcDbDictionary
281
     1
  3
Standard
350
18
  0
DICTIONARY
  5
19
102
{ACAD_REACTORS
330
C
102
}
330
C
100
AcDbDictionary
281
     1
  0
ACDBDICTIONARYWDFLT
  5
E
102
{ACAD_REACTORS
330
C
102
}
330
C
100
AcDbDictionary
281
     1
  3
Normal
350
F
100
AcDbDictionaryWithDefault
340
F
  0
DICTIONARY
  5
63
102
{ACAD_REACTORS
330
C
102
}
330
C
100
AcDbDictionary
281
     1
  3
A0
350
64
  3
A1
350
65
  3
A2
350
66
  3
A3
350
67
  3
A4
350
68
  3
A5
350
69
  3
A6
350
6A
  3
A7
350
6B
  3
A8
350
6C
  3
A9
350
6D
  3
B0
350
6E
  3
B1
350
6F
  3
B2
350
70
  3
B3
350
71
  3
B4
350
72
  3
B5
350
73
  3
B6
350
74
  3
B7
350
75
  3
B8
350
76
  3
B9
350
77
  3
C0
350
78
  3
C1
350
79
  3
C2
350
7A
  3
C3
350
7B
  3
C4
350
7C
  3
C5
350
7D
  3
C6
350
7E
  3
C7
350
7F
  3
C8
350
80
  3
C9
350
81
  3
D0
350
82
  3
D1
350
83
  3
D2
350
84
  0
DICTIONARY
  5
2A
102
{ACAD_REACTORS
330
C
102
}
330
C
100
AcDbDictionary
281
     1
  3
2dWireframe
350
2F
  3
3D Hidden
350
31
  3
3dWireframe
350
30
  3
Basic
350
32
  3
Brighten
350
36
  3
ColorChange
350
3A
  3
Conceptual
350
34
  3
Dim
350
35
  3
Facepattern
350
39
  3
Flat
350
2B
  3
FlatWithEdges
350
2C
  3
Gouraud
350
2D
  3
GouraudWithEdges
350
2E
  3
Linepattern
350
38
  3
Realistic
350
33
  3
Thicken
350
37
  0
DICTIONARY
  5
498
102
{ACAD_REACTORS
330
C
102
}
330
C
100
AcDbDictionary
281
     1
  3
CANNOSCALE
350
49D
  3
DIMASSOC
350
49E
  3
HIDETEXT
350
49F
  3
PSOLHEIGHT
350
49C
  3
PSOLWIDTH
350
49B
  0
LAYOUT
  5
1E
102
{ACAD_REACTORS
330
1A
102
}
330
1A
100
AcDbPlotSettings
  1

  2
none_device
  4

  6

 40
0.0
 41
0.0
 42
0.0
 43
0.0
 44
0.0
 45
0.0
 46
0.0
 47
0.0
 48
0.0
 49
0.0
140
0.0
141
0.0
142
1.0
143
1.0
 70
   688
 72
     0
 73
     0
 74
     5
  7

 75
    16
147
1.0
148
0.0
149
0.0
100
AcDbLayout
  1
Layout1
 70
     1
 71
     1
 10
0.0
 20
0.0
 11
420.0
 21
297.0
 12
0.0
 22
0.0
 32
0.0
 14
1.0000000000E+20
 24
1.0000000000E+20
 34
1.0000000000E+20
 15
-1.0000000000E+20
 25
-1.0000000000E+20
 35
-1.0000000000E+20
146
0.0
 13
0.0
 23
0.0
 33
0.0
 16
1.0
 26
0.0
 36
0.0
 17
0.0
 27
1.0
 37
0.0
 76
     0
330
1B
  0
LAYOUT
  5
26
102
{ACAD_REACTORS
330
1A
102
}
330
1A
100
AcDbPlotSettings
  1

  2
none_device
  4

  6

 40
0.0
 41
0.0
 42
0.0
 43
0.0
 44
0.0
 45
0.0
 46
0.0
 47
0.0
 48
0.0
 49
0.0
140
0.0
141
0.0
142
1.0
143
1.0
 70
   688
 72
     0
 73
     0
 74
     5
  7

 75
    16
147
1.0
148
0.0
149
0.0
100
AcDbLayout
  1
Layout2
 70
     1
 71
     2
 10
0.0
 20
0.0
 11
0.0
 21
0.0
 12
0.0
 22
0.0
 32
0.0
 14
0.0
 24
0.0
 34
0.0
 15
0.0
 25
0.0
 35
0.0
146
0.0
 13
0.0
 23
0.0
 33
0.0
 16
1.0
 26
0.0
 36
0.0
 17
0.0
 27
1.0
 37
0.0
 76
     0
330
23
  0
LAYOUT
  5
22
102
{ACAD_REACTORS
330
1A
102
}
330
1A
100
AcDbPlotSettings
  1

  2
none_device
  4

  6

 40
0.0
 41
0.0
 42
0.0
 43
0.0
 44
0.0
 45
0.0
 46
0.0
 47
0.0
 48
0.0
 49
0.0
140
0.0
141
0.0
142
1.0
143
1.0
 70
  1712
 72
     0
 73
     0
 74
     0
  7

 75
     0
147
1.0
148
0.0
149
0.0
100
AcDbLayout
  1
Model
 70
     1
 71
     0
 10
0.0
 20
0.0
 11
420.0
 21
297.0
 12
0.0
 22
0.0
 32
0.0
 14
0.0
 24
0.0
 34
0.0
 15
420.0
 25
297.0
 35
0.0
146
0.0
 13
0.0
 23
0.0
 33
0.0
 16
1.0
 26
0.0
 36
0.0
 17
0.0
 27
1.0
 37
0.0
 76
     0
330
1F
331
29
  0
MLINESTYLE
  5
18
102
{ACAD_REACTORS
330
17
102
}
330
17
100
AcDbMlineStyle
  2
Standard
 70
     0
  3

 62
   256
 51
90.0
 52
90.0
 71
     2
 49
0.5
 62
   256
  6
BYLAYER
 49
-0.5
 62
   256
  6
BYLAYER
  0
ACDBPLACEHOLDER
  5
F
102
{ACAD_REACTORS
330
E
102
}
330
E
  0
SCALE
  5
64
102
{ACAD_REACTORS
330
63
102
}
330
63
100
AcDbScale
 70
     0
300
1:1
140
1.0
141
1.0
290
     1
  0
SCALE
  5
65
102
{ACAD_REACTORS
330
63
102
}
330
63
100
AcDbScale
 70
     0
300
1:2
140
1.0
141
2.0
290
     0
  0
SCALE
  5
66
102
{ACAD_REACTORS
330
63
102
}
330
63
100
AcDbScale
 70
     0
300
1:4
140
1.0
141
4.0
290
     0
  0
SCALE
  5
67
102
{ACAD_REACTORS
330
63
102
}
330
63
100
AcDbScale
 70
     0
300
1:5
140
1.0
141
5.0
290
     0
  0
SCALE
  5
68
102
{ACAD_REACTORS
330
63
102
}
330
63
100
AcDbScale
 70
     0
300
1:8
140
1.0
141
8.0
290
     0
  0
SCALE
  5
69
102
{ACAD_REACTORS
330
63
102
}
330
63
100
AcDbScale
 70
     0
300
1:10
140
1.0
141
10.0
290
     0
  0
SCALE
  5
6A
102
{ACAD_REACTORS
330
63
102
}
330
63
100
AcDbScale
 70
     0
300
1:16
140
1.0
141
16.0
290
     0
  0
SCALE
  5
6B
102
{ACAD_REACTORS
330
63
102
}
330
63
100
AcDbScale
 70
     0
300
1:20
140
1.0
141
20.0
290
     0
  0
SCALE
  5
6C
102
{ACAD_REACTORS
330
63
102
}
330
63
100
AcDbScale
 70
     0
300
1:30
140
1.0
141
30.0
290
     0
  0
SCALE
  5
6D
102
{ACAD_REACTORS
330
63
102
}
330
63
100
AcDbScale
 70
     0
300
1:40
140
1.0
141
40.0
290
     0
  0
SCALE
  5
6E
102
{ACAD_REACTORS
330
63
102
}
330
63
100
AcDbScale
 70
     0
300
1:50
140
1.0
141
50.0
290
     0
  0
SCALE
  5
6F
102
{ACAD_REACTORS
330
63
102
}
330
63
100
AcDbScale
 70
     0
300
1:100
140
1.0
141
100.0
290
     0
  0
SCALE
  5
70
102
{ACAD_REACTORS
330
63
102
}
330
63
100
AcDbScale
 70
     0
300
2:1
140
2.0
141
1.0
290
     0
  0
SCALE
  5
71
102
{ACAD_REACTORS
330
63
102
}
330
63
100
AcDbScale
 70
     0
300
4:1
140
4.0
141
1.0
290
     0
  0
SCALE
  5
72
102
{ACAD_REACTORS
330
63
102
}
330
63
100
AcDbScale
 70
     0
300
8:1
140
8.0
141
1.0
290
     0
  0
SCALE
  5
73
102
{ACAD_REACTORS
330
63
102
}
330
63
100
AcDbScale
 70
     0
300
10:1
140
10.0
141
1.0
290
     0
  0
SCALE
  5
74
102
{ACAD_REACTORS
330
63
102
}
330
63
100
AcDbScale
 70
     0
300
100:1
140
100.0
141
1.0
290
     0
  0
SCALE
  5
75
102
{ACAD_REACTORS
330
63
102
}
330
63
100
AcDbScale
 70
     0
300
1/128" = 1'-0"
140
0.0078125
141
12.0
290
     0
  0
SCALE
  5
76
102
{ACAD_REACTORS
330
63
102
}
330
63
100
AcDbScale
 70
     0
300
1/64" = 1'-0"
140
0.015625
141
12.0
290
     0
  0
SCALE
  5
77
102
{ACAD_REACTORS
330
63
102
}
330
63
100
AcDbScale
 70
     0
300
1/32" = 1'-0"
140
0.03125
141
12.0
290
     0
  0
SCALE
  5
78
102
{ACAD_REACTORS
330
63
102
}
330
63
100
AcDbScale
 70
     0
300
1/16" = 1'-0"
140
0.0625
141
12.0
290
     0
  0
SCALE
  5
79
102
{ACAD_REACTORS
330
63
102
}
330
63
100
AcDbScale
 70
     0
300
3/32" = 1'-0"
140
0.09375
141
12.0
290
     0
  0
SCALE
  5
7A
102
{ACAD_REACTORS
330
63
102
}
330
63
100
AcDbScale
 70
     0
300
1/8" = 1'-0"
140
0.125
141
12.0
290
     0
  0
SCALE
  5
7B
102
{ACAD_REACTORS
330
63
102
}
330
63
100
AcDbScale
 70
     0
300
3/16" = 1'-0"
140
0.1875
141
12.0
290
     0
  0
SCALE
  5
7C
102
{ACAD_REACTORS
330
63
102
}
330
63
100
AcDbScale
 70
     0
300
1/4" = 1'-0"
140
0.25
141
12.0
290
     0
  0
SCALE
  5
7D
102
{ACAD_REACTORS
330
63
102
}
330
63
100
AcDbScale
 70
     0
300
3/8" = 1'-0"
140
0.375
141
12.0
290
     0
  0
SCALE
  5
7E
102
{ACAD_REACTORS
330
63
102
}
330
63
100
AcDbScale
 70
     0
300
1/2" = 1'-0"
140
0.5
141
12.0
290
     0
  0
SCALE
  5
7F
102
{ACAD_REACTORS
330
63
102
}
330
63
100
AcDbScale
 70
     0
300
3/4" = 1'-0"
140
0.75
141
12.0
290
     0
  0
SCALE
  5
80
102
{ACAD_REACTORS
330
63
102
}
330
63
100
AcDbScale
 70
     0
300
1" = 1'-0"
140
1.0
141
12.0
290
     0
  0
SCALE
  5
81
102
{ACAD_REACTORS
330
63
102
}
330
63
100
AcDbScale
 70
     0
300
1-1/2" = 1'-0"
140
1.5
141
12.0
290
     0
  0
SCALE
  5
82
102
{ACAD_REACTORS
330
63
102
}
330
63
100
AcDbScale
 70
     0
300
3" = 1'-0"
140
3.0
141
12.0
290
     0
  0
SCALE
  5
83
102
{ACAD_REACTORS
330
63
102
}
330
63
100
AcDbScale
 70
     0
300
6" = 1'-0"
140
6.0
141
12.0
290
     0
  0
SCALE
  5
84
102
{ACAD_REACTORS
330
63
102
}
330
63
100
AcDbScale
 70
     0
300
1'-0" = 1'-0"
140
12.0
141
12.0
290
     0
  0
VISUALSTYLE
  5
2F
102
{ACAD_REACTORS
330
2A
102
}
330
2A
100
AcDbVisualStyle
  2
2dWireframe
 70
     4
 71
     0
 72
     2
 73
     0
 90
        0
 40
-0.6
 41
-30.0
 62
     5
 63
     7
 74
     1
 91
        4
 64
     7
 65
   257
 75
     1
175
     1
 42
1.0
 92
        0
 66
   257
 43
1.0
 76
     1
 77
     6
 78
     2
 67
     7
 79
     5
170
     0
171
     0
290
     0
174
     0
 93
        1
 44
0.0
173
     0
291
     0
 45
0.0
1001
ACAD
1000
AcDbSavedByObjectVersion
1070
     0
  0
VISUALSTYLE
  5
31
102
{ACAD_REACTORS
330
2A
102
}
330
2A
100
AcDbVisualStyle
  2
3D Hidden
 70
     6
 71
     1
 72
     2
 73
     2
 90
        0
 40
-0.6
 41
-30.0
 62
     5
 63
     7
 74
     2
 91
        2
 64
     7
 65
   257
 75
     2
175
     1
 42
40.0
 92
        0
 66
   257
 43
1.0
 76
     1
 77
     6
 78
     2
 67
     7
 79
     3
170
     0
171
     0
290
     0
174
     0
 93
        1
 44
0.0
173
     0
291
     0
 45
0.0
1001
ACAD
1000
AcDbSavedByObjectVersion
1070
     0
  0
VISUALSTYLE
  5
30
102
{ACAD_REACTORS
330
2A
102
}
330
2A
100
AcDbVisualStyle
  2
3dWireframe
 70
     5
 71
     0
 72
     2
 73
     0
 90
        0
 40
-0.6
 41
-30.0
 62
     5
 63
     7
 74
     1
 91
        4
 64
     7
 65
   257
 75
     1
175
     1
 42
1.0
 92
        0
 66
   257
 43
1.0
 76
     1
 77
     6
 78
     2
 67
     7
 79
     5
170
     0
171
     0
290
     0
174
     0
 93
        1
 44
0.0
173
     0
291
     0
 45
0.0
1001
ACAD
1000
AcDbSavedByObjectVersion
1070
     0
  0
VISUALSTYLE
  5
32
102
{ACAD_REACTORS
330
2A
102
}
330
2A
100
AcDbVisualStyle
  2
Basic
 70
     7
 71
     1
 72
     0
 73
     1
 90
        0
 40
-0.6
 41
-30.0
 62
     5
 63
     7
 74
     0
 91
        4
 64
     7
 65
   257
 75
     1
175
     1
 42
1.0
 92
        8
 66
     7
 43
1.0
 76
     1
 77
     6
 78
     2
 67
     7
 79
     5
170
     0
171
     0
290
     0
174
     0
 93
        1
 44
0.0
173
     0
291
     1
 45
0.0
1001
ACAD
1000
AcDbSavedByObjectVersion
1070
     0
  0
VISUALSTYLE
  5
36
102
{ACAD_REACTORS
330
2A
102
}
330
2A
100
AcDbVisualStyle
  2
Brighten
 70
    12
 71
     2
 72
     2
 73
     0
 90
        0
 40
-0.6
 41
-30.0
 62
     5
 63
     7
 74
     1
 91
        4
 64
     7
 65
   257
 75
     1
175
     1
 42
1.0
 92
        8
 66
     7
 43
1.0
 76
     1
 77
     6
 78
     2
 67
     7
 79
     5
170
     0
171
     0
290
     0
174
     0
 93
        1
 44
50.0
173
     0
291
     1
 45
0.0
1001
ACAD
1000
AcDbSavedByObjectVersion
1070
     0
  0
VISUALSTYLE
  5
3A
102
{ACAD_REACTORS
330
2A
102
}
330
2A
100
AcDbVisualStyle
  2
ColorChange
 70
    16
 71
     2
 72
     2
 73
     3
 90
        0
 40
-0.6
 41
-30.0
 62
     5
 63
     8
 74
     1
 91
        4
 64
     7
 65
   257
 75
     1
175
     1
 42
1.0
 92
        8
 66
     8
 43
1.0
 76
     1
 77
     6
 78
     2
 67
     7
 79
     5
170
     0
171
     0
290
     0
174
     0
 93
        1
 44
0.0
173
     0
291
     1
 45
0.0
1001
ACAD
1000
AcDbSavedByObjectVersion
1070
     0
  0
VISUALSTYLE
  5
34
102
{ACAD_REACTORS
330
2A
102
}
330
2A
100
AcDbVisualStyle
  2
Conceptual
 70
     9
 71
     3
 72
     2
 73
     0
 90
        0
 40
-0.6
 41
-30.0
 62
     5
 63
     7
 74
     2
 91
        2
 64
     7
 65
   257
 75
     1
175
     1
 42
40.0
 92
        8
 66
     7
 43
1.0
 76
     1
 77
     6
 78
     2
 67
     7
 79
     3
170
     0
171
     0
290
     0
174
     0
 93
        1
 44
0.0
173
     0
291
     0
 45
0.0
1001
ACAD
1000
AcDbSavedByObjectVersion
1070
     0
  0
VISUALSTYLE
  5
35
102
{ACAD_REACTORS
330
2A
102
}
330
2A
100
AcDbVisualStyle
  2
Dim
 70
    11
 71
     2
 72
     2
 73
     0
 90
        0
 40
-0.6
 41
-30.0
 62
     5
 63
     7
 74
     1
 91
        4
 64
     7
 65
   257
 75
     1
175
     1
 42
1.0
 92
        8
 66
     7
 43
1.0
 76
     1
 77
     6
 78
     2
 67
     7
 79
     5
170
     0
171
     0
290
     0
174
     0
 93
        1
 44
-50.0
173
     0
291
     1
 45
0.0
1001
ACAD
1000
AcDbSavedByObjectVersion
1070
     0
  0
VISUALSTYLE
  5
39
102
{ACAD_REACTORS
330
2A
102
}
330
2A
100
AcDbVisualStyle
  2
Facepattern
 70
    15
 71
     2
 72
     2
 73
     0
 90
        0
 40
-0.6
 41
-30.0
 62
     5
 63
     7
 74
     1
 91
        4
 64
     7
 65
   257
 75
     1
175
     1
 42
1.0
 92
        8
 66
     7
 43
1.0
 76
     1
 77
     6
 78
     2
 67
     7
 79
     5
170
     0
171
     0
290
     0
174
     0
 93
        1
 44
0.0
173
     0
291
     1
 45
0.0
1001
ACAD
1000
AcDbSavedByObjectVersion
1070
     0
  0
VISUALSTYLE
  5
2B
102
{ACAD_REACTORS
330
2A
102
}
330
2A
100
AcDbVisualStyle
  2
Flat
 70
     0
 71
     2
 72
     1
 73
     1
 90
        2
 40
-0.6
 41
30.0
 62
     5
 63
     7
 74
     0
 91
        4
 64
     7
 65
   257
 75
     1
175
     1
 42
1.0
 92
        8
 66
     7
 43
1.0
 76
     1
 77
     6
 78
     2
 67
     7
 79
     5
170
     0
171
     0
290
     0
174
     0
 93
       13
 44
0.0
173
     0
291
     1
 45
0.0
1001
ACAD
1000
AcDbSavedByObjectVersion
1070
     0
  0
VISUALSTYLE
  5
2C
102
{ACAD_REACTORS
330
2A
102
}
330
2A
100
AcDbVisualStyle
  2
FlatWithEdges
 70
     1
 71
     2
 72
     1
 73
     1
 90
        2
 40
-0.6
 41
30.0
 62
     5
 63
     7
 74
     1
 91
        4
 64
     7
 65
   257
 75
     1
175
     1
 42
1.0
 92
        0
 66
   257
 43
1.0
 76
     1
 77
     6
 78
     2
 67
     7
 79
     5
170
     0
171
     0
290
     0
174
     0
 93
       13
 44
0.0
173
     0
291
     1
 45
0.0
1001
ACAD
1000
AcDbSavedByObjectVersion
1070
     0
  0
VISUALSTYLE
  5
2D
102
{ACAD_REACTORS
330
2A
102
}
330
2A
100
AcDbVisualStyle
  2
Gouraud
 70
     2
 71
     2
 72
     2
 73
     1
 90
        2
 40
-0.6
 41
30.0
 62
     5
 63
     7
 74
     0
 91
        4
 64
     7
 65
   257
 75
     1
175
     1
 42
1.0
 92
        0
 66
     7
 43
1.0
 76
     1
 77
     6
 78
     2
 67
     7
 79
     5
170
     0
171
     0
290
     0
174
     0
 93
       13
 44
0.0
173
     0
291
     1
 45
0.0
1001
ACAD
1000
AcDbSavedByObjectVersion
1070
     0
  0
VISUALSTYLE
  5
2E
102
{ACAD_REACTORS
330
2A
102
}
330
2A
100
AcDbVisualStyle
  2
GouraudWithEdges
 70
     3
 71
     2
 72
     2
 73
     1
 90
        2
 40
-0.6
 41
30.0
 62
     5
 63
     7
 74
     1
 91
        4
 64
     7
 65
   257
 75
     1
175
     1
 42
1.0
 92
        0
 66
   257
 43
1.0
 76
     1
 77
     6
 78
     2
 67
     7
 79
     5
170
     0
171
     0
290
     0
174
     0
 93
       13
 44
0.0
173
     0
291
     1
 45
0.0
1001
ACAD
1000
AcDbSavedByObjectVersion
1070
     0
  0
VISUALSTYLE
  5
38
102
{ACAD_REACTORS
330
2A
102
}
330
2A
100
AcDbVisualStyle
  2
Linepattern
 70
    14
 71
     2
 72
     2
 73
     0
 90
        0
 40
-0.6
 41
-30.0
 62
     5
 63
     7
 74
     1
 91
        4
 64
     7
 65
   257
 75
     7
175
     7
 42
1.0
 92
        8
 66
     7
 43
1.0
 76
     1
 77
     6
 78
     2
 67
     7
 79
     5
170
     0
171
     0
290
     0
174
     0
 93
        1
 44
0.0
173
     0
291
     1
 45
0.0
1001
ACAD
1000
AcDbSavedByObjectVersion
1070
     0
  0
VISUALSTYLE
  5
33
102
{ACAD_REACTORS
330
2A
102
}
330
2A
100
AcDbVisualStyle
  2
Realistic
 70
     8
 71
     2
 72
     2
 73
     0
 90
        0
 40
-0.6
 41
-30.0
 62
     5
 63
     7
 74
     1
 91
        0
 64
     7
 65
   257
 75
     1
175
     1
 42
1.0
 92
        8
 66
     8
 43
1.0
 76
     1
 77
     6
 78
     2
 67
     7
 79
     5
170
     0
171
     0
290
     0
174
     0
 93
       13
 44
0.0
173
     0
291
     0
 45
0.0
1001
ACAD
1000
AcDbSavedByObjectVersion
1070
     0
  0
VISUALSTYLE
  5
37
102
{ACAD_REACTORS
330
2A
102
}
330
2A
100
AcDbVisualStyle
  2
Thicken
 70
    13
 71
     2
 72
     2
 73
     0
 90
        0
 40
-0.6
 41
-30.0
 62
     5
 63
     7
 74
     1
 91
        4
 64
     7
 65
   257
 75
     1
175
     1
 42
1.0
 92
       12
 66
     7
 43
1.0
 76
     1
 77
     6
 78
     2
 67
     7
 79
     5
170
     0
171
     0
290
     0
174
     0
 93
        1
 44
0.0
173
     0
291
     1
 45
0.0
1001
ACAD
1000
AcDbSavedByObjectVersion
1070
     0
  0
DICTIONARYVAR
  5
49D
102
{ACAD_REACTORS
330
498
102
}
330
498
100
DictionaryVariables
280
     0
  1
1:1
  0
DICTIONARYVAR
  5
49E
102
{ACAD_REACTORS
330
498
102
}
330
498
100
DictionaryVariables
280
     0
  1
2
  0
DICTIONARYVAR
  5
49F
102
{ACAD_REACTORS
330
498
102
}
330
498
100
DictionaryVariables
280
     0
  1
1
  0
DICTIONARYVAR
  5
49C
102
{ACAD_REACTORS
330
498
102
}
330
498
100
DictionaryVariables
280
     0
  1
80.000000
  0
DICTIONARYVAR
  5
49B
102
{ACAD_REACTORS
330
498
102
}
330
498
100
DictionaryVariables
280
     0
  1
5.000000
  0
ENDSEC
  0
EOF
