999
The file was created in CADSoftTools software
999
ABViewer 14; 
  0
SECTION
  2
HEADER
  9
$ACADVER
  1
AC1018
  9
$DWGCODEPAGE
  3
ANSI_1252
  9
$CLAYER
  8
0
  9
$CELTYPE
  6
BYLAYER
  9
$CELTSCALE
 40
1
  9
$CELWEIGHT
370
-1
  9
$DIMALT
 70
0
  9
$DIMALTF
 40
25.4
  9
$DIMPOST
  1

  9
$DIMAPOST
  1

  9
$DIMSCALE
 40
1
  9
$DIMASZ
 40
0.18
  9
$DIMCLRD
 70
0
  9
$DIMCLRE
 70
0
  9
$DIMCLRT
 70
0
  9
$DIMEXE
 40
0.18
  9
$DIMEXO
 40
0.0625
  9
$DIMGAP
 40
0.09
  9
$DIMLFAC
 40
1
  9
$DIMDEC
 70
4
  9
$DIMTAD
 70
0
  9
$DIMCEN
 40
0.09
  9
$DIMTIH
 70
1
  9
$DIMTIX
 70
0
  9
$DIMTOH
 70
1
  9
$DIMSE1
 70
0
  9
$DIMSE2
 70
0
  9
$DIMSD1
 70
0
  9
$DIMSD2
 70
0
  9
$DIMLWD
 70
-1
  9
$DIMLWE
 70
-1
  9
$DIMSAH
 70
0
  9
$DIMBLK
  1

  9
$DIMBLK1
  1

  9
$DIMBLK2
  1

  9
$DIMLDRBLK
  1

  9
$DIMSTYLE
  2
STANDARD
  9
$DIMTP
 40
0
  9
$DIMTM
 40
0
  9
$DIMTXT
 40
0.18
  9
$DIMLUNIT
 70
2
  9
$DIMDSEP
 70
46
  9
$DIMTXSTY
  7
STANDARD
  9
$TEXTSIZE
 40
0.2
  9
$TEXTSTYLE
  7
STANDARD
  9
$HANDSEED
  5
0000000000000125
  9
$FILLETRAD
 40
0.5
  9
$INSUNITS
 70
4
  9
$LIMMIN
 10
-150
 20
-100
  9
$LIMMAX
 10
150
 20
100
  9
$FILLMODE
 70
1
  9
$LTSCALE
 40
1
  9
$MEASUREMENT
 70
0
  9
$ATTMODE
 70
1
  9
$PDMODE
 70
0
  9
$PDSIZE
 40
0
  9
$TILEMODE
 70
1
  9
$UCSORG
 10
0
 20
0
 30
0
  9
$UCSXDIR
 10
1
 20
0
 30
0
  9
$UCSYDIR
 10
0
 20
1
 30
0
  9
$INSBASE
 10
0
 20
0
 30
0
  9
$XCLIPFRAME
290
1
  9
$DIMASSOC
280
2
  9
$TDCREATE
 40
2456095.63611769
  9
$TDINDWG
 40
1.15740740740741E-8
  9
$TDUPDATE
 40
2459661.85561248
  0
ENDSEC
  0
SECTION
  2
CLASSES
  0
CLASS
  1
IMAGE
  2
AcDbRasterImage
  3
ISM
 90
2175
 91
1
280
0
281
1
  0
CLASS
  1
IMAGEDEF
  2
AcDbRasterImageDef
  3
ISM
 90
0
 91
1
280
0
281
0
  0
CLASS
  1
WIPEOUT
  2
AcDbWipeout
  3
"WipeOut"
 90
2175
 91
1
280
0
281
1
  0
CLASS
  1
WIPEOUTVARIABLES
  2
AcDbWipeoutVariables
  3
"WipeOut"
 90
0
 91
1
280
0
281
0
  0
CLASS
  1
MPOLYGON
  2
AcDbMPolygon
  3
"AcMPolygonObj15"
 90
3071
 91
1
280
0
281
1
  0
ENDSEC
  0
SECTION
  2
TABLES
  0
TABLE
  2
APPID
  5
10C
100
AcDbSymbolTable
  0
APPID
  5
12
100
AcDbSymbolTableRecord
100
AcDbRegAppTableRecord
  2
ACAD
 70
0
  0
APPID
  5
2A
100
AcDbSymbolTableRecord
100
AcDbRegAppTableRecord
  2
ODA
 70
0
  0
APPID
  5
FB
100
AcDbSymbolTableRecord
100
AcDbRegAppTableRecord
  2
CSTINVENTORY
 70
0
  0
APPID
  5
10D
100
AcDbSymbolTableRecord
100
AcDbRegAppTableRecord
  2
AcDbAttr
 70
0
  0
APPID
  5
10E
100
AcDbSymbolTableRecord
100
AcDbRegAppTableRecord
  2
PE_URL
 70
0
  0
ENDTAB
  0
TABLE
  2
BLOCK_RECORD
  5
10F
100
AcDbSymbolTable
  0
BLOCK_RECORD
  5
1F
100
AcDbSymbolTableRecord
100
AcDbBlockTableRecord
  2
*MODEL_SPACE
  0
BLOCK_RECORD
  5
1B
100
AcDbSymbolTableRecord
100
AcDbBlockTableRecord
  2
*PAPER_SPACE
  0
BLOCK_RECORD
  5
FC
100
AcDbSymbolTableRecord
100
AcDbBlockTableRecord
  2
_CLOSEDFILLED
  0
BLOCK_RECORD
  5
103
100
AcDbSymbolTableRecord
100
AcDbBlockTableRecord
  2
ABViewer_RedLine
  0
ENDTAB
  0
TABLE
  2
STYLE
  5
3
100
AcDbSymbolTable
  0
STYLE
  5
11
100
AcDbSymbolTableRecord
100
AcDbTextStyleTableRecord
  2
STANDARD
 70
0
 40
0
 41
1
 50
0
 71
0
 42
0.200000002980232
  3
txt
  4

1001
ACAD
1000

1071
0
  0
ENDTAB
  0
TABLE
  2
LTYPE
  5
5
100
AcDbSymbolTable
  0
LTYPE
  5
16
100
AcDbSymbolTableRecord
100
AcDbLinetypeTableRecord
  2
CONTINUOUS
 70
0
  3

 72
65
 73
0
 40
0
  0
LTYPE
  5
14
100
AcDbSymbolTableRecord
100
AcDbLinetypeTableRecord
  2
BYBLOCK
 70
0
  3

 72
65
 73
0
 40
0
  0
LTYPE
  5
15
100
AcDbSymbolTableRecord
100
AcDbLinetypeTableRecord
  2
BYLAYER
 70
0
  3

 72
65
 73
0
 40
0
  0
LTYPE
  5
104
100
AcDbSymbolTableRecord
100
AcDbLinetypeTableRecord
  2
CENTER
 70
0
  3
_ _ 
 72
65
 73
4
 40
2
 49
1.25
 74
0
 49
-0.25
 74
0
 49
0.25
 74
0
 49
-0.25
 74
0
  0
LTYPE
  5
105
100
AcDbSymbolTableRecord
100
AcDbLinetypeTableRecord
  2
ISO dash
 70
0
  3
_ 
 72
65
 73
2
 40
1.5
 49
1.2
 74
0
 49
-0.3
 74
0
  0
LTYPE
  5
106
100
AcDbSymbolTableRecord
100
AcDbLinetypeTableRecord
  2
ISO dot
 70
0
  3
. 
 72
65
 73
2
 40
0.3
 49
0
 74
0
 49
-0.3
 74
0
  0
LTYPE
  5
107
100
AcDbSymbolTableRecord
100
AcDbLinetypeTableRecord
  2
ISO dash dot
 70
0
  3
_ . 
 72
65
 73
4
 40
1.8
 49
1.2
 74
0
 49
-0.3
 74
0
 49
0
 74
0
 49
-0.3
 74
0
  0
LTYPE
  5
108
100
AcDbSymbolTableRecord
100
AcDbLinetypeTableRecord
  2
ISO dash double-dot
 70
0
  3
_ . . 
 72
65
 73
6
 40
2.1
 49
1.2
 74
0
 49
-0.3
 74
0
 49
0
 74
0
 49
-0.3
 74
0
 49
0
 74
0
 49
-0.3
 74
0
  0
LTYPE
  5
109
100
AcDbSymbolTableRecord
100
AcDbLinetypeTableRecord
  2
ISO dash triple-dot
 70
0
  3
_ . . . 
 72
65
 73
8
 40
2.4
 49
1.2
 74
0
 49
-0.3
 74
0
 49
0
 74
0
 49
-0.3
 74
0
 49
0
 74
0
 49
-0.3
 74
0
 49
0
 74
0
 49
-0.3
 74
0
  0
LTYPE
  5
10A
100
AcDbSymbolTableRecord
100
AcDbLinetypeTableRecord
  2
ISO dash long gaps
 70
0
  3
_ 
 72
65
 73
2
 40
3
 49
1.2
 74
0
 49
-1.8
 74
0
  0
ENDTAB
  0
TABLE
  2
LAYER
  5
2
100
AcDbSymbolTable
  0
LAYER
  5
10
100
AcDbSymbolTableRecord
100
AcDbLayerTableRecord
  2
0
 70
0
 62
7
  6
CONTINUOUS
290
1
370
-3
390
0
  0
LAYER
  5
2B
100
AcDbSymbolTableRecord
100
AcDbLayerTableRecord
  2
HINTERGRUND
 70
0
 62
7
  6
CONTINUOUS
290
1
370
-3
390
0
  0
LAYER
  5
2D
100
AcDbSymbolTableRecord
100
AcDbLayerTableRecord
  2
EBENE_1
 70
0
 62
7
  6
CONTINUOUS
290
1
370
-3
390
0
  0
ENDTAB
  0
TABLE
  2
VPORT
  5
110
100
AcDbSymbolTable
  0
VPORT
  5
112
100
AcDbSymbolTableRecord
100
AcDbViewportTableRecord
  2
*ACTIVE
 70
0
 10
0
 20
0
 11
1
 21
1
 12
-51.7734820568389
 22
0.742038345422902
 32
0
 13
0
 23
0
 14
1
 24
1
 15
1
 25
1
 16
0
 26
0
 36
1
 17
0
 27
0
 37
0
 40
227.005355244922
 41
0.980411361410382
 42
50
 43
0
 44
0
 50
0
 51
0
 71
0
 72
100
 73
1
 74
1
 75
0
 76
0
 77
0
 78
0
  0
ENDTAB
  0
TABLE
  2
VIEW
  5
113
100
AcDbSymbolTable
  0
ENDTAB
  0
TABLE
  2
UCS
  5
114
100
AcDbSymbolTable
  0
ENDTAB
  0
TABLE
  2
DIMSTYLE
  5
A
100
AcDbSymbolTable
 70
1
100
AcDbDimStyleTable
 71
0
  0
DIMSTYLE
105
E6
100
AcDbSymbolTableRecord
100
AcDbDimStyleTableRecord
  2
STANDARD
 70
0
  3

 40
1
 41
0.18
 42
0.0625
 44
0.18
 47
0
 48
0
 73
1
 74
1
 75
0
 76
0
 77
0
140
0.18
141
0.09
144
1
147
0.09
173
0
174
0
176
0
177
0
178
0
277
2
278
46
281
0
282
0
271
4
340
11
371
-1
372
-1
  0
ENDTAB
  0
ENDSEC
  0
SECTION
  2
BLOCKS
  0
BLOCK
  5
115
100
AcDbEntity
  8
0
100
AcDbBlockBegin
  2
*MODEL_SPACE
 70
0
 10
0
 20
0
  0
ENDBLK
  5
116
100
AcDbEntity
  8
0
100
AcDbBlockEnd
  0
BLOCK
  5
117
100
AcDbEntity
  8
0
100
AcDbBlockBegin
  2
*PAPER_SPACE
 70
0
 10
0
 20
0
  0
ENDBLK
  5
118
100
AcDbEntity
  8
0
100
AcDbBlockEnd
  0
BLOCK
  5
F4
100
AcDbEntity
  8
0
100
AcDbBlockBegin
  2
_CLOSEDFILLED
 70
0
 10
0
 20
0
 30
0
  3
_CLOSEDFILLED
  1

  0
SOLID
  5
F2
100
AcDbEntity
  8
0
100
AcDbTrace
370
-2
 62
0
 10
-1
 20
0.166666666666667
 30
0
 11
0
 21
0
 31
0
 12
-1
 22
0.166666666666667
 32
0
 13
-1
 23
-0.166666666666667
 33
0
  0
LINE
  5
F3
100
AcDbEntity
  8
0
100
AcDbLine
370
-2
 62
0
 10
-1
 20
0
 30
0
 11
-2
 21
0
 31
0
  0
ENDBLK
  5
119
100
AcDbEntity
  8
0
100
AcDbBlockEnd
  0
BLOCK
  5
102
100
AcDbEntity
  8
0
100
AcDbBlockBegin
  2
ABViewer_RedLine
 70
0
 10
0
 20
0
 30
0
  3
ABViewer_RedLine
  1

  0
ENDBLK
  5
11A
100
AcDbEntity
  8
0
100
AcDbBlockEnd
  0
ENDSEC
  0
SECTION
  2
ENTITIES
  0
LWPOLYLINE
  5
2C
100
AcDbEntity
  8
HINTERGRUND
100
AcDbPolyline
370
-1
 62
7
  6
BYLAYER
 38
0
 90
5
 70
1
 10
-150
 20
-100
 10
150
 20
-100
 10
150
 20
100
 10
-150
 20
100
 10
-150
 20
-100
  0
SPLINE
  5
2E
100
AcDbEntity
  8
EBENE_1
100
AcDbSpline
370
-1
 62
250
  6
BYLAYER
 70
11
 71
3
 72
20
 73
16
 40
0
 40
0
 40
0
 40
0
 40
0.25
 40
0.25
 40
0.25
 40
0.25
 40
0.5
 40
0.5
 40
0.5
 40
0.5
 40
0.75
 40
0.75
 40
0.75
 40
0.75
 40
1
 40
1
 40
1
 40
1
 10
-80.0745
 20
2.2417
 30
0
 10
-80.0745
 20
-13.0153
 30
0
 10
-67.7062
 20
-25.3837
 30
0
 10
-52.4498
 20
-25.3837
 30
0
 10
-52.4498
 20
-25.3837
 30
0
 10
-37.193
 20
-25.3837
 30
0
 10
-24.8248
 20
-13.0154
 30
0
 10
-24.8248
 20
2.2416
 30
0
 10
-24.8248
 20
2.2416
 30
0
 10
-24.8248
 20
17.4983
 30
0
 10
-37.1931
 20
29.8664
 30
0
 10
-52.4498
 20
29.8664
 30
0
 10
-52.4498
 20
29.8664
 30
0
 10
-67.7062
 20
29.8665
 30
0
 10
-80.0745
 20
17.4982
 30
0
 10
-80.0745
 20
2.2417
 30
0
  0
SPLINE
  5
2F
100
AcDbEntity
  8
EBENE_1
100
AcDbSpline
370
-1
 62
250
  6
BYLAYER
 70
11
 71
3
 72
84
 73
80
 40
0
 40
0
 40
0
 40
0
 40
0.05
 40
0.05
 40
0.05
 40
0.05
 40
0.1
 40
0.1
 40
0.1
 40
0.1
 40
0.15
 40
0.15
 40
0.15
 40
0.15
 40
0.2
 40
0.2
 40
0.2
 40
0.2
 40
0.25
 40
0.25
 40
0.25
 40
0.25
 40
0.3
 40
0.3
 40
0.3
 40
0.3
 40
0.35
 40
0.35
 40
0.35
 40
0.35
 40
0.4
 40
0.4
 40
0.4
 40
0.4
 40
0.45
 40
0.45
 40
0.45
 40
0.45
 40
0.5
 40
0.5
 40
0.5
 40
0.5
 40
0.55
 40
0.55
 40
0.55
 40
0.55
 40
0.6
 40
0.6
 40
0.6
 40
0.6
 40
0.65
 40
0.65
 40
0.65
 40
0.65
 40
0.7
 40
0.7
 40
0.7
 40
0.7
 40
0.75
 40
0.75
 40
0.75
 40
0.75
 40
0.8
 40
0.8
 40
0.8
 40
0.8
 40
0.85
 40
0.85
 40
0.85
 40
0.85
 40
0.9
 40
0.9
 40
0.9
 40
0.9
 40
0.95
 40
0.95
 40
0.95
 40
0.95
 40
1
 40
1
 40
1
 40
1
 10
-58.7853
 20
3.3393
 30
0
 10
-58.7853
 20
3.3541
 30
0
 10
-58.8036
 20
3.3665
 30
0
 10
-58.8036
 20
3.3665
 30
0
 10
-58.8036
 20
3.3665
 30
0
 10
-58.8036
 20
3.3665
 30
0
 10
-58.8227
 20
3.3545
 30
0
 10
-58.8227
 20
3.3397
 30
0
 10
-58.8227
 20
3.3397
 30
0
 10
-58.8227
 20
3.3245
 30
0
 10
-58.8036
 20
3.3118
 30
0
 10
-58.8036
 20
3.3118
 30
0
 10
-58.8036
 20
3.3118
 30
0
 10
-58.7985
 20
2.1937
 30
0
 10
-58.7985
 20
2.1723
 30
0
 10
-58.8054
 20
1.1736
 30
0
 10
-58.8054
 20
1.1736
 30
0
 10
-58.8054
 20
1.1736
 30
0
 10
-58.8222
 20
1.162
 30
0
 10
-58.8222
 20
1.1478
 30
0
 10
-58.8222
 20
1.1478
 30
0
 10
-58.8222
 20
1.1331
 30
0
 10
-58.8033
 20
1.1205
 30
0
 10
-58.8033
 20
1.1205
 30
0
 10
-58.8033
 20
1.1205
 30
0
 10
-58.8033
 20
1.1205
 30
0
 10
-58.7844
 20
1.1334
 30
0
 10
-58.7844
 20
1.1478
 30
0
 10
-58.7844
 20
1.1478
 30
0
 10
-58.7844
 20
1.1478
 30
0
 10
-58.7846
 20
1.148
 30
0
 10
-58.7846
 20
1.148
 30
0
 10
-58.7846
 20
1.148
 30
0
 10
-57.649
 20
1.1643
 30
0
 10
-57.6338
 20
1.1643
 30
0
 10
-56.5976
 20
1.145
 30
0
 10
-56.5976
 20
1.145
 30
0
 10
-56.5976
 20
1.145
 30
0
 10
-56.5975
 20
1.1447
 30
0
 10
-56.5975
 20
1.1447
 30
0
 10
-56.5975
 20
1.1447
 30
0
 10
-56.5975
 20
1.1299
 30
0
 10
-56.579
 20
1.1172
 30
0
 10
-56.579
 20
1.1172
 30
0
 10
-56.579
 20
1.1172
 30
0
 10
-56.579
 20
1.1172
 30
0
 10
-56.5603
 20
1.1299
 30
0
 10
-56.5603
 20
1.1447
 30
0
 10
-56.5603
 20
1.1447
 30
0
 10
-56.5603
 20
1.1599
 30
0
 10
-56.579
 20
1.1715
 30
0
 10
-56.579
 20
1.1715
 30
0
 10
-56.579
 20
1.1715
 30
0
 10
-56.5841
 20
2.1694
 30
0
 10
-56.5841
 20
2.1907
 30
0
 10
-56.5776
 20
3.3104
 30
0
 10
-56.5776
 20
3.3104
 30
0
 10
-56.5776
 20
3.3104
 30
0
 10
-56.5752
 20
3.309
 30
0
 10
-56.5752
 20
3.309
 30
0
 10
-56.5752
 20
3.309
 30
0
 10
-56.5752
 20
3.309
 30
0
 10
-56.5561
 20
3.3213
 30
0
 10
-56.5561
 20
3.3361
 30
0
 10
-56.5561
 20
3.3361
 30
0
 10
-56.5561
 20
3.3513
 30
0
 10
-56.5752
 20
3.3635
 30
0
 10
-56.5752
 20
3.3635
 30
0
 10
-56.5752
 20
3.3635
 30
0
 10
-56.5752
 20
3.3635
 30
0
 10
-56.5938
 20
3.3513
 30
0
 10
-56.5938
 20
3.3361
 30
0
 10
-56.5938
 20
3.3361
 30
0
 10
-56.5938
 20
3.3361
 30
0
 10
-56.5935
 20
3.3358
 30
0
 10
-56.5935
 20
3.3358
 30
0
 10
-56.5935
 20
3.3358
 30
0
 10
-57.6298
 20
3.3194
 30
0
 10
-57.6432
 20
3.3194
 30
0
 10
-58.7853
 20
3.3393
 30
0
  0
SPLINE
  5
30
100
AcDbEntity
  8
EBENE_1
100
AcDbSpline
370
-1
 62
250
  6
BYLAYER
 70
11
 71
3
 72
84
 73
80
 40
0
 40
0
 40
0
 40
0
 40
0.05
 40
0.05
 40
0.05
 40
0.05
 40
0.1
 40
0.1
 40
0.1
 40
0.1
 40
0.15
 40
0.15
 40
0.15
 40
0.15
 40
0.2
 40
0.2
 40
0.2
 40
0.2
 40
0.25
 40
0.25
 40
0.25
 40
0.25
 40
0.3
 40
0.3
 40
0.3
 40
0.3
 40
0.35
 40
0.35
 40
0.35
 40
0.35
 40
0.4
 40
0.4
 40
0.4
 40
0.4
 40
0.45
 40
0.45
 40
0.45
 40
0.45
 40
0.5
 40
0.5
 40
0.5
 40
0.5
 40
0.55
 40
0.55
 40
0.55
 40
0.55
 40
0.6
 40
0.6
 40
0.6
 40
0.6
 40
0.65
 40
0.65
 40
0.65
 40
0.65
 40
0.7
 40
0.7
 40
0.7
 40
0.7
 40
0.75
 40
0.75
 40
0.75
 40
0.75
 40
0.8
 40
0.8
 40
0.8
 40
0.8
 40
0.85
 40
0.85
 40
0.85
 40
0.85
 40
0.9
 40
0.9
 40
0.9
 40
0.9
 40
0.95
 40
0.95
 40
0.95
 40
0.95
 40
1
 40
1
 40
1
 40
1
 10
-46.1182
 20
1.1436
 30
0
 10
-46.1182
 20
1.1436
 30
0
 10
-46.1182
 20
1.1433
 30
0
 10
-46.1182
 20
1.1433
 30
0
 10
-46.1182
 20
1.1433
 30
0
 10
-46.1182
 20
1.1288
 30
0
 10
-46.0996
 20
1.1164
 30
0
 10
-46.0996
 20
1.1164
 30
0
 10
-46.0996
 20
1.1164
 30
0
 10
-46.0996
 20
1.1164
 30
0
 10
-46.0806
 20
1.1288
 30
0
 10
-46.0806
 20
1.1433
 30
0
 10
-46.0806
 20
1.1433
 30
0
 10
-46.0806
 20
1.1585
 30
0
 10
-46.0996
 20
1.1708
 30
0
 10
-46.0996
 20
1.1708
 30
0
 10
-46.0996
 20
1.1708
 30
0
 10
-46.1047
 20
2.1687
 30
0
 10
-46.1048
 20
2.1896
 30
0
 10
-46.0982
 20
3.3093
 30
0
 10
-46.0982
 20
3.3093
 30
0
 10
-46.0982
 20
3.3093
 30
0
 10
-46.0954
 20
3.3079
 30
0
 10
-46.0954
 20
3.3079
 30
0
 10
-46.0954
 20
3.3079
 30
0
 10
-46.0954
 20
3.3079
 30
0
 10
-46.0765
 20
3.3203
 30
0
 10
-46.0765
 20
3.3351
 30
0
 10
-46.0765
 20
3.3351
 30
0
 10
-46.0765
 20
3.3503
 30
0
 10
-46.0954
 20
3.3621
 30
0
 10
-46.0954
 20
3.3621
 30
0
 10
-46.0954
 20
3.3621
 30
0
 10
-46.0954
 20
3.3621
 30
0
 10
-46.1145
 20
3.3502
 30
0
 10
-46.1145
 20
3.3351
 30
0
 10
-46.1145
 20
3.3351
 30
0
 10
-46.1145
 20
3.3351
 30
0
 10
-46.1141
 20
3.3347
 30
0
 10
-46.1141
 20
3.3347
 30
0
 10
-46.1141
 20
3.3347
 30
0
 10
-47.1504
 20
3.3187
 30
0
 10
-47.1638
 20
3.3187
 30
0
 10
-48.3059
 20
3.3382
 30
0
 10
-48.3059
 20
3.3382
 30
0
 10
-48.3059
 20
3.3534
 30
0
 10
-48.3241
 20
3.3658
 30
0
 10
-48.3241
 20
3.3658
 30
0
 10
-48.3241
 20
3.3658
 30
0
 10
-48.3241
 20
3.3658
 30
0
 10
-48.3431
 20
3.3538
 30
0
 10
-48.3431
 20
3.3386
 30
0
 10
-48.3431
 20
3.3386
 30
0
 10
-48.3431
 20
3.3238
 30
0
 10
-48.3241
 20
3.3111
 30
0
 10
-48.3241
 20
3.3111
 30
0
 10
-48.3241
 20
3.3111
 30
0
 10
-48.3189
 20
2.1926
 30
0
 10
-48.319
 20
2.1712
 30
0
 10
-48.3258
 20
1.1725
 30
0
 10
-48.3258
 20
1.1725
 30
0
 10
-48.3258
 20
1.1725
 30
0
 10
-48.3428
 20
1.1609
 30
0
 10
-48.3428
 20
1.1471
 30
0
 10
-48.3428
 20
1.1471
 30
0
 10
-48.3428
 20
1.132
 30
0
 10
-48.3237
 20
1.1195
 30
0
 10
-48.3237
 20
1.1195
 30
0
 10
-48.3237
 20
1.1195
 30
0
 10
-48.3237
 20
1.1195
 30
0
 10
-48.3048
 20
1.1327
 30
0
 10
-48.3048
 20
1.1471
 30
0
 10
-48.3048
 20
1.1471
 30
0
 10
-48.3048
 20
1.1471
 30
0
 10
-48.3052
 20
1.1472
 30
0
 10
-48.3052
 20
1.1472
 30
0
 10
-48.3052
 20
1.1472
 30
0
 10
-47.1696
 20
1.1636
 30
0
 10
-47.1544
 20
1.1636
 30
0
 10
-46.1182
 20
1.1436
 30
0
  0
SPLINE
  5
31
100
AcDbEntity
  8
EBENE_1
100
AcDbSpline
370
-1
 62
250
  6
BYLAYER
 70
11
 71
3
 72
80
 73
76
 40
0
 40
0
 40
0
 40
0
 40
0.0526315789473684
 40
0.0526315789473684
 40
0.0526315789473684
 40
0.0526315789473684
 40
0.105263157894737
 40
0.105263157894737
 40
0.105263157894737
 40
0.105263157894737
 40
0.157894736842105
 40
0.157894736842105
 40
0.157894736842105
 40
0.157894736842105
 40
0.210526315789474
 40
0.210526315789474
 40
0.210526315789474
 40
0.210526315789474
 40
0.263157894736842
 40
0.263157894736842
 40
0.263157894736842
 40
0.263157894736842
 40
0.31578947368421
 40
0.31578947368421
 40
0.31578947368421
 40
0.31578947368421
 40
0.368421052631579
 40
0.368421052631579
 40
0.368421052631579
 40
0.368421052631579
 40
0.421052631578947
 40
0.421052631578947
 40
0.421052631578947
 40
0.421052631578947
 40
0.473684210526316
 40
0.473684210526316
 40
0.473684210526316
 40
0.473684210526316
 40
0.526315789473684
 40
0.526315789473684
 40
0.526315789473684
 40
0.526315789473684
 40
0.578947368421053
 40
0.578947368421053
 40
0.578947368421053
 40
0.578947368421053
 40
0.631578947368421
 40
0.631578947368421
 40
0.631578947368421
 40
0.631578947368421
 40
0.68421052631579
 40
0.68421052631579
 40
0.68421052631579
 40
0.68421052631579
 40
0.736842105263158
 40
0.736842105263158
 40
0.736842105263158
 40
0.736842105263158
 40
0.789473684210527
 40
0.789473684210527
 40
0.789473684210527
 40
0.789473684210527
 40
0.842105263157895
 40
0.842105263157895
 40
0.842105263157895
 40
0.842105263157895
 40
0.894736842105263
 40
0.894736842105263
 40
0.894736842105263
 40
0.894736842105263
 40
0.947368421052632
 40
0.947368421052632
 40
0.947368421052632
 40
0.947368421052632
 40
1
 40
1
 40
1
 40
1
 10
-53.5746
 20
-4.113
 30
0
 10
-53.5746
 20
-4.113
 30
0
 10
-53.5626
 20
-4.1319
 30
0
 10
-53.5476
 20
-4.1319
 30
0
 10
-53.5476
 20
-4.1319
 30
0
 10
-53.5328
 20
-4.1311
 30
0
 10
-53.5199
 20
-4.113
 30
0
 10
-53.5199
 20
-4.113
 30
0
 10
-53.5199
 20
-4.113
 30
0
 10
-52.402
 20
-4.1077
 30
0
 10
-52.3805
 20
-4.1077
 30
0
 10
-51.3821
 20
-4.1142
 30
0
 10
-51.3821
 20
-4.1142
 30
0
 10
-51.3821
 20
-4.1142
 30
0
 10
-51.3701
 20
-4.1312
 30
0
 10
-51.3564
 20
-4.1312
 30
0
 10
-51.3564
 20
-4.1312
 30
0
 10
-51.3412
 20
-4.1311
 30
0
 10
-51.3289
 20
-4.1127
 30
0
 10
-51.3289
 20
-4.1127
 30
0
 10
-51.3289
 20
-4.1127
 30
0
 10
-51.3289
 20
-4.1127
 30
0
 10
-51.3419
 20
-4.0936
 30
0
 10
-51.3564
 20
-4.0936
 30
0
 10
-51.3564
 20
-4.0936
 30
0
 10
-51.3728
 20
-2.9582
 30
0
 10
-51.3728
 20
-2.943
 30
0
 10
-51.3532
 20
-1.9067
 30
0
 10
-51.3532
 20
-1.9067
 30
0
 10
-51.3532
 20
-1.9067
 30
0
 10
-51.3529
 20
-1.9067
 30
0
 10
-51.3529
 20
-1.9067
 30
0
 10
-51.3529
 20
-1.9067
 30
0
 10
-51.338
 20
-1.9067
 30
0
 10
-51.3257
 20
-1.888
 30
0
 10
-51.3257
 20
-1.888
 30
0
 10
-51.3257
 20
-1.888
 30
0
 10
-51.3257
 20
-1.888
 30
0
 10
-51.338
 20
-1.8695
 30
0
 10
-51.3529
 20
-1.8692
 30
0
 10
-51.3529
 20
-1.8692
 30
0
 10
-51.368
 20
-1.8695
 30
0
 10
-51.3802
 20
-1.888
 30
0
 10
-51.3802
 20
-1.888
 30
0
 10
-51.3802
 20
-1.888
 30
0
 10
-52.3777
 20
-1.8933
 30
0
 10
-52.3988
 20
-1.8933
 30
0
 10
-53.5183
 20
-1.8868
 30
0
 10
-53.5183
 20
-1.8868
 30
0
 10
-53.5183
 20
-1.8868
 30
0
 10
-53.5171
 20
-1.884
 30
0
 10
-53.5171
 20
-1.884
 30
0
 10
-53.5171
 20
-1.884
 30
0
 10
-53.5171
 20
-1.884
 30
0
 10
-53.5293
 20
-1.8653
 30
0
 10
-53.5441
 20
-1.8653
 30
0
 10
-53.5441
 20
-1.8653
 30
0
 10
-53.5592
 20
-1.8652
 30
0
 10
-53.5713
 20
-1.884
 30
0
 10
-53.5713
 20
-1.884
 30
0
 10
-53.5713
 20
-1.884
 30
0
 10
-53.5713
 20
-1.884
 30
0
 10
-53.5592
 20
-1.9029
 30
0
 10
-53.5441
 20
-1.9029
 30
0
 10
-53.5441
 20
-1.9029
 30
0
 10
-53.5441
 20
-1.9029
 30
0
 10
-53.5437
 20
-1.9025
 30
0
 10
-53.5437
 20
-1.9025
 30
0
 10
-53.5437
 20
-1.9025
 30
0
 10
-53.5273
 20
-2.9388
 30
0
 10
-53.5273
 20
-2.9524
 30
0
 10
-53.5474
 20
-4.0943
 30
0
 10
-53.5474
 20
-4.0943
 30
0
 10
-53.5622
 20
-4.0946
 30
0
 10
-53.5746
 20
-4.113
 30
0
 10
-53.5746
 20
-4.113
 30
0
  0
SPLINE
  5
32
100
AcDbEntity
  8
EBENE_1
100
AcDbSpline
370
-1
 62
250
  6
BYLAYER
 70
11
 71
3
 72
88
 73
84
 40
0
 40
0
 40
0
 40
0
 40
0.0476190476190476
 40
0.0476190476190476
 40
0.0476190476190476
 40
0.0476190476190476
 40
0.0952380952380952
 40
0.0952380952380952
 40
0.0952380952380952
 40
0.0952380952380952
 40
0.142857142857143
 40
0.142857142857143
 40
0.142857142857143
 40
0.142857142857143
 40
0.19047619047619
 40
0.19047619047619
 40
0.19047619047619
 40
0.19047619047619
 40
0.238095238095238
 40
0.238095238095238
 40
0.238095238095238
 40
0.238095238095238
 40
0.285714285714286
 40
0.285714285714286
 40
0.285714285714286
 40
0.285714285714286
 40
0.333333333333333
 40
0.333333333333333
 40
0.333333333333333
 40
0.333333333333333
 40
0.380952380952381
 40
0.380952380952381
 40
0.380952380952381
 40
0.380952380952381
 40
0.428571428571429
 40
0.428571428571429
 40
0.428571428571429
 40
0.428571428571429
 40
0.476190476190476
 40
0.476190476190476
 40
0.476190476190476
 40
0.476190476190476
 40
0.523809523809524
 40
0.523809523809524
 40
0.523809523809524
 40
0.523809523809524
 40
0.571428571428572
 40
0.571428571428572
 40
0.571428571428572
 40
0.571428571428572
 40
0.619047619047619
 40
0.619047619047619
 40
0.619047619047619
 40
0.619047619047619
 40
0.666666666666667
 40
0.666666666666667
 40
0.666666666666667
 40
0.666666666666667
 40
0.714285714285715
 40
0.714285714285715
 40
0.714285714285715
 40
0.714285714285715
 40
0.761904761904762
 40
0.761904761904762
 40
0.761904761904762
 40
0.761904761904762
 40
0.80952380952381
 40
0.80952380952381
 40
0.80952380952381
 40
0.80952380952381
 40
0.857142857142858
 40
0.857142857142858
 40
0.857142857142858
 40
0.857142857142858
 40
0.904761904761905
 40
0.904761904761905
 40
0.904761904761905
 40
0.904761904761905
 40
0.952380952380953
 40
0.952380952380953
 40
0.952380952380953
 40
0.952380952380953
 40
1
 40
1
 40
1
 40
1
 10
-53.5176
 20
8.5931
 30
0
 10
-53.5176
 20
8.5931
 30
0
 10
-53.5162
 20
8.5955
 30
0
 10
-53.5162
 20
8.5955
 30
0
 10
-53.5162
 20
8.5955
 30
0
 10
-53.5162
 20
8.5955
 30
0
 10
-53.5284
 20
8.6144
 30
0
 10
-53.5432
 20
8.6144
 30
0
 10
-53.5432
 20
8.6144
 30
0
 10
-53.5583
 20
8.6144
 30
0
 10
-53.5704
 20
8.5955
 30
0
 10
-53.5704
 20
8.5955
 30
0
 10
-53.5704
 20
8.5955
 30
0
 10
-53.5704
 20
8.5955
 30
0
 10
-53.5584
 20
8.5768
 30
0
 10
-53.5432
 20
8.5768
 30
0
 10
-53.5432
 20
8.5768
 30
0
 10
-53.5432
 20
8.5768
 30
0
 10
-53.5429
 20
8.5768
 30
0
 10
-53.5429
 20
8.5768
 30
0
 10
-53.5429
 20
8.5768
 30
0
 10
-53.5264
 20
7.5409
 30
0
 10
-53.5264
 20
7.5271
 30
0
 10
-53.5466
 20
6.385
 30
0
 10
-53.5466
 20
6.385
 30
0
 10
-53.5466
 20
6.385
 30
0
 10
-53.5465
 20
6.3854
 30
0
 10
-53.5465
 20
6.3854
 30
0
 10
-53.5465
 20
6.3854
 30
0
 10
-53.5615
 20
6.3851
 30
0
 10
-53.5737
 20
6.3668
 30
0
 10
-53.5737
 20
6.3668
 30
0
 10
-53.5737
 20
6.3668
 30
0
 10
-53.5737
 20
6.3668
 30
0
 10
-53.5619
 20
6.348
 30
0
 10
-53.5469
 20
6.348
 30
0
 10
-53.5469
 20
6.348
 30
0
 10
-53.5319
 20
6.3481
 30
0
 10
-53.519
 20
6.3668
 30
0
 10
-53.519
 20
6.3668
 30
0
 10
-53.519
 20
6.3668
 30
0
 10
-52.4013
 20
6.372
 30
0
 10
-52.3798
 20
6.372
 30
0
 10
-51.3814
 20
6.3651
 30
0
 10
-51.3814
 20
6.3651
 30
0
 10
-51.3814
 20
6.3651
 30
0
 10
-51.3694
 20
6.3485
 30
0
 10
-51.3553
 20
6.3485
 30
0
 10
-51.3553
 20
6.3485
 30
0
 10
-51.3405
 20
6.3485
 30
0
 10
-51.3282
 20
6.3672
 30
0
 10
-51.3282
 20
6.3672
 30
0
 10
-51.3282
 20
6.3672
 30
0
 10
-51.3282
 20
6.3672
 30
0
 10
-51.3409
 20
6.3857
 30
0
 10
-51.3553
 20
6.3861
 30
0
 10
-51.3553
 20
6.3861
 30
0
 10
-51.3553
 20
6.3861
 30
0
 10
-51.3557
 20
6.3861
 30
0
 10
-51.3557
 20
6.3861
 30
0
 10
-51.3557
 20
6.3861
 30
0
 10
-51.3719
 20
7.5217
 30
0
 10
-51.3719
 20
7.5368
 30
0
 10
-51.3525
 20
8.5728
 30
0
 10
-51.3525
 20
8.5728
 30
0
 10
-51.3525
 20
8.5728
 30
0
 10
-51.3521
 20
8.5728
 30
0
 10
-51.3521
 20
8.5728
 30
0
 10
-51.3521
 20
8.5728
 30
0
 10
-51.3373
 20
8.5728
 30
0
 10
-51.3246
 20
8.5913
 30
0
 10
-51.3246
 20
8.5913
 30
0
 10
-51.3246
 20
8.5913
 30
0
 10
-51.3246
 20
8.5913
 30
0
 10
-51.3373
 20
8.6103
 30
0
 10
-51.3521
 20
8.6103
 30
0
 10
-51.3521
 20
8.6103
 30
0
 10
-51.3673
 20
8.6103
 30
0
 10
-51.3793
 20
8.5913
 30
0
 10
-51.3793
 20
8.5913
 30
0
 10
-51.3793
 20
8.5913
 30
0
 10
-52.3766
 20
8.5862
 30
0
 10
-52.3981
 20
8.5862
 30
0
 10
-53.5176
 20
8.5931
 30
0
  0
SPLINE
  5
33
100
AcDbEntity
  8
EBENE_1
100
AcDbSpline
370
-1
 62
250
  6
BYLAYER
 70
11
 71
3
 72
84
 73
80
 40
0
 40
0
 40
0
 40
0
 40
0.05
 40
0.05
 40
0.05
 40
0.05
 40
0.1
 40
0.1
 40
0.1
 40
0.1
 40
0.15
 40
0.15
 40
0.15
 40
0.15
 40
0.2
 40
0.2
 40
0.2
 40
0.2
 40
0.25
 40
0.25
 40
0.25
 40
0.25
 40
0.3
 40
0.3
 40
0.3
 40
0.3
 40
0.35
 40
0.35
 40
0.35
 40
0.35
 40
0.4
 40
0.4
 40
0.4
 40
0.4
 40
0.45
 40
0.45
 40
0.45
 40
0.45
 40
0.5
 40
0.5
 40
0.5
 40
0.5
 40
0.55
 40
0.55
 40
0.55
 40
0.55
 40
0.6
 40
0.6
 40
0.6
 40
0.6
 40
0.65
 40
0.65
 40
0.65
 40
0.65
 40
0.7
 40
0.7
 40
0.7
 40
0.7
 40
0.75
 40
0.75
 40
0.75
 40
0.75
 40
0.8
 40
0.8
 40
0.8
 40
0.8
 40
0.85
 40
0.85
 40
0.85
 40
0.85
 40
0.9
 40
0.9
 40
0.9
 40
0.9
 40
0.95
 40
0.95
 40
0.95
 40
0.95
 40
1
 40
1
 40
1
 40
1
 10
-57.7308
 20
-1.4871
 30
0
 10
-57.7201
 20
-1.4975
 30
0
 10
-57.7056
 20
-1.5005
 30
0
 10
-57.6979
 20
-1.4933
 30
0
 10
-57.6979
 20
-1.4933
 30
0
 10
-56.9037
 20
-2.2801
 30
0
 10
-56.8884
 20
-2.2953
 30
0
 10
-56.1871
 20
-3.0063
 30
0
 10
-56.1871
 20
-3.0063
 30
0
 10
-56.1929
 20
-3.0139
 30
0
 10
-56.1906
 20
-3.0266
 30
0
 10
-56.1806
 20
-3.0367
 30
0
 10
-56.1806
 20
-3.0367
 30
0
 10
-56.1702
 20
-3.0471
 30
0
 10
-56.1557
 20
-3.0494
 30
0
 10
-56.1483
 20
-3.0425
 30
0
 10
-56.1483
 20
-3.0425
 30
0
 10
-56.141
 20
-3.0349
 30
0
 10
-56.1439
 20
-3.0204
 30
0
 10
-56.1539
 20
-3.0099
 30
0
 10
-56.1539
 20
-3.0099
 30
0
 10
-56.1539
 20
-3.0099
 30
0
 10
-56.1543
 20
-3.0099
 30
0
 10
-56.1543
 20
-3.0099
 30
0
 10
-56.1543
 20
-3.0099
 30
0
 10
-55.3628
 20
-2.1955
 30
0
 10
-55.3521
 20
-2.1847
 30
0
 10
-54.6058
 20
-1.4654
 30
0
 10
-54.6058
 20
-1.4654
 30
0
 10
-54.6058
 20
-1.4654
 30
0
 10
-54.6056
 20
-1.4657
 30
0
 10
-54.6056
 20
-1.4657
 30
0
 10
-54.6056
 20
-1.4657
 30
0
 10
-54.595
 20
-1.4763
 30
0
 10
-54.5802
 20
-1.4795
 30
0
 10
-54.5728
 20
-1.4723
 30
0
 10
-54.5728
 20
-1.4723
 30
0
 10
-54.5655
 20
-1.4647
 30
0
 10
-54.5687
 20
-1.4499
 30
0
 10
-54.579
 20
-1.4391
 30
0
 10
-54.579
 20
-1.4391
 30
0
 10
-54.5899
 20
-1.4289
 30
0
 10
-54.6042
 20
-1.4261
 30
0
 10
-54.6116
 20
-1.4333
 30
0
 10
-54.6116
 20
-1.4333
 30
0
 10
-55.3205
 20
-0.732
 30
0
 10
-55.3357
 20
-0.7165
 30
0
 10
-56.1227
 20
0.0798
 30
0
 10
-56.1227
 20
0.0798
 30
0
 10
-56.1227
 20
0.0798
 30
0
 10
-56.1199
 20
0.0809
 30
0
 10
-56.1199
 20
0.0809
 30
0
 10
-56.1199
 20
0.0809
 30
0
 10
-56.1123
 20
0.0874
 30
0
 10
-56.1151
 20
0.1029
 30
0
 10
-56.1257
 20
0.1132
 30
0
 10
-56.1257
 20
0.1132
 30
0
 10
-56.1364
 20
0.1239
 30
0
 10
-56.1508
 20
0.1266
 30
0
 10
-56.1583
 20
0.1192
 30
0
 10
-56.1583
 20
0.1192
 30
0
 10
-56.1655
 20
0.1118
 30
0
 10
-56.1631
 20
0.0973
 30
0
 10
-56.1523
 20
0.0863
 30
0
 10
-56.1523
 20
0.0863
 30
0
 10
-56.1523
 20
0.0863
 30
0
 10
-56.1518
 20
0.0863
 30
0
 10
-56.1518
 20
0.0863
 30
0
 10
-56.1518
 20
0.0863
 30
0
 10
-56.8729
 20
-0.6579
 30
0
 10
-56.8826
 20
-0.6674
 30
0
 10
-57.7042
 20
-1.461
 30
0
 10
-57.7042
 20
-1.461
 30
0
 10
-57.7148
 20
-1.4505
 30
0
 10
-57.7294
 20
-1.4478
 30
0
 10
-57.7365
 20
-1.4546
 30
0
 10
-57.7365
 20
-1.4546
 30
0
 10
-57.7441
 20
-1.4619
 30
0
 10
-57.7413
 20
-1.4767
 30
0
 10
-57.7308
 20
-1.4871
 30
0
  0
SPLINE
  5
34
100
AcDbEntity
  8
EBENE_1
100
AcDbSpline
370
-1
 62
250
  6
BYLAYER
 70
8
 71
3
 72
80
 73
76
 40
0
 40
0
 40
0
 40
0
 40
0.0526315789473684
 40
0.0526315789473684
 40
0.0526315789473684
 40
0.0526315789473684
 40
0.105263157894737
 40
0.105263157894737
 40
0.105263157894737
 40
0.105263157894737
 40
0.157894736842105
 40
0.157894736842105
 40
0.157894736842105
 40
0.157894736842105
 40
0.210526315789474
 40
0.210526315789474
 40
0.210526315789474
 40
0.210526315789474
 40
0.263157894736842
 40
0.263157894736842
 40
0.263157894736842
 40
0.263157894736842
 40
0.31578947368421
 40
0.31578947368421
 40
0.31578947368421
 40
0.31578947368421
 40
0.368421052631579
 40
0.368421052631579
 40
0.368421052631579
 40
0.368421052631579
 40
0.421052631578947
 40
0.421052631578947
 40
0.421052631578947
 40
0.421052631578947
 40
0.473684210526316
 40
0.473684210526316
 40
0.473684210526316
 40
0.473684210526316
 40
0.526315789473684
 40
0.526315789473684
 40
0.526315789473684
 40
0.526315789473684
 40
0.578947368421053
 40
0.578947368421053
 40
0.578947368421053
 40
0.578947368421053
 40
0.631578947368421
 40
0.631578947368421
 40
0.631578947368421
 40
0.631578947368421
 40
0.68421052631579
 40
0.68421052631579
 40
0.68421052631579
 40
0.68421052631579
 40
0.736842105263158
 40
0.736842105263158
 40
0.736842105263158
 40
0.736842105263158
 40
0.789473684210527
 40
0.789473684210527
 40
0.789473684210527
 40
0.789473684210527
 40
0.842105263157895
 40
0.842105263157895
 40
0.842105263157895
 40
0.842105263157895
 40
0.894736842105263
 40
0.894736842105263
 40
0.894736842105263
 40
0.894736842105263
 40
0.947368421052632
 40
0.947368421052632
 40
0.947368421052632
 40
0.947368421052632
 40
1
 40
1
 40
1
 40
1
 10
-48.7433
 20
4.3999
 30
0
 10
-47.9524
 20
5.2145
 30
0
 10
-47.9413
 20
5.2253
 30
0
 10
-47.1948
 20
5.9437
 30
0
 10
-47.1948
 20
5.9437
 30
0
 10
-47.1948
 20
5.9437
 30
0
 10
-47.1947
 20
5.9435
 30
0
 10
-47.1947
 20
5.9435
 30
0
 10
-47.1947
 20
5.9435
 30
0
 10
-47.1842
 20
5.9331
 30
0
 10
-47.1696
 20
5.9303
 30
0
 10
-47.1622
 20
5.9375
 30
0
 10
-47.1622
 20
5.9375
 30
0
 10
-47.1549
 20
5.9448
 30
0
 10
-47.158
 20
5.9596
 30
0
 10
-47.1682
 20
5.9703
 30
0
 10
-47.1682
 20
5.9703
 30
0
 10
-47.179
 20
5.9806
 30
0
 10
-47.1936
 20
5.9834
 30
0
 10
-47.2008
 20
5.9761
 30
0
 10
-47.2008
 20
5.9761
 30
0
 10
-47.9101
 20
6.678
 30
0
 10
-47.9249
 20
6.6928
 30
0
 10
-48.712
 20
7.4892
 30
0
 10
-48.712
 20
7.4892
 30
0
 10
-48.712
 20
7.4892
 30
0
 10
-48.7091
 20
7.4903
 30
0
 10
-48.7091
 20
7.4903
 30
0
 10
-48.7091
 20
7.4903
 30
0
 10
-48.7015
 20
7.4972
 30
0
 10
-48.7042
 20
7.5123
 30
0
 10
-48.7148
 20
7.5227
 30
0
 10
-48.7148
 20
7.5227
 30
0
 10
-48.7255
 20
7.5333
 30
0
 10
-48.7398
 20
7.5361
 30
0
 10
-48.7474
 20
7.5285
 30
0
 10
-48.7474
 20
7.5285
 30
0
 10
-48.7546
 20
7.5213
 30
0
 10
-48.7524
 20
7.5068
 30
0
 10
-48.7416
 20
7.4957
 30
0
 10
-48.7416
 20
7.4957
 30
0
 10
-48.7416
 20
7.4957
 30
0
 10
-48.7411
 20
7.4957
 30
0
 10
-48.7411
 20
7.4957
 30
0
 10
-48.7411
 20
7.4957
 30
0
 10
-49.4623
 20
6.7517
 30
0
 10
-49.4718
 20
6.7424
 30
0
 10
-50.2933
 20
5.9486
 30
0
 10
-50.2933
 20
5.9486
 30
0
 10
-50.3044
 20
5.9589
 30
0
 10
-50.3187
 20
5.9624
 30
0
 10
-50.3257
 20
5.9551
 30
0
 10
-50.3257
 20
5.9551
 30
0
 10
-50.3337
 20
5.9479
 30
0
 10
-50.3307
 20
5.9331
 30
0
 10
-50.3199
 20
5.9223
 30
0
 10
-50.3199
 20
5.9223
 30
0
 10
-50.3093
 20
5.9125
 30
0
 10
-50.2949
 20
5.9093
 30
0
 10
-50.2871
 20
5.9165
 30
0
 10
-50.2871
 20
5.9165
 30
0
 10
-49.4926
 20
5.1293
 30
0
 10
-49.4775
 20
5.1141
 30
0
 10
-48.7763
 20
4.4031
 30
0
 10
-48.7763
 20
4.4031
 30
0
 10
-48.782
 20
4.3959
 30
0
 10
-48.7799
 20
4.3828
 30
0
 10
-48.7702
 20
4.3731
 30
0
 10
-48.7702
 20
4.3731
 30
0
 10
-48.7594
 20
4.3626
 30
0
 10
-48.7448
 20
4.3601
 30
0
 10
-48.7372
 20
4.3669
 30
0
 10
-48.7372
 20
4.3669
 30
0
 10
-48.7299
 20
4.3745
 30
0
 10
-48.7335
 20
4.3892
 30
0
 10
-48.7434
 20
4.3999
 30
0
  0
SPLINE
  5
35
100
AcDbEntity
  8
EBENE_1
100
AcDbSpline
370
-1
 62
250
  6
BYLAYER
 70
8
 71
3
 72
16
 73
12
 40
0
 40
0
 40
0
 40
0
 40
0.333333333333333
 40
0.333333333333333
 40
0.333333333333333
 40
0.333333333333333
 40
0.666666666666667
 40
0.666666666666667
 40
0.666666666666667
 40
0.666666666666667
 40
1
 40
1
 40
1
 40
1
 10
-48.7433
 20
4.3999
 30
0
 10
-48.7433
 20
4.3999
 30
0
 10
-48.7433
 20
4.4001
 30
0
 10
-48.7433
 20
4.4001
 30
0
 10
-48.7433
 20
4.4001
 30
0
 10
-48.7433
 20
4.4001
 30
0
 10
-48.7435
 20
4.3998
 30
0
 10
-48.7435
 20
4.3998
 30
0
 10
-48.7435
 20
4.3998
 30
0
 10
-48.7435
 20
4.3998
 30
0
 10
-48.7434
 20
4.3999
 30
0
 10
-48.7434
 20
4.3999
 30
0
  0
SPLINE
  5
36
100
AcDbEntity
  8
EBENE_1
100
AcDbSpline
370
-1
 62
250
  6
BYLAYER
 70
11
 71
3
 72
80
 73
76
 40
0
 40
0
 40
0
 40
0
 40
0.0526315789473684
 40
0.0526315789473684
 40
0.0526315789473684
 40
0.0526315789473684
 40
0.105263157894737
 40
0.105263157894737
 40
0.105263157894737
 40
0.105263157894737
 40
0.157894736842105
 40
0.157894736842105
 40
0.157894736842105
 40
0.157894736842105
 40
0.210526315789474
 40
0.210526315789474
 40
0.210526315789474
 40
0.210526315789474
 40
0.263157894736842
 40
0.263157894736842
 40
0.263157894736842
 40
0.263157894736842
 40
0.31578947368421
 40
0.31578947368421
 40
0.31578947368421
 40
0.31578947368421
 40
0.368421052631579
 40
0.368421052631579
 40
0.368421052631579
 40
0.368421052631579
 40
0.421052631578947
 40
0.421052631578947
 40
0.421052631578947
 40
0.421052631578947
 40
0.473684210526316
 40
0.473684210526316
 40
0.473684210526316
 40
0.473684210526316
 40
0.526315789473684
 40
0.526315789473684
 40
0.526315789473684
 40
0.526315789473684
 40
0.578947368421053
 40
0.578947368421053
 40
0.578947368421053
 40
0.578947368421053
 40
0.631578947368421
 40
0.631578947368421
 40
0.631578947368421
 40
0.631578947368421
 40
0.68421052631579
 40
0.68421052631579
 40
0.68421052631579
 40
0.68421052631579
 40
0.736842105263158
 40
0.736842105263158
 40
0.736842105263158
 40
0.736842105263158
 40
0.789473684210527
 40
0.789473684210527
 40
0.789473684210527
 40
0.789473684210527
 40
0.842105263157895
 40
0.842105263157895
 40
0.842105263157895
 40
0.842105263157895
 40
0.894736842105263
 40
0.894736842105263
 40
0.894736842105263
 40
0.894736842105263
 40
0.947368421052632
 40
0.947368421052632
 40
0.947368421052632
 40
0.947368421052632
 40
1
 40
1
 40
1
 40
1
 10
-50.3241
 20
-1.4672
 30
0
 10
-50.3169
 20
-1.4748
 30
0
 10
-50.3023
 20
-1.4723
 30
0
 10
-50.2917
 20
-1.4615
 30
0
 10
-50.2917
 20
-1.4615
 30
0
 10
-50.2917
 20
-1.4615
 30
0
 10
-50.2917
 20
-1.461
 30
0
 10
-50.2917
 20
-1.461
 30
0
 10
-50.2917
 20
-1.461
 30
0
 10
-49.5473
 20
-2.1822
 30
0
 10
-49.5378
 20
-2.1916
 30
0
 10
-48.7442
 20
-3.0132
 30
0
 10
-48.7442
 20
-3.0132
 30
0
 10
-48.7546
 20
-3.0243
 30
0
 10
-48.7576
 20
-3.0384
 30
0
 10
-48.7504
 20
-3.0457
 30
0
 10
-48.7504
 20
-3.0457
 30
0
 10
-48.7433
 20
-3.0532
 30
0
 10
-48.7285
 20
-3.0508
 30
0
 10
-48.718
 20
-3.0402
 30
0
 10
-48.718
 20
-3.0402
 30
0
 10
-48.7079
 20
-3.0291
 30
0
 10
-48.7047
 20
-3.0146
 30
0
 10
-48.7118
 20
-3.007
 30
0
 10
-48.7118
 20
-3.007
 30
0
 10
-47.9249
 20
-2.2129
 30
0
 10
-47.9097
 20
-2.1978
 30
0
 10
-47.1991
 20
-1.4964
 30
0
 10
-47.1991
 20
-1.4964
 30
0
 10
-47.1915
 20
-1.5019
 30
0
 10
-47.1786
 20
-1.4998
 30
0
 10
-47.1689
 20
-1.4903
 30
0
 10
-47.1689
 20
-1.4903
 30
0
 10
-47.1583
 20
-1.4795
 30
0
 10
-47.1559
 20
-1.4647
 30
0
 10
-47.1626
 20
-1.4575
 30
0
 10
-47.1626
 20
-1.4575
 30
0
 10
-47.1701
 20
-1.4499
 30
0
 10
-47.1853
 20
-1.4534
 30
0
 10
-47.1955
 20
-1.4636
 30
0
 10
-47.1955
 20
-1.4636
 30
0
 10
-48.0101
 20
-0.6723
 30
0
 10
-48.0207
 20
-0.6616
 30
0
 10
-48.7397
 20
0.0853
 30
0
 10
-48.7397
 20
0.0853
 30
0
 10
-48.7397
 20
0.0853
 30
0
 10
-48.7395
 20
0.0853
 30
0
 10
-48.7395
 20
0.0853
 30
0
 10
-48.7395
 20
0.0853
 30
0
 10
-48.7289
 20
0.0961
 30
0
 10
-48.7261
 20
0.1105
 30
0
 10
-48.7335
 20
0.1177
 30
0
 10
-48.7335
 20
0.1177
 30
0
 10
-48.7407
 20
0.125
 30
0
 10
-48.7554
 20
0.1221
 30
0
 10
-48.7659
 20
0.1117
 30
0
 10
-48.7659
 20
0.1117
 30
0
 10
-48.7765
 20
0.1012
 30
0
 10
-48.7792
 20
0.0863
 30
0
 10
-48.7719
 20
0.0791
 30
0
 10
-48.7719
 20
0.0791
 30
0
 10
-49.4736
 20
-0.63
 30
0
 10
-49.4886
 20
-0.6448
 30
0
 10
-50.2848
 20
-1.4319
 30
0
 10
-50.2848
 20
-1.4319
 30
0
 10
-50.2848
 20
-1.4319
 30
0
 10
-50.2857
 20
-1.4289
 30
0
 10
-50.2857
 20
-1.4289
 30
0
 10
-50.2857
 20
-1.4289
 30
0
 10
-50.2927
 20
-1.4213
 30
0
 10
-50.3076
 20
-1.4243
 30
0
 10
-50.3182
 20
-1.4351
 30
0
 10
-50.3182
 20
-1.4351
 30
0
 10
-50.3287
 20
-1.4458
 30
0
 10
-50.3316
 20
-1.4599
 30
0
 10
-50.3241
 20
-1.4672
 30
0
  0
SPLINE
  5
37
100
AcDbEntity
  8
EBENE_1
100
AcDbSpline
370
-1
 62
250
  6
BYLAYER
 70
11
 71
3
 72
88
 73
84
 40
0
 40
0
 40
0
 40
0
 40
0.0476190476190476
 40
0.0476190476190476
 40
0.0476190476190476
 40
0.0476190476190476
 40
0.0952380952380952
 40
0.0952380952380952
 40
0.0952380952380952
 40
0.0952380952380952
 40
0.142857142857143
 40
0.142857142857143
 40
0.142857142857143
 40
0.142857142857143
 40
0.19047619047619
 40
0.19047619047619
 40
0.19047619047619
 40
0.19047619047619
 40
0.238095238095238
 40
0.238095238095238
 40
0.238095238095238
 40
0.238095238095238
 40
0.285714285714286
 40
0.285714285714286
 40
0.285714285714286
 40
0.285714285714286
 40
0.333333333333333
 40
0.333333333333333
 40
0.333333333333333
 40
0.333333333333333
 40
0.380952380952381
 40
0.380952380952381
 40
0.380952380952381
 40
0.380952380952381
 40
0.428571428571429
 40
0.428571428571429
 40
0.428571428571429
 40
0.428571428571429
 40
0.476190476190476
 40
0.476190476190476
 40
0.476190476190476
 40
0.476190476190476
 40
0.523809523809524
 40
0.523809523809524
 40
0.523809523809524
 40
0.523809523809524
 40
0.571428571428572
 40
0.571428571428572
 40
0.571428571428572
 40
0.571428571428572
 40
0.619047619047619
 40
0.619047619047619
 40
0.619047619047619
 40
0.619047619047619
 40
0.666666666666667
 40
0.666666666666667
 40
0.666666666666667
 40
0.666666666666667
 40
0.714285714285715
 40
0.714285714285715
 40
0.714285714285715
 40
0.714285714285715
 40
0.761904761904762
 40
0.761904761904762
 40
0.761904761904762
 40
0.761904761904762
 40
0.80952380952381
 40
0.80952380952381
 40
0.80952380952381
 40
0.80952380952381
 40
0.857142857142858
 40
0.857142857142858
 40
0.857142857142858
 40
0.857142857142858
 40
0.904761904761905
 40
0.904761904761905
 40
0.904761904761905
 40
0.904761904761905
 40
0.952380952380953
 40
0.952380952380953
 40
0.952380952380953
 40
0.952380952380953
 40
1
 40
1
 40
1
 40
1
 10
-54.5724
 20
5.9534
 30
0
 10
-54.5796
 20
5.9606
 30
0
 10
-54.5945
 20
5.9576
 30
0
 10
-54.6051
 20
5.9476
 30
0
 10
-54.6051
 20
5.9476
 30
0
 10
-54.6051
 20
5.9476
 30
0
 10
-54.6052
 20
5.9472
 30
0
 10
-54.6052
 20
5.9472
 30
0
 10
-54.6052
 20
5.9472
 30
0
 10
-55.4196
 20
6.7389
 30
0
 10
-55.4302
 20
6.7496
 30
0
 10
-56.1492
 20
7.4957
 30
0
 10
-56.1492
 20
7.4957
 30
0
 10
-56.1492
 20
7.4957
 30
0
 10
-56.149
 20
7.4958
 30
0
 10
-56.149
 20
7.4958
 30
0
 10
-56.149
 20
7.4958
 30
0
 10
-56.1384
 20
7.5065
 30
0
 10
-56.1352
 20
7.5213
 30
0
 10
-56.1425
 20
7.5285
 30
0
 10
-56.1425
 20
7.5285
 30
0
 10
-56.15
 20
7.5361
 30
0
 10
-56.1649
 20
7.5329
 30
0
 10
-56.1755
 20
7.5227
 30
0
 10
-56.1755
 20
7.5227
 30
0
 10
-56.186
 20
7.5116
 30
0
 10
-56.1887
 20
7.4975
 30
0
 10
-56.1811
 20
7.4899
 30
0
 10
-56.1811
 20
7.4899
 30
0
 10
-56.8827
 20
6.781
 30
0
 10
-56.8981
 20
6.7658
 30
0
 10
-57.6943
 20
5.9793
 30
0
 10
-57.6943
 20
5.9793
 30
0
 10
-57.6943
 20
5.9793
 30
0
 10
-57.695
 20
5.9816
 30
0
 10
-57.695
 20
5.9816
 30
0
 10
-57.695
 20
5.9816
 30
0
 10
-57.7021
 20
5.9896
 30
0
 10
-57.7173
 20
5.9865
 30
0
 10
-57.7278
 20
5.9761
 30
0
 10
-57.7278
 20
5.9761
 30
0
 10
-57.7384
 20
5.9656
 30
0
 10
-57.7411
 20
5.9511
 30
0
 10
-57.7335
 20
5.9435
 30
0
 10
-57.7335
 20
5.9435
 30
0
 10
-57.7263
 20
5.9363
 30
0
 10
-57.712
 20
5.9386
 30
0
 10
-57.701
 20
5.9497
 30
0
 10
-57.701
 20
5.9497
 30
0
 10
-57.701
 20
5.9497
 30
0
 10
-57.7009
 20
5.9497
 30
0
 10
-57.7009
 20
5.9497
 30
0
 10
-57.7009
 20
5.9497
 30
0
 10
-56.9568
 20
5.229
 30
0
 10
-56.947
 20
5.2193
 30
0
 10
-56.1536
 20
4.3973
 30
0
 10
-56.1536
 20
4.3973
 30
0
 10
-56.1536
 20
4.3973
 30
0
 10
-56.1539
 20
4.3977
 30
0
 10
-56.1539
 20
4.3977
 30
0
 10
-56.1539
 20
4.3977
 30
0
 10
-56.1642
 20
4.3869
 30
0
 10
-56.167
 20
4.3721
 30
0
 10
-56.1599
 20
4.3652
 30
0
 10
-56.1599
 20
4.3652
 30
0
 10
-56.1527
 20
4.3573
 30
0
 10
-56.1381
 20
4.3604
 30
0
 10
-56.1275
 20
4.3708
 30
0
 10
-56.1275
 20
4.3708
 30
0
 10
-56.1172
 20
4.3818
 30
0
 10
-56.1141
 20
4.3959
 30
0
 10
-56.1213
 20
4.4038
 30
0
 10
-56.1213
 20
4.4038
 30
0
 10
-55.3346
 20
5.198
 30
0
 10
-55.3193
 20
5.2131
 30
0
 10
-54.6086
 20
5.9142
 30
0
 10
-54.6086
 20
5.9142
 30
0
 10
-54.6008
 20
5.9086
 30
0
 10
-54.5883
 20
5.9111
 30
0
 10
-54.5784
 20
5.9211
 30
0
 10
-54.5784
 20
5.9211
 30
0
 10
-54.568
 20
5.9314
 30
0
 10
-54.5654
 20
5.9458
 30
0
 10
-54.5724
 20
5.9534
 30
0
  0
SPLINE
  5
38
100
AcDbEntity
  8
EBENE_1
100
AcDbSpline
370
-1
 62
250
  6
BYLAYER
 70
11
 71
3
 72
20
 73
16
 40
0
 40
0
 40
0
 40
0
 40
0.25
 40
0.25
 40
0.25
 40
0.25
 40
0.5
 40
0.5
 40
0.5
 40
0.5
 40
0.75
 40
0.75
 40
0.75
 40
0.75
 40
1
 40
1
 40
1
 40
1
 10
-103.6996
 20
2.2417
 30
0
 10
-103.6996
 20
-26.063
 30
0
 10
-80.7542
 20
-49.0084
 30
0
 10
-52.4496
 20
-49.0084
 30
0
 10
-52.4496
 20
-49.0084
 30
0
 10
-24.145
 20
-49.0084
 30
0
 10
-1.1997
 20
-26.063
 30
0
 10
-1.1997
 20
2.2416
 30
0
 10
-1.1997
 20
2.2416
 30
0
 10
-1.1997
 20
30.5458
 30
0
 10
-24.145
 20
53.4914
 30
0
 10
-52.4496
 20
53.4914
 30
0
 10
-52.4496
 20
53.4914
 30
0
 10
-80.7542
 20
53.4915
 30
0
 10
-103.6996
 20
30.5457
 30
0
 10
-103.6996
 20
2.2417
 30
0
  0
SPLINE
  5
39
100
AcDbEntity
  8
EBENE_1
100
AcDbSpline
370
-1
 62
250
  6
BYLAYER
 70
8
 71
3
 72
48
 73
44
 40
0
 40
0
 40
0
 40
0
 40
0.0909090909090909
 40
0.0909090909090909
 40
0.0909090909090909
 40
0.0909090909090909
 40
0.181818181818182
 40
0.181818181818182
 40
0.181818181818182
 40
0.181818181818182
 40
0.272727272727273
 40
0.272727272727273
 40
0.272727272727273
 40
0.272727272727273
 40
0.363636363636364
 40
0.363636363636364
 40
0.363636363636364
 40
0.363636363636364
 40
0.454545454545454
 40
0.454545454545454
 40
0.454545454545454
 40
0.454545454545454
 40
0.545454545454545
 40
0.545454545454545
 40
0.545454545454545
 40
0.545454545454545
 40
0.636363636363636
 40
0.636363636363636
 40
0.636363636363636
 40
0.636363636363636
 40
0.727272727272727
 40
0.727272727272727
 40
0.727272727272727
 40
0.727272727272727
 40
0.818181818181818
 40
0.818181818181818
 40
0.818181818181818
 40
0.818181818181818
 40
0.909090909090909
 40
0.909090909090909
 40
0.909090909090909
 40
0.909090909090909
 40
1
 40
1
 40
1
 40
1
 10
-7.4552
 20
1.1881
 30
0
 10
-5.8505
 20
1.1881
 30
0
 10
-6.5372
 20
1.1921
 30
0
 10
-5.0165
 20
1.1537
 30
0
 10
-5.0165
 20
1.1537
 30
0
 10
-5.0165
 20
1.1537
 30
0
 10
-5.0176
 20
1.1491
 30
0
 10
-5.0176
 20
1.1491
 30
0
 10
-5.0176
 20
1.1491
 30
0
 10
-5.0176
 20
1.1039
 30
0
 10
-4.9837
 20
1.0669
 30
0
 10
-4.9425
 20
1.0665
 30
0
 10
-4.9425
 20
1.0665
 30
0
 10
-4.901
 20
1.0665
 30
0
 10
-4.8673
 20
1.1037
 30
0
 10
-4.8673
 20
1.1487
 30
0
 10
-4.8673
 20
1.1487
 30
0
 10
-4.8673
 20
1.195
 30
0
 10
-4.901
 20
1.2314
 30
0
 10
-4.9425
 20
1.2314
 30
0
 10
-4.9425
 20
1.2314
 30
0
 10
-4.9425
 20
1.2314
 30
0
 10
-4.9518
 20
1.2293
 30
0
 10
-4.9518
 20
1.2293
 30
0
 10
-4.9518
 20
1.2293
 30
0
 10
-4.9518
 20
1.2293
 30
0
 10
-4.949
 20
3.2513
 30
0
 10
-4.949
 20
3.2513
 30
0
 10
-4.949
 20
3.2513
 30
0
 10
-4.9077
 20
3.2513
 30
0
 10
-4.8735
 20
3.2871
 30
0
 10
-4.8735
 20
3.3333
 30
0
 10
-4.8735
 20
3.3333
 30
0
 10
-4.8735
 20
3.379
 30
0
 10
-4.907
 20
3.4159
 30
0
 10
-4.9483
 20
3.4162
 30
0
 10
-4.9483
 20
3.4162
 30
0
 10
-4.9883
 20
3.4159
 30
0
 10
-5.0224
 20
3.3818
 30
0
 10
-5.0224
 20
3.3384
 30
0
 10
-5.0224
 20
3.3384
 30
0
 10
-5.669
 20
3.3201
 30
0
 10
-7.1177
 20
3.3478
 30
0
 10
-7.4564
 20
3.3439
 30
0
  0
SPLINE
  5
3A
100
AcDbEntity
  8
EBENE_1
100
AcDbSpline
370
-1
 62
250
  6
BYLAYER
 70
24
 71
3
 72
8
 73
4
 40
0
 40
0
 40
0
 40
0
 40
1
 40
1
 40
1
 40
1
 10
-51.3961
 20
47.2282
 30
0
 10
-51.3961
 20
47.2282
 30
0
 10
-51.3961
 20
47.2279
 30
0
 10
-51.3961
 20
47.2279
 30
0
  0
SPLINE
  5
3B
100
AcDbEntity
  8
EBENE_1
100
AcDbSpline
370
-1
 62
250
  6
BYLAYER
 70
8
 71
3
 72
48
 73
44
 40
0
 40
0
 40
0
 40
0
 40
0.0909090909090909
 40
0.0909090909090909
 40
0.0909090909090909
 40
0.0909090909090909
 40
0.181818181818182
 40
0.181818181818182
 40
0.181818181818182
 40
0.181818181818182
 40
0.272727272727273
 40
0.272727272727273
 40
0.272727272727273
 40
0.272727272727273
 40
0.363636363636364
 40
0.363636363636364
 40
0.363636363636364
 40
0.363636363636364
 40
0.454545454545454
 40
0.454545454545454
 40
0.454545454545454
 40
0.454545454545454
 40
0.545454545454545
 40
0.545454545454545
 40
0.545454545454545
 40
0.545454545454545
 40
0.636363636363636
 40
0.636363636363636
 40
0.636363636363636
 40
0.636363636363636
 40
0.727272727272727
 40
0.727272727272727
 40
0.727272727272727
 40
0.727272727272727
 40
0.818181818181818
 40
0.818181818181818
 40
0.818181818181818
 40
0.818181818181818
 40
0.909090909090909
 40
0.909090909090909
 40
0.909090909090909
 40
0.909090909090909
 40
1
 40
1
 40
1
 40
1
 10
-51.3961
 20
47.2282
 30
0
 10
-51.3961
 20
48.8324
 30
0
 10
-51.4003
 20
48.1458
 30
0
 10
-51.3617
 20
49.6666
 30
0
 10
-51.3617
 20
49.6666
 30
0
 10
-51.3617
 20
49.6666
 30
0
 10
-51.3573
 20
49.6656
 30
0
 10
-51.3573
 20
49.6656
 30
0
 10
-51.3573
 20
49.6656
 30
0
 10
-51.3121
 20
49.6656
 30
0
 10
-51.2745
 20
49.6992
 30
0
 10
-51.2745
 20
49.7407
 30
0
 10
-51.2745
 20
49.7407
 30
0
 10
-51.2745
 20
49.7818
 30
0
 10
-51.3118
 20
49.8155
 30
0
 10
-51.3569
 20
49.8158
 30
0
 10
-51.3569
 20
49.8158
 30
0
 10
-51.4029
 20
49.8162
 30
0
 10
-51.4398
 20
49.782
 30
0
 10
-51.4398
 20
49.7407
 30
0
 10
-51.4398
 20
49.7407
 30
0
 10
-51.4398
 20
49.7407
 30
0
 10
-51.4375
 20
49.7313
 30
0
 10
-51.4375
 20
49.7313
 30
0
 10
-51.4375
 20
49.7313
 30
0
 10
-51.4375
 20
49.7313
 30
0
 10
-53.4594
 20
49.7342
 30
0
 10
-53.4594
 20
49.7342
 30
0
 10
-53.4594
 20
49.7342
 30
0
 10
-53.4594
 20
49.7755
 30
0
 10
-53.4956
 20
49.8093
 30
0
 10
-53.5413
 20
49.8095
 30
0
 10
-53.5413
 20
49.8095
 30
0
 10
-53.5871
 20
49.8097
 30
0
 10
-53.6247
 20
49.7761
 30
0
 10
-53.6247
 20
49.7347
 30
0
 10
-53.6247
 20
49.7347
 30
0
 10
-53.6247
 20
49.6949
 30
0
 10
-53.5899
 20
49.6629
 30
0
 10
-53.5466
 20
49.6608
 30
0
 10
-53.5466
 20
49.6608
 30
0
 10
-53.5286
 20
49.0145
 30
0
 10
-53.5557
 20
47.5669
 30
0
 10
-53.552
 20
47.2273
 30
0
  0
SPLINE
  5
3C
100
AcDbEntity
  8
EBENE_1
100
AcDbSpline
370
-1
 62
250
  6
BYLAYER
 70
24
 71
3
 72
8
 73
4
 40
0
 40
0
 40
0
 40
0
 40
1
 40
1
 40
1
 40
1
 10
-53.552
 20
47.2274
 30
0
 10
-53.552
 20
47.2274
 30
0
 10
-53.552
 20
47.2268
 30
0
 10
-53.552
 20
47.2268
 30
0
  0
SPLINE
  5
3D
100
AcDbEntity
  8
EBENE_1
100
AcDbSpline
370
-1
 62
250
  6
BYLAYER
 70
8
 71
3
 72
8
 73
4
 40
0
 40
0
 40
0
 40
0
 40
1
 40
1
 40
1
 40
1
 10
-19.8958
 20
-28.827
 30
0
 10
-12.4107
 20
-20.9867
 30
0
 10
-7.7298
 20
-10.4461
 30
0
 10
-7.4618
 20
1.1849
 30
0
  0
SPLINE
  5
3E
100
AcDbEntity
  8
EBENE_1
100
AcDbSpline
370
-1
 62
250
  6
BYLAYER
 70
8
 71
3
 72
8
 73
4
 40
0
 40
0
 40
0
 40
0
 40
1
 40
1
 40
1
 40
1
 10
-19.9312
 20
33.2749
 30
0
 10
-12.461
 20
25.4386
 30
0
 10
-7.771
 20
14.9208
 30
0
 10
-7.4564
 20
3.3439
 30
0
  0
SPLINE
  5
3F
100
AcDbEntity
  8
EBENE_1
100
AcDbSpline
370
-1
 62
250
  6
BYLAYER
 70
8
 71
3
 72
8
 73
4
 40
0
 40
0
 40
0
 40
0
 40
1
 40
1
 40
1
 40
1
 10
-21.4554
 20
34.7997
 30
0
 10
-20.9356
 20
34.3037
 30
0
 10
-20.4275
 20
33.795
 30
0
 10
-19.9313
 20
33.2748
 30
0
  0
SPLINE
  5
40
100
AcDbEntity
  8
EBENE_1
100
AcDbSpline
370
-1
 62
250
  6
BYLAYER
 70
8
 71
3
 72
8
 73
4
 40
0
 40
0
 40
0
 40
0
 40
1
 40
1
 40
1
 40
1
 10
-51.3961
 20
47.2282
 30
0
 10
-39.803
 20
46.9599
 30
0
 10
-29.291
 20
42.2754
 30
0
 10
-21.4555
 20
34.7997
 30
0
  0
SPLINE
  5
41
100
AcDbEntity
  8
EBENE_1
100
AcDbSpline
370
-1
 62
250
  6
BYLAYER
 70
8
 71
3
 72
60
 73
56
 40
0
 40
0
 40
0
 40
0
 40
0.0714285714285714
 40
0.0714285714285714
 40
0.0714285714285714
 40
0.0714285714285714
 40
0.142857142857143
 40
0.142857142857143
 40
0.142857142857143
 40
0.142857142857143
 40
0.214285714285714
 40
0.214285714285714
 40
0.214285714285714
 40
0.214285714285714
 40
0.285714285714286
 40
0.285714285714286
 40
0.285714285714286
 40
0.285714285714286
 40
0.357142857142857
 40
0.357142857142857
 40
0.357142857142857
 40
0.357142857142857
 40
0.428571428571429
 40
0.428571428571429
 40
0.428571428571429
 40
0.428571428571429
 40
0.5
 40
0.5
 40
0.5
 40
0.5
 40
0.571428571428571
 40
0.571428571428571
 40
0.571428571428571
 40
0.571428571428571
 40
0.642857142857143
 40
0.642857142857143
 40
0.642857142857143
 40
0.642857142857143
 40
0.714285714285714
 40
0.714285714285714
 40
0.714285714285714
 40
0.714285714285714
 40
0.785714285714286
 40
0.785714285714286
 40
0.785714285714286
 40
0.785714285714286
 40
0.857142857142857
 40
0.857142857142857
 40
0.857142857142857
 40
0.857142857142857
 40
0.928571428571428
 40
0.928571428571428
 40
0.928571428571428
 40
0.928571428571428
 40
1
 40
1
 40
1
 40
1
 10
-21.4218
 20
-30.3501
 30
0
 10
-29.2585
 20
-37.8135
 30
0
 10
-39.7837
 20
-42.4795
 30
0
 10
-51.3961
 20
-42.7462
 30
0
 10
-51.3961
 20
-42.7462
 30
0
 10
-51.3961
 20
-42.7462
 30
0
 10
-51.3961
 20
-42.7531
 30
0
 10
-51.3961
 20
-42.7531
 30
0
 10
-51.3961
 20
-42.7531
 30
0
 10
-51.3961
 20
-44.3575
 30
0
 10
-51.4003
 20
-43.6709
 30
0
 10
-51.3617
 20
-45.1915
 30
0
 10
-51.3617
 20
-45.1915
 30
0
 10
-51.3617
 20
-45.1915
 30
0
 10
-51.3573
 20
-45.1908
 30
0
 10
-51.3573
 20
-45.1908
 30
0
 10
-51.3573
 20
-45.1908
 30
0
 10
-51.3121
 20
-45.1906
 30
0
 10
-51.2745
 20
-45.2247
 30
0
 10
-51.2745
 20
-45.2656
 30
0
 10
-51.2745
 20
-45.2656
 30
0
 10
-51.2745
 20
-45.307
 30
0
 10
-51.3118
 20
-45.3404
 30
0
 10
-51.3569
 20
-45.3411
 30
0
 10
-51.3569
 20
-45.3411
 30
0
 10
-51.4029
 20
-45.3411
 30
0
 10
-51.4398
 20
-45.3074
 30
0
 10
-51.4398
 20
-45.2659
 30
0
 10
-51.4398
 20
-45.2659
 30
0
 10
-51.4398
 20
-45.2659
 30
0
 10
-51.4375
 20
-45.2568
 30
0
 10
-51.4375
 20
-45.2568
 30
0
 10
-51.4375
 20
-45.2568
 30
0
 10
-51.4375
 20
-45.2568
 30
0
 10
-53.4594
 20
-45.2594
 30
0
 10
-53.4594
 20
-45.2594
 30
0
 10
-53.4594
 20
-45.2594
 30
0
 10
-53.4594
 20
-45.3005
 30
0
 10
-53.4956
 20
-45.3346
 30
0
 10
-53.5413
 20
-45.3346
 30
0
 10
-53.5413
 20
-45.3346
 30
0
 10
-53.5871
 20
-45.3349
 30
0
 10
-53.6247
 20
-45.3014
 30
0
 10
-53.6247
 20
-45.2598
 30
0
 10
-53.6247
 20
-45.2598
 30
0
 10
-53.6247
 20
-45.2199
 30
0
 10
-53.5899
 20
-45.1882
 30
0
 10
-53.5466
 20
-45.1857
 30
0
 10
-53.5466
 20
-45.1857
 30
0
 10
-53.5286
 20
-44.5394
 30
0
 10
-53.5557
 20
-43.0904
 30
0
 10
-53.552
 20
-42.752
 30
0
 10
-53.552
 20
-42.752
 30
0
 10
-65.1295
 20
-42.4379
 30
0
 10
-75.6454
 20
-37.7463
 30
0
 10
-83.4817
 20
-30.2761
 30
0
  0
SPLINE
  5
42
100
AcDbEntity
  8
EBENE_1
100
AcDbSpline
370
-1
 62
250
  6
BYLAYER
 70
8
 71
3
 72
8
 73
4
 40
0
 40
0
 40
0
 40
0
 40
1
 40
1
 40
1
 40
1
 10
-83.5178
 20
34.7951
 30
0
 10
-75.6876
 20
42.2699
 30
0
 10
-65.1648
 20
46.9481
 30
0
 10
-53.552
 20
47.2273
 30
0
  0
SPLINE
  5
43
100
AcDbEntity
  8
EBENE_1
100
AcDbSpline
370
-1
 62
250
  6
BYLAYER
 70
24
 71
3
 72
8
 73
4
 40
0
 40
0
 40
0
 40
0
 40
1
 40
1
 40
1
 40
1
 10
-21.4583
 20
34.7969
 30
0
 10
-21.4583
 20
34.7969
 30
0
 10
-21.4555
 20
34.7997
 30
0
 10
-21.4555
 20
34.7997
 30
0
  0
SPLINE
  5
44
100
AcDbEntity
  8
EBENE_1
100
AcDbSpline
370
-1
 62
250
  6
BYLAYER
 70
24
 71
3
 72
8
 73
4
 40
0
 40
0
 40
0
 40
0
 40
1
 40
1
 40
1
 40
1
 10
-19.9312
 20
33.2749
 30
0
 10
-19.9312
 20
33.2749
 30
0
 10
-19.9331
 20
33.273
 30
0
 10
-19.9331
 20
33.273
 30
0
  0
SPLINE
  5
45
100
AcDbEntity
  8
EBENE_1
100
AcDbSpline
370
-1
 62
250
  6
BYLAYER
 70
8
 71
3
 72
48
 73
44
 40
0
 40
0
 40
0
 40
0
 40
0.0909090909090909
 40
0.0909090909090909
 40
0.0909090909090909
 40
0.0909090909090909
 40
0.181818181818182
 40
0.181818181818182
 40
0.181818181818182
 40
0.181818181818182
 40
0.272727272727273
 40
0.272727272727273
 40
0.272727272727273
 40
0.272727272727273
 40
0.363636363636364
 40
0.363636363636364
 40
0.363636363636364
 40
0.363636363636364
 40
0.454545454545454
 40
0.454545454545454
 40
0.454545454545454
 40
0.454545454545454
 40
0.545454545454545
 40
0.545454545454545
 40
0.545454545454545
 40
0.545454545454545
 40
0.636363636363636
 40
0.636363636363636
 40
0.636363636363636
 40
0.636363636363636
 40
0.727272727272727
 40
0.727272727272727
 40
0.727272727272727
 40
0.727272727272727
 40
0.818181818181818
 40
0.818181818181818
 40
0.818181818181818
 40
0.818181818181818
 40
0.909090909090909
 40
0.909090909090909
 40
0.909090909090909
 40
0.909090909090909
 40
1
 40
1
 40
1
 40
1
 10
-19.9312
 20
33.2749
 30
0
 10
-18.7992
 20
34.4071
 30
0
 10
-19.2862
 20
33.9257
 30
0
 10
-18.1843
 20
34.9731
 30
0
 10
-18.1843
 20
34.9731
 30
0
 10
-18.1843
 20
34.9731
 30
0
 10
-18.1819
 20
34.9695
 30
0
 10
-18.1819
 20
34.9695
 30
0
 10
-18.1819
 20
34.9695
 30
0
 10
-18.1499
 20
34.9373
 30
0
 10
-18.0997
 20
34.935
 30
0
 10
-18.0704
 20
34.9639
 30
0
 10
-18.0704
 20
34.9639
 30
0
 10
-18.0411
 20
34.993
 30
0
 10
-18.0438
 20
35.0431
 30
0
 10
-18.0755
 20
35.0754
 30
0
 10
-18.0755
 20
35.0754
 30
0
 10
-18.108
 20
35.1082
 30
0
 10
-18.1579
 20
35.1101
 30
0
 10
-18.1872
 20
35.0808
 30
0
 10
-18.1872
 20
35.0808
 30
0
 10
-18.1872
 20
35.0808
 30
0
 10
-18.1919
 20
35.0727
 30
0
 10
-18.1919
 20
35.0727
 30
0
 10
-18.1919
 20
35.0727
 30
0
 10
-18.1919
 20
35.0727
 30
0
 10
-19.6196
 20
36.5043
 30
0
 10
-19.6196
 20
36.5043
 30
0
 10
-19.6196
 20
36.5043
 30
0
 10
-19.5906
 20
36.5334
 30
0
 10
-19.5921
 20
36.5828
 30
0
 10
-19.6244
 20
36.6156
 30
0
 10
-19.6244
 20
36.6156
 30
0
 10
-19.6568
 20
36.6481
 30
0
 10
-19.7064
 20
36.6505
 30
0
 10
-19.7364
 20
36.6214
 30
0
 10
-19.7364
 20
36.6214
 30
0
 10
-19.7642
 20
36.593
 30
0
 10
-19.7625
 20
36.5463
 30
0
 10
-19.7332
 20
36.514
 30
0
 10
-19.7332
 20
36.514
 30
0
 10
-20.1763
 20
36.0456
 30
0
 10
-21.2142
 20
35.0459
 30
0
 10
-21.4555
 20
34.7997
 30
0
  0
SPLINE
  5
46
100
AcDbEntity
  8
EBENE_1
100
AcDbSpline
370
-1
 62
250
  6
BYLAYER
 70
8
 71
3
 72
8
 73
4
 40
0
 40
0
 40
0
 40
0
 40
1
 40
1
 40
1
 40
1
 10
-83.4817
 20
-30.276
 30
0
 10
-83.4764
 20
-30.2709
 30
0
 10
-83.4727
 20
-30.2671
 30
0
 10
-83.4676
 20
-30.262
 30
0
  0
SPLINE
  5
47
100
AcDbEntity
  8
EBENE_1
100
AcDbSpline
370
-1
 62
250
  6
BYLAYER
 70
8
 71
3
 72
64
 73
60
 40
0
 40
0
 40
0
 40
0
 40
0.0666666666666667
 40
0.0666666666666667
 40
0.0666666666666667
 40
0.0666666666666667
 40
0.133333333333333
 40
0.133333333333333
 40
0.133333333333333
 40
0.133333333333333
 40
0.2
 40
0.2
 40
0.2
 40
0.2
 40
0.266666666666667
 40
0.266666666666667
 40
0.266666666666667
 40
0.266666666666667
 40
0.333333333333333
 40
0.333333333333333
 40
0.333333333333333
 40
0.333333333333333
 40
0.4
 40
0.4
 40
0.4
 40
0.4
 40
0.466666666666667
 40
0.466666666666667
 40
0.466666666666667
 40
0.466666666666667
 40
0.533333333333333
 40
0.533333333333333
 40
0.533333333333333
 40
0.533333333333333
 40
0.6
 40
0.6
 40
0.6
 40
0.6
 40
0.666666666666667
 40
0.666666666666667
 40
0.666666666666667
 40
0.666666666666667
 40
0.733333333333333
 40
0.733333333333333
 40
0.733333333333333
 40
0.733333333333333
 40
0.8
 40
0.8
 40
0.8
 40
0.8
 40
0.866666666666667
 40
0.866666666666667
 40
0.866666666666667
 40
0.866666666666667
 40
0.933333333333333
 40
0.933333333333333
 40
0.933333333333333
 40
0.933333333333333
 40
1
 40
1
 40
1
 40
1
 10
-85.0066
 20
-28.7519
 30
0
 10
-92.4916
 20
-20.9071
 30
0
 10
-97.1802
 20
-10.381
 30
0
 10
-97.4383
 20
1.229
 30
0
 10
-97.4383
 20
1.229
 30
0
 10
-97.4383
 20
1.229
 30
0
 10
-97.4404
 20
1.1881
 30
0
 10
-97.4404
 20
1.1881
 30
0
 10
-97.4404
 20
1.1881
 30
0
 10
-99.0452
 20
1.1881
 30
0
 10
-98.3585
 20
1.1921
 30
0
 10
-99.8792
 20
1.1537
 30
0
 10
-99.8792
 20
1.1537
 30
0
 10
-99.8792
 20
1.1537
 30
0
 10
-99.8783
 20
1.1491
 30
0
 10
-99.8783
 20
1.1491
 30
0
 10
-99.8783
 20
1.1491
 30
0
 10
-99.8783
 20
1.1039
 30
0
 10
-99.912
 20
1.0669
 30
0
 10
-99.9532
 20
1.0665
 30
0
 10
-99.9532
 20
1.0665
 30
0
 10
-99.9947
 20
1.0665
 30
0
 10
-100.0284
 20
1.1037
 30
0
 10
-100.0284
 20
1.1487
 30
0
 10
-100.0284
 20
1.1487
 30
0
 10
-100.0284
 20
1.195
 30
0
 10
-99.9947
 20
1.2314
 30
0
 10
-99.9532
 20
1.2314
 30
0
 10
-99.9532
 20
1.2314
 30
0
 10
-99.9532
 20
1.2314
 30
0
 10
-99.9441
 20
1.2293
 30
0
 10
-99.9441
 20
1.2293
 30
0
 10
-99.9441
 20
1.2293
 30
0
 10
-99.9441
 20
1.2293
 30
0
 10
-99.9467
 20
3.2513
 30
0
 10
-99.9467
 20
3.2513
 30
0
 10
-99.9467
 20
3.2513
 30
0
 10
-99.9882
 20
3.2513
 30
0
 10
-100.0222
 20
3.2871
 30
0
 10
-100.0222
 20
3.3333
 30
0
 10
-100.0222
 20
3.3333
 30
0
 10
-100.0222
 20
3.379
 30
0
 10
-99.9889
 20
3.4159
 30
0
 10
-99.9471
 20
3.4162
 30
0
 10
-99.9471
 20
3.4162
 30
0
 10
-99.9075
 20
3.4159
 30
0
 10
-99.8733
 20
3.3818
 30
0
 10
-99.8733
 20
3.3384
 30
0
 10
-99.8733
 20
3.3384
 30
0
 10
-99.2267
 20
3.3201
 30
0
 10
-97.778
 20
3.3478
 30
0
 10
-97.4393
 20
3.3439
 30
0
 10
-97.4393
 20
3.3439
 30
0
 10
-97.4393
 20
3.3439
 30
0
 10
-97.4369
 20
3.319
 30
0
 10
-97.4369
 20
3.319
 30
0
 10
-97.4369
 20
3.319
 30
0
 10
-97.1642
 20
14.9219
 30
0
 10
-92.4996
 20
25.4382
 30
0
 10
-85.0411
 20
33.2697
 30
0
  0
SPLINE
  5
48
100
AcDbEntity
  8
EBENE_1
100
AcDbSpline
370
-1
 62
250
  6
BYLAYER
 70
8
 71
3
 72
48
 73
44
 40
0
 40
0
 40
0
 40
0
 40
0.0909090909090909
 40
0.0909090909090909
 40
0.0909090909090909
 40
0.0909090909090909
 40
0.181818181818182
 40
0.181818181818182
 40
0.181818181818182
 40
0.181818181818182
 40
0.272727272727273
 40
0.272727272727273
 40
0.272727272727273
 40
0.272727272727273
 40
0.363636363636364
 40
0.363636363636364
 40
0.363636363636364
 40
0.363636363636364
 40
0.454545454545454
 40
0.454545454545454
 40
0.454545454545454
 40
0.454545454545454
 40
0.545454545454545
 40
0.545454545454545
 40
0.545454545454545
 40
0.545454545454545
 40
0.636363636363636
 40
0.636363636363636
 40
0.636363636363636
 40
0.636363636363636
 40
0.727272727272727
 40
0.727272727272727
 40
0.727272727272727
 40
0.727272727272727
 40
0.818181818181818
 40
0.818181818181818
 40
0.818181818181818
 40
0.818181818181818
 40
0.909090909090909
 40
0.909090909090909
 40
0.909090909090909
 40
0.909090909090909
 40
1
 40
1
 40
1
 40
1
 10
-85.0066
 20
-28.7519
 30
0
 10
-85.2704
 20
-29.0124
 30
0
 10
-86.2466
 20
-30.0252
 30
0
 10
-86.7084
 20
-30.4618
 30
0
 10
-86.7084
 20
-30.4618
 30
0
 10
-86.7406
 20
-30.4325
 30
0
 10
-86.7872
 20
-30.4307
 30
0
 10
-86.8158
 20
-30.4586
 30
0
 10
-86.8158
 20
-30.4586
 30
0
 10
-86.8447
 20
-30.4883
 30
0
 10
-86.8423
 20
-30.5382
 30
0
 10
-86.81
 20
-30.5706
 30
0
 10
-86.81
 20
-30.5706
 30
0
 10
-86.7772
 20
-30.6029
 30
0
 10
-86.7276
 20
-30.6043
 30
0
 10
-86.6987
 20
-30.5754
 30
0
 10
-86.6987
 20
-30.5754
 30
0
 10
-86.6987
 20
-30.5754
 30
0
 10
-85.2669
 20
-32.0031
 30
0
 10
-85.2669
 20
-32.0031
 30
0
 10
-85.2669
 20
-32.0031
 30
0
 10
-85.2669
 20
-32.0031
 30
0
 10
-85.2752
 20
-32.0078
 30
0
 10
-85.2752
 20
-32.0078
 30
0
 10
-85.2752
 20
-32.0078
 30
0
 10
-85.3041
 20
-32.0371
 30
0
 10
-85.3024
 20
-32.087
 30
0
 10
-85.2696
 20
-32.1195
 30
0
 10
-85.2696
 20
-32.1195
 30
0
 10
-85.2373
 20
-32.1512
 30
0
 10
-85.1874
 20
-32.1539
 30
0
 10
-85.1583
 20
-32.1246
 30
0
 10
-85.1583
 20
-32.1246
 30
0
 10
-85.1293
 20
-32.0953
 30
0
 10
-85.1315
 20
-32.0451
 30
0
 10
-85.1636
 20
-32.0131
 30
0
 10
-85.1636
 20
-32.0131
 30
0
 10
-85.1636
 20
-32.0131
 30
0
 10
-85.1673
 20
-32.0107
 30
0
 10
-85.1673
 20
-32.0107
 30
0
 10
-85.1673
 20
-32.0107
 30
0
 10
-84.1241
 20
-30.913
 30
0
 10
-84.5965
 20
-31.3908
 30
0
 10
-83.4817
 20
-30.2761
 30
0
  0
SPLINE
  5
49
100
AcDbEntity
  8
EBENE_1
100
AcDbSpline
370
-1
 62
250
  6
BYLAYER
 70
8
 71
3
 72
8
 73
4
 40
0
 40
0
 40
0
 40
0
 40
1
 40
1
 40
1
 40
1
 10
-85.0066
 20
-28.7519
 30
0
 10
-85.0018
 20
-28.7471
 30
0
 10
-84.9955
 20
-28.741
 30
0
 10
-84.9912
 20
-28.7367
 30
0
  0
SPLINE
  5
4A
100
AcDbEntity
  8
EBENE_1
100
AcDbSpline
370
-1
 62
250
  6
BYLAYER
 70
24
 71
3
 72
8
 73
4
 40
0
 40
0
 40
0
 40
0
 40
1
 40
1
 40
1
 40
1
 10
-83.5178
 20
34.7951
 30
0
 10
-83.5178
 20
34.7951
 30
0
 10
-83.5122
 20
34.7896
 30
0
 10
-83.5122
 20
34.7896
 30
0
  0
SPLINE
  5
4B
100
AcDbEntity
  8
EBENE_1
100
AcDbSpline
370
-1
 62
250
  6
BYLAYER
 70
8
 71
3
 72
48
 73
44
 40
0
 40
0
 40
0
 40
0
 40
0.0909090909090909
 40
0.0909090909090909
 40
0.0909090909090909
 40
0.0909090909090909
 40
0.181818181818182
 40
0.181818181818182
 40
0.181818181818182
 40
0.181818181818182
 40
0.272727272727273
 40
0.272727272727273
 40
0.272727272727273
 40
0.272727272727273
 40
0.363636363636364
 40
0.363636363636364
 40
0.363636363636364
 40
0.363636363636364
 40
0.454545454545454
 40
0.454545454545454
 40
0.454545454545454
 40
0.454545454545454
 40
0.545454545454545
 40
0.545454545454545
 40
0.545454545454545
 40
0.545454545454545
 40
0.636363636363636
 40
0.636363636363636
 40
0.636363636363636
 40
0.636363636363636
 40
0.727272727272727
 40
0.727272727272727
 40
0.727272727272727
 40
0.727272727272727
 40
0.818181818181818
 40
0.818181818181818
 40
0.818181818181818
 40
0.818181818181818
 40
0.909090909090909
 40
0.909090909090909
 40
0.909090909090909
 40
0.909090909090909
 40
1
 40
1
 40
1
 40
1
 10
-83.5178
 20
34.7951
 30
0
 10
-84.6446
 20
35.9219
 30
0
 10
-84.1657
 20
35.4377
 30
0
 10
-85.2124
 20
36.5385
 30
0
 10
-85.2124
 20
36.5385
 30
0
 10
-85.2124
 20
36.5385
 30
0
 10
-85.2084
 20
36.5406
 30
0
 10
-85.2084
 20
36.5406
 30
0
 10
-85.2084
 20
36.5406
 30
0
 10
-85.1762
 20
36.5728
 30
0
 10
-85.1741
 20
36.6228
 30
0
 10
-85.2031
 20
36.6523
 30
0
 10
-85.2031
 20
36.6523
 30
0
 10
-85.232
 20
36.6815
 30
0
 10
-85.2821
 20
36.6791
 30
0
 10
-85.3144
 20
36.6472
 30
0
 10
-85.3144
 20
36.6472
 30
0
 10
-85.3472
 20
36.615
 30
0
 10
-85.3491
 20
36.5648
 30
0
 10
-85.3198
 20
36.5355
 30
0
 10
-85.3198
 20
36.5355
 30
0
 10
-85.3198
 20
36.5355
 30
0
 10
-85.3117
 20
36.5306
 30
0
 10
-85.3117
 20
36.5306
 30
0
 10
-85.3117
 20
36.5306
 30
0
 10
-85.3117
 20
36.5306
 30
0
 10
-86.7434
 20
35.1029
 30
0
 10
-86.7434
 20
35.1029
 30
0
 10
-86.7434
 20
35.1029
 30
0
 10
-86.7727
 20
35.1321
 30
0
 10
-86.822
 20
35.1306
 30
0
 10
-86.8548
 20
35.0981
 30
0
 10
-86.8548
 20
35.0981
 30
0
 10
-86.887
 20
35.0661
 30
0
 10
-86.8895
 20
35.0159
 30
0
 10
-86.8606
 20
34.9865
 30
0
 10
-86.8606
 20
34.9865
 30
0
 10
-86.832
 20
34.9586
 30
0
 10
-86.7855
 20
34.96
 30
0
 10
-86.753
 20
34.9893
 30
0
 10
-86.753
 20
34.9893
 30
0
 10
-86.2859
 20
34.5477
 30
0
 10
-85.2909
 20
33.5147
 30
0
 10
-85.0411
 20
33.2697
 30
0
  0
SPLINE
  5
4C
100
AcDbEntity
  8
EBENE_1
100
AcDbSpline
370
-1
 62
250
  6
BYLAYER
 70
24
 71
3
 72
8
 73
4
 40
0
 40
0
 40
0
 40
0
 40
1
 40
1
 40
1
 40
1
 10
-85.036
 20
33.2645
 30
0
 10
-85.036
 20
33.2645
 30
0
 10
-85.0411
 20
33.2697
 30
0
 10
-85.0411
 20
33.2697
 30
0
  0
SPLINE
  5
4D
100
AcDbEntity
  8
EBENE_1
100
AcDbSpline
370
-1
 62
250
  6
BYLAYER
 70
24
 71
3
 72
8
 73
4
 40
0
 40
0
 40
0
 40
0
 40
1
 40
1
 40
1
 40
1
 10
-19.9007
 20
-28.8222
 30
0
 10
-19.9007
 20
-28.8222
 30
0
 10
-19.8958
 20
-28.827
 30
0
 10
-19.8958
 20
-28.827
 30
0
  0
SPLINE
  5
4E
100
AcDbEntity
  8
EBENE_1
100
AcDbSpline
370
-1
 62
250
  6
BYLAYER
 70
8
 71
3
 72
48
 73
44
 40
0
 40
0
 40
0
 40
0
 40
0.0909090909090909
 40
0.0909090909090909
 40
0.0909090909090909
 40
0.0909090909090909
 40
0.181818181818182
 40
0.181818181818182
 40
0.181818181818182
 40
0.181818181818182
 40
0.272727272727273
 40
0.272727272727273
 40
0.272727272727273
 40
0.272727272727273
 40
0.363636363636364
 40
0.363636363636364
 40
0.363636363636364
 40
0.363636363636364
 40
0.454545454545454
 40
0.454545454545454
 40
0.454545454545454
 40
0.454545454545454
 40
0.545454545454545
 40
0.545454545454545
 40
0.545454545454545
 40
0.545454545454545
 40
0.636363636363636
 40
0.636363636363636
 40
0.636363636363636
 40
0.636363636363636
 40
0.727272727272727
 40
0.727272727272727
 40
0.727272727272727
 40
0.727272727272727
 40
0.818181818181818
 40
0.818181818181818
 40
0.818181818181818
 40
0.818181818181818
 40
0.909090909090909
 40
0.909090909090909
 40
0.909090909090909
 40
0.909090909090909
 40
1
 40
1
 40
1
 40
1
 10
-19.8958
 20
-28.827
 30
0
 10
-18.7682
 20
-29.955
 30
0
 10
-19.2527
 20
-29.4758
 30
0
 10
-18.1521
 20
-30.5219
 30
0
 10
-18.1521
 20
-30.5219
 30
0
 10
-18.1521
 20
-30.5219
 30
0
 10
-18.1496
 20
-30.5182
 30
0
 10
-18.1496
 20
-30.5182
 30
0
 10
-18.1496
 20
-30.5182
 30
0
 10
-18.1174
 20
-30.4861
 30
0
 10
-18.0672
 20
-30.4842
 30
0
 10
-18.0379
 20
-30.5128
 30
0
 10
-18.0379
 20
-30.5128
 30
0
 10
-18.0086
 20
-30.542
 30
0
 10
-18.0115
 20
-30.592
 30
0
 10
-18.043
 20
-30.6243
 30
0
 10
-18.043
 20
-30.6243
 30
0
 10
-18.0754
 20
-30.657
 30
0
 10
-18.1254
 20
-30.6592
 30
0
 10
-18.1547
 20
-30.6299
 30
0
 10
-18.1547
 20
-30.6299
 30
0
 10
-18.1547
 20
-30.6299
 30
0
 10
-18.1596
 20
-30.6216
 30
0
 10
-18.1596
 20
-30.6216
 30
0
 10
-18.1596
 20
-30.6216
 30
0
 10
-18.1596
 20
-30.6216
 30
0
 10
-19.5871
 20
-32.0533
 30
0
 10
-19.5871
 20
-32.0533
 30
0
 10
-19.5871
 20
-32.0533
 30
0
 10
-19.5581
 20
-32.0823
 30
0
 10
-19.5596
 20
-32.1319
 30
0
 10
-19.5921
 20
-32.1647
 30
0
 10
-19.5921
 20
-32.1647
 30
0
 10
-19.6243
 20
-32.1969
 30
0
 10
-19.6743
 20
-32.1994
 30
0
 10
-19.7039
 20
-32.1701
 30
0
 10
-19.7039
 20
-32.1701
 30
0
 10
-19.732
 20
-32.1419
 30
0
 10
-19.7302
 20
-32.0953
 30
0
 10
-19.7009
 20
-32.0627
 30
0
 10
-19.7009
 20
-32.0627
 30
0
 10
-20.1432
 20
-31.5954
 30
0
 10
-21.178
 20
-30.5985
 30
0
 10
-21.4218
 20
-30.3501
 30
0
  0
SPLINE
  5
4F
100
AcDbEntity
  8
EBENE_1
100
AcDbSpline
370
-1
 62
250
  6
BYLAYER
 70
24
 71
3
 72
8
 73
4
 40
0
 40
0
 40
0
 40
0
 40
1
 40
1
 40
1
 40
1
 10
-21.4258
 20
-30.3459
 30
0
 10
-21.4258
 20
-30.3459
 30
0
 10
-21.4218
 20
-30.3501
 30
0
 10
-21.4218
 20
-30.3501
 30
0
  0
SPLINE
  5
50
100
AcDbEntity
  8
EBENE_1
100
AcDbSpline
370
-1
 62
250
  6
BYLAYER
 70
8
 71
3
 72
8
 73
4
 40
0
 40
0
 40
0
 40
0
 40
1
 40
1
 40
1
 40
1
 10
-91.437
 20
42.785
 30
0
 10
-81.574
 20
52.2719
 30
0
 10
-68.2584
 20
58.1925
 30
0
 10
-53.5607
 20
58.4776
 30
0
  0
SPLINE
  5
51
100
AcDbEntity
  8
EBENE_1
100
AcDbSpline
370
-1
 62
250
  6
BYLAYER
 70
8
 71
3
 72
8
 73
4
 40
0
 40
0
 40
0
 40
0
 40
1
 40
1
 40
1
 40
1
 10
-51.3495
 20
58.4778
 30
0
 10
-36.651
 20
58.1956
 30
0
 10
-23.3344
 20
52.2775
 30
0
 10
-13.4696
 20
42.7927
 30
0
  0
SPLINE
  5
52
100
AcDbEntity
  8
EBENE_1
100
AcDbSpline
370
-1
 62
250
  6
BYLAYER
 70
8
 71
3
 72
8
 73
4
 40
0
 40
0
 40
0
 40
0
 40
1
 40
1
 40
1
 40
1
 10
-11.8984
 20
-36.7384
 30
0
 10
-2.4135
 20
-26.8737
 30
0
 10
3.5046
 20
-13.5567
 30
0
 10
3.7867
 20
1.1411
 30
0
  0
SPLINE
  5
53
100
AcDbEntity
  8
EBENE_1
100
AcDbSpline
370
-1
 62
250
  6
BYLAYER
 70
8
 71
3
 72
8
 73
4
 40
0
 40
0
 40
0
 40
0
 40
1
 40
1
 40
1
 40
1
 10
3.7865
 20
3.3527
 30
0
 10
3.5017
 20
18.0504
 30
0
 10
-2.4189
 20
31.3661
 30
0
 10
-11.9059
 20
41.2292
 30
0
  0
SPLINE
  5
54
100
AcDbEntity
  8
EBENE_1
100
AcDbSpline
370
-1
 62
250
  6
BYLAYER
 70
8
 71
3
 72
8
 73
4
 40
0
 40
0
 40
0
 40
0
 40
1
 40
1
 40
1
 40
1
 10
-13.462
 20
-38.3021
 30
0
 10
-23.325
 20
-47.7888
 30
0
 10
-36.6408
 20
-53.7092
 30
0
 10
-51.3384
 20
-53.9942
 30
0
  0
SPLINE
  5
55
100
AcDbEntity
  8
EBENE_1
100
AcDbSpline
370
-1
 62
250
  6
BYLAYER
 70
8
 71
3
 72
8
 73
4
 40
0
 40
0
 40
0
 40
0
 40
1
 40
1
 40
1
 40
1
 10
-93.0007
 20
41.2213
 30
0
 10
-102.4855
 20
31.3566
 30
0
 10
-108.4035
 20
18.0397
 30
0
 10
-108.6855
 20
3.3416
 30
0
  0
SPLINE
  5
56
100
AcDbEntity
  8
EBENE_1
100
AcDbSpline
370
-1
 62
250
  6
BYLAYER
 70
8
 71
3
 72
8
 73
4
 40
0
 40
0
 40
0
 40
0
 40
1
 40
1
 40
1
 40
1
 10
-92.9927
 20
-36.746
 30
0
 10
-102.4796
 20
-26.883
 30
0
 10
-108.4003
 20
-13.5673
 30
0
 10
-108.6854
 20
1.1302
 30
0
  0
SPLINE
  5
57
100
AcDbEntity
  8
EBENE_1
100
AcDbSpline
370
-1
 62
250
  6
BYLAYER
 70
8
 71
3
 72
8
 73
4
 40
0
 40
0
 40
0
 40
0
 40
1
 40
1
 40
1
 40
1
 10
-53.5495
 20
-53.9945
 30
0
 10
-68.2475
 20
-53.7123
 30
0
 10
-81.5642
 20
-47.7943
 30
0
 10
-91.4289
 20
-38.3097
 30
0
  0
SPLINE
  5
58
100
AcDbEntity
  8
EBENE_1
100
AcDbSpline
370
-1
 62
250
  6
BYLAYER
 70
8
 71
3
 72
8
 73
4
 40
0
 40
0
 40
0
 40
0
 40
1
 40
1
 40
1
 40
1
 10
-51.3433
 20
67.2313
 30
0
 10
-34.227
 20
66.9454
 30
0
 10
-18.7214
 20
60.0441
 30
0
 10
-7.272
 20
48.9734
 30
0
  0
SPLINE
  5
59
100
AcDbEntity
  8
EBENE_1
100
AcDbSpline
370
-1
 62
250
  6
BYLAYER
 70
8
 71
3
 72
8
 73
4
 40
0
 40
0
 40
0
 40
0
 40
1
 40
1
 40
1
 40
1
 10
-97.6219
 20
48.9784
 30
0
 10
-86.1714
 20
60.0479
 30
0
 10
-70.6649
 20
66.9474
 30
0
 10
-53.5485
 20
67.2312
 30
0
  0
SPLINE
  5
5A
100
AcDbEntity
  8
EBENE_1
100
AcDbSpline
370
-1
 62
250
  6
BYLAYER
 70
8
 71
3
 72
8
 73
4
 40
0
 40
0
 40
0
 40
0
 40
1
 40
1
 40
1
 40
1
 10
-7.2772
 20
-44.4953
 30
0
 10
-18.7279
 20
-55.5648
 30
0
 10
-34.2341
 20
-62.4646
 30
0
 10
-51.3506
 20
-62.7485
 30
0
  0
SPLINE
  5
5B
100
AcDbEntity
  8
EBENE_1
100
AcDbSpline
370
-1
 62
250
  6
BYLAYER
 70
8
 71
3
 72
8
 73
4
 40
0
 40
0
 40
0
 40
0
 40
1
 40
1
 40
1
 40
1
 10
12.54
 20
1.135
 30
0
 10
12.2545
 20
-15.9809
 30
0
 10
5.3528
 20
-31.4866
 30
0
 10
-5.7179
 20
-42.936
 30
0
  0
SPLINE
  5
5C
100
AcDbEntity
  8
EBENE_1
100
AcDbSpline
370
-1
 62
250
  6
BYLAYER
 70
8
 71
3
 72
8
 73
4
 40
0
 40
0
 40
0
 40
0
 40
1
 40
1
 40
1
 40
1
 10
-53.5557
 20
-62.7482
 30
0
 10
-70.672
 20
-62.4624
 30
0
 10
-86.1776
 20
-55.5611
 30
0
 10
-97.627
 20
-44.4902
 30
0
  0
SPLINE
  5
5D
100
AcDbEntity
  8
EBENE_1
100
AcDbSpline
370
-1
 62
250
  6
BYLAYER
 70
8
 71
3
 72
8
 73
4
 40
0
 40
0
 40
0
 40
0
 40
1
 40
1
 40
1
 40
1
 10
-117.4392
 20
1.1426
 30
0
 10
-117.1556
 20
-15.9737
 30
0
 10
-110.2559
 20
-31.4801
 30
0
 10
-99.1865
 20
-42.9305
 30
0
  0
SPLINE
  5
5E
100
AcDbEntity
  8
EBENE_1
100
AcDbSpline
370
-1
 62
250
  6
BYLAYER
 70
8
 71
3
 72
8
 73
4
 40
0
 40
0
 40
0
 40
0
 40
1
 40
1
 40
1
 40
1
 10
-5.7128
 20
47.4139
 30
0
 10
5.3568
 20
35.9635
 30
0
 10
12.2565
 20
20.4571
 30
0
 10
12.5402
 20
3.3405
 30
0
  0
SPLINE
  5
5F
100
AcDbEntity
  8
EBENE_1
100
AcDbSpline
370
-1
 62
250
  6
BYLAYER
 70
8
 71
3
 72
8
 73
4
 40
0
 40
0
 40
0
 40
0
 40
1
 40
1
 40
1
 40
1
 10
-117.4392
 20
3.3478
 30
0
 10
-117.1536
 20
20.464
 30
0
 10
-110.2522
 20
35.9697
 30
0
 10
-99.1812
 20
47.4191
 30
0
  0
SPLINE
  5
60
100
AcDbEntity
  8
EBENE_1
100
AcDbSpline
370
-1
 62
250
  6
BYLAYER
 70
8
 71
3
 72
56
 73
52
 40
0
 40
0
 40
0
 40
0
 40
0.0769230769230769
 40
0.0769230769230769
 40
0.0769230769230769
 40
0.0769230769230769
 40
0.153846153846154
 40
0.153846153846154
 40
0.153846153846154
 40
0.153846153846154
 40
0.230769230769231
 40
0.230769230769231
 40
0.230769230769231
 40
0.230769230769231
 40
0.307692307692308
 40
0.307692307692308
 40
0.307692307692308
 40
0.307692307692308
 40
0.384615384615385
 40
0.384615384615385
 40
0.384615384615385
 40
0.384615384615385
 40
0.461538461538462
 40
0.461538461538462
 40
0.461538461538462
 40
0.461538461538462
 40
0.538461538461538
 40
0.538461538461538
 40
0.538461538461538
 40
0.538461538461538
 40
0.615384615384615
 40
0.615384615384615
 40
0.615384615384615
 40
0.615384615384615
 40
0.692307692307692
 40
0.692307692307692
 40
0.692307692307692
 40
0.692307692307692
 40
0.769230769230769
 40
0.769230769230769
 40
0.769230769230769
 40
0.769230769230769
 40
0.846153846153846
 40
0.846153846153846
 40
0.846153846153846
 40
0.846153846153846
 40
0.923076923076923
 40
0.923076923076923
 40
0.923076923076923
 40
0.923076923076923
 40
1
 40
1
 40
1
 40
1
 10
3.7867
 20
1.1411
 30
0
 10
5.4219
 20
1.1856
 30
0
 10
6.2773
 20
1.1784
 30
0
 10
7.8898
 20
1.1385
 30
0
 10
7.8898
 20
1.1385
 30
0
 10
7.8898
 20
1.1385
 30
0
 10
7.8989
 20
1.136
 30
0
 10
7.8989
 20
1.136
 30
0
 10
7.8989
 20
1.136
 30
0
 10
7.8989
 20
1.136
 30
0
 10
7.9751
 20
1.1353
 30
0
 10
7.9751
 20
1.1353
 30
0
 10
7.9751
 20
1.1353
 30
0
 10
7.9809
 20
1.0965
 30
0
 10
8.0105
 20
1.0669
 30
0
 10
8.0477
 20
1.0665
 30
0
 10
8.0477
 20
1.0665
 30
0
 10
8.089
 20
1.0669
 30
0
 10
8.1227
 20
1.1034
 30
0
 10
8.1227
 20
1.1494
 30
0
 10
8.1227
 20
1.1494
 30
0
 10
8.1227
 20
1.1916
 30
0
 10
8.0872
 20
1.2253
 30
0
 10
8.0496
 20
1.2297
 30
0
 10
8.0496
 20
1.2297
 30
0
 10
8.0496
 20
1.2297
 30
0
 10
8.0497
 20
3.2515
 30
0
 10
8.0497
 20
3.2515
 30
0
 10
8.0497
 20
3.2515
 30
0
 10
8.0911
 20
3.2518
 30
0
 10
8.1362
 20
3.288
 30
0
 10
8.1362
 20
3.3338
 30
0
 10
8.1362
 20
3.3338
 30
0
 10
8.1362
 20
3.3792
 30
0
 10
8.1027
 20
3.416
 30
0
 10
8.0614
 20
3.4164
 30
0
 10
8.0614
 20
3.4164
 30
0
 10
8.0218
 20
3.4164
 30
0
 10
7.9874
 20
3.382
 30
0
 10
7.9874
 20
3.3389
 30
0
 10
7.9874
 20
3.3389
 30
0
 10
7.9874
 20
3.3389
 30
0
 10
7.8927
 20
3.3389
 30
0
 10
7.8927
 20
3.3389
 30
0
 10
7.8927
 20
3.3389
 30
0
 10
7.8927
 20
3.3389
 30
0
 10
7.893
 20
3.3434
 30
0
 10
7.893
 20
3.3434
 30
0
 10
7.893
 20
3.3434
 30
0
 10
6.5941
 20
3.3076
 30
0
 10
4.6508
 20
3.3338
 30
0
 10
3.7865
 20
3.3527
 30
0
  0
SPLINE
  5
61
100
AcDbEntity
  8
EBENE_1
100
AcDbSpline
370
-1
 62
250
  6
BYLAYER
 70
24
 71
3
 72
8
 73
4
 40
0
 40
0
 40
0
 40
0
 40
1
 40
1
 40
1
 40
1
 10
3.7865
 20
3.3527
 30
0
 10
3.7865
 20
3.3527
 30
0
 10
3.784
 20
3.3527
 30
0
 10
3.784
 20
3.3527
 30
0
  0
SPLINE
  5
62
100
AcDbEntity
  8
EBENE_1
100
AcDbSpline
370
-1
 62
250
  6
BYLAYER
 70
24
 71
3
 72
8
 73
4
 40
0
 40
0
 40
0
 40
0
 40
1
 40
1
 40
1
 40
1
 10
3.7867
 20
1.1411
 30
0
 10
3.7867
 20
1.1411
 30
0
 10
3.784
 20
1.1411
 30
0
 10
3.784
 20
1.1411
 30
0
  0
SPLINE
  5
63
100
AcDbEntity
  8
EBENE_1
100
AcDbSpline
370
-1
 62
250
  6
BYLAYER
 70
24
 71
3
 72
8
 73
4
 40
0
 40
0
 40
0
 40
0
 40
1
 40
1
 40
1
 40
1
 10
-108.6832
 20
3.3418
 30
0
 10
-108.6832
 20
3.3418
 30
0
 10
-108.6855
 20
3.3416
 30
0
 10
-108.6855
 20
3.3416
 30
0
  0
SPLINE
  5
64
100
AcDbEntity
  8
EBENE_1
100
AcDbSpline
370
-1
 62
250
  6
BYLAYER
 70
24
 71
3
 72
8
 73
4
 40
0
 40
0
 40
0
 40
0
 40
1
 40
1
 40
1
 40
1
 10
-108.6829
 20
1.1302
 30
0
 10
-108.6829
 20
1.1302
 30
0
 10
-108.6854
 20
1.1302
 30
0
 10
-108.6854
 20
1.1302
 30
0
  0
SPLINE
  5
65
100
AcDbEntity
  8
EBENE_1
100
AcDbSpline
370
-1
 62
250
  6
BYLAYER
 70
8
 71
3
 72
56
 73
52
 40
0
 40
0
 40
0
 40
0
 40
0.0769230769230769
 40
0.0769230769230769
 40
0.0769230769230769
 40
0.0769230769230769
 40
0.153846153846154
 40
0.153846153846154
 40
0.153846153846154
 40
0.153846153846154
 40
0.230769230769231
 40
0.230769230769231
 40
0.230769230769231
 40
0.230769230769231
 40
0.307692307692308
 40
0.307692307692308
 40
0.307692307692308
 40
0.307692307692308
 40
0.384615384615385
 40
0.384615384615385
 40
0.384615384615385
 40
0.384615384615385
 40
0.461538461538462
 40
0.461538461538462
 40
0.461538461538462
 40
0.461538461538462
 40
0.538461538461538
 40
0.538461538461538
 40
0.538461538461538
 40
0.538461538461538
 40
0.615384615384615
 40
0.615384615384615
 40
0.615384615384615
 40
0.615384615384615
 40
0.692307692307692
 40
0.692307692307692
 40
0.692307692307692
 40
0.692307692307692
 40
0.769230769230769
 40
0.769230769230769
 40
0.769230769230769
 40
0.769230769230769
 40
0.846153846153846
 40
0.846153846153846
 40
0.846153846153846
 40
0.846153846153846
 40
0.923076923076923
 40
0.923076923076923
 40
0.923076923076923
 40
0.923076923076923
 40
1
 40
1
 40
1
 40
1
 10
-108.6855
 20
3.3416
 30
0
 10
-110.3207
 20
3.2974
 30
0
 10
-111.1762
 20
3.3046
 30
0
 10
-112.7889
 20
3.3444
 30
0
 10
-112.7889
 20
3.3444
 30
0
 10
-112.7889
 20
3.3444
 30
0
 10
-112.7979
 20
3.3469
 30
0
 10
-112.7979
 20
3.3469
 30
0
 10
-112.7979
 20
3.3469
 30
0
 10
-112.7979
 20
3.3469
 30
0
 10
-112.8739
 20
3.3476
 30
0
 10
-112.8739
 20
3.3476
 30
0
 10
-112.8739
 20
3.3476
 30
0
 10
-112.8801
 20
3.3864
 30
0
 10
-112.9095
 20
3.416
 30
0
 10
-112.9466
 20
3.4164
 30
0
 10
-112.9466
 20
3.4164
 30
0
 10
-112.988
 20
3.416
 30
0
 10
-113.0217
 20
3.3795
 30
0
 10
-113.0217
 20
3.3335
 30
0
 10
-113.0217
 20
3.3335
 30
0
 10
-113.0217
 20
3.2914
 30
0
 10
-112.9863
 20
3.2576
 30
0
 10
-112.9489
 20
3.2532
 30
0
 10
-112.9489
 20
3.2532
 30
0
 10
-112.9489
 20
3.2532
 30
0
 10
-112.9489
 20
1.2315
 30
0
 10
-112.9489
 20
1.2315
 30
0
 10
-112.9489
 20
1.2315
 30
0
 10
-112.9901
 20
1.2311
 30
0
 10
-113.0351
 20
1.1949
 30
0
 10
-113.0351
 20
1.1491
 30
0
 10
-113.0351
 20
1.1491
 30
0
 10
-113.0351
 20
1.1038
 30
0
 10
-113.002
 20
1.0669
 30
0
 10
-112.9605
 20
1.0665
 30
0
 10
-112.9605
 20
1.0665
 30
0
 10
-112.9208
 20
1.0665
 30
0
 10
-112.8864
 20
1.1009
 30
0
 10
-112.8864
 20
1.144
 30
0
 10
-112.8864
 20
1.144
 30
0
 10
-112.8864
 20
1.144
 30
0
 10
-112.7919
 20
1.144
 30
0
 10
-112.7919
 20
1.144
 30
0
 10
-112.7919
 20
1.144
 30
0
 10
-112.7919
 20
1.144
 30
0
 10
-112.792
 20
1.1396
 30
0
 10
-112.792
 20
1.1396
 30
0
 10
-112.792
 20
1.1396
 30
0
 10
-111.4933
 20
1.1754
 30
0
 10
-109.5497
 20
1.1491
 30
0
 10
-108.6854
 20
1.1302
 30
0
  0
SPLINE
  5
66
100
AcDbEntity
  8
EBENE_1
100
AcDbSpline
370
-1
 62
250
  6
BYLAYER
 70
8
 71
3
 72
56
 73
52
 40
0
 40
0
 40
0
 40
0
 40
0.0769230769230769
 40
0.0769230769230769
 40
0.0769230769230769
 40
0.0769230769230769
 40
0.153846153846154
 40
0.153846153846154
 40
0.153846153846154
 40
0.153846153846154
 40
0.230769230769231
 40
0.230769230769231
 40
0.230769230769231
 40
0.230769230769231
 40
0.307692307692308
 40
0.307692307692308
 40
0.307692307692308
 40
0.307692307692308
 40
0.384615384615385
 40
0.384615384615385
 40
0.384615384615385
 40
0.384615384615385
 40
0.461538461538462
 40
0.461538461538462
 40
0.461538461538462
 40
0.461538461538462
 40
0.538461538461538
 40
0.538461538461538
 40
0.538461538461538
 40
0.538461538461538
 40
0.615384615384615
 40
0.615384615384615
 40
0.615384615384615
 40
0.615384615384615
 40
0.692307692307692
 40
0.692307692307692
 40
0.692307692307692
 40
0.692307692307692
 40
0.769230769230769
 40
0.769230769230769
 40
0.769230769230769
 40
0.769230769230769
 40
0.846153846153846
 40
0.846153846153846
 40
0.846153846153846
 40
0.846153846153846
 40
0.923076923076923
 40
0.923076923076923
 40
0.923076923076923
 40
0.923076923076923
 40
1
 40
1
 40
1
 40
1
 10
-51.3495
 20
58.4778
 30
0
 10
-51.3938
 20
60.1128
 30
0
 10
-51.3865
 20
60.9682
 30
0
 10
-51.3465
 20
62.5807
 30
0
 10
-51.3465
 20
62.5807
 30
0
 10
-51.3465
 20
62.5807
 30
0
 10
-51.344
 20
62.5898
 30
0
 10
-51.344
 20
62.5898
 30
0
 10
-51.344
 20
62.5898
 30
0
 10
-51.344
 20
62.5898
 30
0
 10
-51.3433
 20
62.666
 30
0
 10
-51.3433
 20
62.666
 30
0
 10
-51.3433
 20
62.666
 30
0
 10
-51.3045
 20
62.672
 30
0
 10
-51.2745
 20
62.7014
 30
0
 10
-51.2745
 20
62.7386
 30
0
 10
-51.2745
 20
62.7386
 30
0
 10
-51.2745
 20
62.78
 30
0
 10
-51.3114
 20
62.8138
 30
0
 10
-51.3574
 20
62.8138
 30
0
 10
-51.3574
 20
62.8138
 30
0
 10
-51.3996
 20
62.8138
 30
0
 10
-51.4333
 20
62.7781
 30
0
 10
-51.4379
 20
62.7409
 30
0
 10
-51.4379
 20
62.7409
 30
0
 10
-51.4379
 20
62.7409
 30
0
 10
-53.4594
 20
62.741
 30
0
 10
-53.4594
 20
62.741
 30
0
 10
-53.4594
 20
62.741
 30
0
 10
-53.4594
 20
62.782
 30
0
 10
-53.4959
 20
62.8268
 30
0
 10
-53.5416
 20
62.8272
 30
0
 10
-53.5416
 20
62.8272
 30
0
 10
-53.5871
 20
62.8278
 30
0
 10
-53.6243
 20
62.7938
 30
0
 10
-53.6243
 20
62.7524
 30
0
 10
-53.6243
 20
62.7524
 30
0
 10
-53.6243
 20
62.7127
 30
0
 10
-53.5899
 20
62.6808
 30
0
 10
-53.5469
 20
62.6783
 30
0
 10
-53.5469
 20
62.6783
 30
0
 10
-53.5469
 20
62.6783
 30
0
 10
-53.5469
 20
62.5838
 30
0
 10
-53.5469
 20
62.5838
 30
0
 10
-53.5469
 20
62.5838
 30
0
 10
-53.5469
 20
62.5838
 30
0
 10
-53.5513
 20
62.584
 30
0
 10
-53.5513
 20
62.584
 30
0
 10
-53.5513
 20
62.584
 30
0
 10
-53.5155
 20
61.2854
 30
0
 10
-53.5416
 20
59.3417
 30
0
 10
-53.5607
 20
58.4776
 30
0
  0
SPLINE
  5
67
100
AcDbEntity
  8
EBENE_1
100
AcDbSpline
370
-1
 62
250
  6
BYLAYER
 70
24
 71
3
 72
8
 73
4
 40
0
 40
0
 40
0
 40
0
 40
1
 40
1
 40
1
 40
1
 10
-51.3495
 20
58.4778
 30
0
 10
-51.3495
 20
58.4778
 30
0
 10
-51.3493
 20
58.4751
 30
0
 10
-51.3493
 20
58.4751
 30
0
  0
SPLINE
  5
68
100
AcDbEntity
  8
EBENE_1
100
AcDbSpline
370
-1
 62
250
  6
BYLAYER
 70
24
 71
3
 72
8
 73
4
 40
0
 40
0
 40
0
 40
0
 40
1
 40
1
 40
1
 40
1
 10
-53.5607
 20
58.4776
 30
0
 10
-53.5607
 20
58.4776
 30
0
 10
-53.5607
 20
58.4749
 30
0
 10
-53.5607
 20
58.4749
 30
0
  0
SPLINE
  5
69
100
AcDbEntity
  8
EBENE_1
100
AcDbSpline
370
-1
 62
250
  6
BYLAYER
 70
24
 71
3
 72
8
 73
4
 40
0
 40
0
 40
0
 40
0
 40
1
 40
1
 40
1
 40
1
 10
-53.5495
 20
-53.9945
 30
0
 10
-53.5495
 20
-53.9945
 30
0
 10
-53.5496
 20
-53.9921
 30
0
 10
-53.5496
 20
-53.9921
 30
0
  0
SPLINE
  5
6A
100
AcDbEntity
  8
EBENE_1
100
AcDbSpline
370
-1
 62
250
  6
BYLAYER
 70
24
 71
3
 72
8
 73
4
 40
0
 40
0
 40
0
 40
0
 40
1
 40
1
 40
1
 40
1
 10
-51.3384
 20
-53.9942
 30
0
 10
-51.3384
 20
-53.9942
 30
0
 10
-51.3382
 20
-53.9921
 30
0
 10
-51.3382
 20
-53.9921
 30
0
  0
SPLINE
  5
6B
100
AcDbEntity
  8
EBENE_1
100
AcDbSpline
370
-1
 62
250
  6
BYLAYER
 70
8
 71
3
 72
56
 73
52
 40
0
 40
0
 40
0
 40
0
 40
0.0769230769230769
 40
0.0769230769230769
 40
0.0769230769230769
 40
0.0769230769230769
 40
0.153846153846154
 40
0.153846153846154
 40
0.153846153846154
 40
0.153846153846154
 40
0.230769230769231
 40
0.230769230769231
 40
0.230769230769231
 40
0.230769230769231
 40
0.307692307692308
 40
0.307692307692308
 40
0.307692307692308
 40
0.307692307692308
 40
0.384615384615385
 40
0.384615384615385
 40
0.384615384615385
 40
0.384615384615385
 40
0.461538461538462
 40
0.461538461538462
 40
0.461538461538462
 40
0.461538461538462
 40
0.538461538461538
 40
0.538461538461538
 40
0.538461538461538
 40
0.538461538461538
 40
0.615384615384615
 40
0.615384615384615
 40
0.615384615384615
 40
0.615384615384615
 40
0.692307692307692
 40
0.692307692307692
 40
0.692307692307692
 40
0.692307692307692
 40
0.769230769230769
 40
0.769230769230769
 40
0.769230769230769
 40
0.769230769230769
 40
0.846153846153846
 40
0.846153846153846
 40
0.846153846153846
 40
0.846153846153846
 40
0.923076923076923
 40
0.923076923076923
 40
0.923076923076923
 40
0.923076923076923
 40
1
 40
1
 40
1
 40
1
 10
-53.5495
 20
-53.9945
 30
0
 10
-53.5051
 20
-55.6295
 30
0
 10
-53.5123
 20
-56.485
 30
0
 10
-53.5524
 20
-58.0979
 30
0
 10
-53.5524
 20
-58.0979
 30
0
 10
-53.5524
 20
-58.0979
 30
0
 10
-53.5548
 20
-58.1069
 30
0
 10
-53.5548
 20
-58.1069
 30
0
 10
-53.5548
 20
-58.1069
 30
0
 10
-53.5548
 20
-58.1069
 30
0
 10
-53.5553
 20
-58.1831
 30
0
 10
-53.5553
 20
-58.1831
 30
0
 10
-53.5553
 20
-58.1831
 30
0
 10
-53.5943
 20
-58.1889
 30
0
 10
-53.6243
 20
-58.2185
 30
0
 10
-53.6243
 20
-58.2558
 30
0
 10
-53.6243
 20
-58.2558
 30
0
 10
-53.6243
 20
-58.297
 30
0
 10
-53.5875
 20
-58.3309
 30
0
 10
-53.5413
 20
-58.3309
 30
0
 10
-53.5413
 20
-58.3309
 30
0
 10
-53.4992
 20
-58.3309
 30
0
 10
-53.4656
 20
-58.2953
 30
0
 10
-53.461
 20
-58.2579
 30
0
 10
-53.461
 20
-58.2579
 30
0
 10
-53.461
 20
-58.2579
 30
0
 10
-51.4395
 20
-58.2578
 30
0
 10
-51.4395
 20
-58.2578
 30
0
 10
-51.4395
 20
-58.2578
 30
0
 10
-51.4395
 20
-58.2991
 30
0
 10
-51.4029
 20
-58.3439
 30
0
 10
-51.3573
 20
-58.3443
 30
0
 10
-51.3573
 20
-58.3443
 30
0
 10
-51.3117
 20
-58.3446
 30
0
 10
-51.2745
 20
-58.3108
 30
0
 10
-51.2745
 20
-58.2695
 30
0
 10
-51.2745
 20
-58.2695
 30
0
 10
-51.2745
 20
-58.2298
 30
0
 10
-51.3089
 20
-58.1979
 30
0
 10
-51.352
 20
-58.1954
 30
0
 10
-51.352
 20
-58.1954
 30
0
 10
-51.352
 20
-58.1954
 30
0
 10
-51.3519
 20
-58.1007
 30
0
 10
-51.3519
 20
-58.1007
 30
0
 10
-51.3519
 20
-58.1007
 30
0
 10
-51.3519
 20
-58.1007
 30
0
 10
-51.3475
 20
-58.1011
 30
0
 10
-51.3475
 20
-58.1011
 30
0
 10
-51.3475
 20
-58.1011
 30
0
 10
-51.3834
 20
-56.8023
 30
0
 10
-51.3574
 20
-54.8581
 30
0
 10
-51.3384
 20
-53.9942
 30
0
  0
SPLINE
  5
6C
100
AcDbEntity
  8
EBENE_1
100
AcDbSpline
370
-1
 62
250
  6
BYLAYER
 70
24
 71
3
 72
8
 73
4
 40
0
 40
0
 40
0
 40
0
 40
1
 40
1
 40
1
 40
1
 10
-11.9059
 20
41.2292
 30
0
 10
-11.9059
 20
41.2292
 30
0
 10
-11.9084
 20
41.2266
 30
0
 10
-11.9084
 20
41.2266
 30
0
  0
SPLINE
  5
6D
100
AcDbEntity
  8
EBENE_1
100
AcDbSpline
370
-1
 62
250
  6
BYLAYER
 70
8
 71
3
 72
56
 73
52
 40
0
 40
0
 40
0
 40
0
 40
0.0769230769230769
 40
0.0769230769230769
 40
0.0769230769230769
 40
0.0769230769230769
 40
0.153846153846154
 40
0.153846153846154
 40
0.153846153846154
 40
0.153846153846154
 40
0.230769230769231
 40
0.230769230769231
 40
0.230769230769231
 40
0.230769230769231
 40
0.307692307692308
 40
0.307692307692308
 40
0.307692307692308
 40
0.307692307692308
 40
0.384615384615385
 40
0.384615384615385
 40
0.384615384615385
 40
0.384615384615385
 40
0.461538461538462
 40
0.461538461538462
 40
0.461538461538462
 40
0.461538461538462
 40
0.538461538461538
 40
0.538461538461538
 40
0.538461538461538
 40
0.538461538461538
 40
0.615384615384615
 40
0.615384615384615
 40
0.615384615384615
 40
0.615384615384615
 40
0.692307692307692
 40
0.692307692307692
 40
0.692307692307692
 40
0.692307692307692
 40
0.769230769230769
 40
0.769230769230769
 40
0.769230769230769
 40
0.769230769230769
 40
0.846153846153846
 40
0.846153846153846
 40
0.846153846153846
 40
0.846153846153846
 40
0.923076923076923
 40
0.923076923076923
 40
0.923076923076923
 40
0.923076923076923
 40
1
 40
1
 40
1
 40
1
 10
-13.4696
 20
42.7927
 30
0
 10
-12.8448
 20
43.3907
 30
0
 10
-11.4526
 20
44.7457
 30
0
 10
-10.5603
 20
45.689
 30
0
 10
-10.5603
 20
45.689
 30
0
 10
-10.5603
 20
45.689
 30
0
 10
-10.5572
 20
45.6858
 30
0
 10
-10.5572
 20
45.6858
 30
0
 10
-10.5572
 20
45.6858
 30
0
 10
-10.5572
 20
45.6858
 30
0
 10
-10.4903
 20
45.7527
 30
0
 10
-10.4903
 20
45.7527
 30
0
 10
-10.4903
 20
45.7527
 30
0
 10
-10.5189
 20
45.7849
 30
0
 10
-10.5208
 20
45.8317
 30
0
 10
-10.4929
 20
45.8598
 30
0
 10
-10.4929
 20
45.8598
 30
0
 10
-10.4633
 20
45.889
 30
0
 10
-10.4132
 20
45.8868
 30
0
 10
-10.3812
 20
45.8541
 30
0
 10
-10.3812
 20
45.8541
 30
0
 10
-10.3491
 20
45.8217
 30
0
 10
-10.3553
 20
45.7642
 30
0
 10
-10.3842
 20
45.7349
 30
0
 10
-10.3842
 20
45.7349
 30
0
 10
-10.3842
 20
45.7349
 30
0
 10
-8.9545
 20
44.3055
 30
0
 10
-8.9545
 20
44.3055
 30
0
 10
-8.9545
 20
44.3055
 30
0
 10
-8.925
 20
44.3287
 30
0
 10
-8.8761
 20
44.33
 30
0
 10
-8.8465
 20
44.3003
 30
0
 10
-8.8465
 20
44.3003
 30
0
 10
-8.8136
 20
44.2675
 30
0
 10
-8.8119
 20
44.218
 30
0
 10
-8.8408
 20
44.1885
 30
0
 10
-8.8408
 20
44.1885
 30
0
 10
-8.8674
 20
44.1624
 30
0
 10
-8.9091
 20
44.1624
 30
0
 10
-8.9409
 20
44.1857
 30
0
 10
-8.9409
 20
44.1857
 30
0
 10
-8.9409
 20
44.1857
 30
0
 10
-8.9951
 20
44.1325
 30
0
 10
-8.9951
 20
44.1325
 30
0
 10
-8.9951
 20
44.1325
 30
0
 10
-8.9951
 20
44.1325
 30
0
 10
-9.0031
 20
44.1278
 30
0
 10
-9.0031
 20
44.1278
 30
0
 10
-9.0031
 20
44.1278
 30
0
 10
-10.1717
 20
43.0159
 30
0
 10
-10.7815
 20
42.416
 30
0
 10
-11.9059
 20
41.2292
 30
0
  0
SPLINE
  5
6E
100
AcDbEntity
  8
EBENE_1
100
AcDbSpline
370
-1
 62
250
  6
BYLAYER
 70
24
 71
3
 72
8
 73
4
 40
0
 40
0
 40
0
 40
0
 40
1
 40
1
 40
1
 40
1
 10
-13.4721
 20
42.7902
 30
0
 10
-13.4721
 20
42.7902
 30
0
 10
-13.4696
 20
42.7927
 30
0
 10
-13.4696
 20
42.7927
 30
0
  0
SPLINE
  5
6F
100
AcDbEntity
  8
EBENE_1
100
AcDbSpline
370
-1
 62
250
  6
BYLAYER
 70
24
 71
3
 72
8
 73
4
 40
0
 40
0
 40
0
 40
0
 40
1
 40
1
 40
1
 40
1
 10
-91.4267
 20
-38.3075
 30
0
 10
-91.4267
 20
-38.3075
 30
0
 10
-91.4289
 20
-38.3097
 30
0
 10
-91.4289
 20
-38.3097
 30
0
  0
SPLINE
  5
70
100
AcDbEntity
  8
EBENE_1
100
AcDbSpline
370
-1
 62
250
  6
BYLAYER
 70
24
 71
3
 72
8
 73
4
 40
0
 40
0
 40
0
 40
0
 40
1
 40
1
 40
1
 40
1
 10
-92.9927
 20
-36.746
 30
0
 10
-92.9927
 20
-36.746
 30
0
 10
-92.9908
 20
-36.7439
 30
0
 10
-92.9908
 20
-36.7439
 30
0
  0
SPLINE
  5
71
100
AcDbEntity
  8
EBENE_1
100
AcDbSpline
370
-1
 62
250
  6
BYLAYER
 70
8
 71
3
 72
56
 73
52
 40
0
 40
0
 40
0
 40
0
 40
0.0769230769230769
 40
0.0769230769230769
 40
0.0769230769230769
 40
0.0769230769230769
 40
0.153846153846154
 40
0.153846153846154
 40
0.153846153846154
 40
0.153846153846154
 40
0.230769230769231
 40
0.230769230769231
 40
0.230769230769231
 40
0.230769230769231
 40
0.307692307692308
 40
0.307692307692308
 40
0.307692307692308
 40
0.307692307692308
 40
0.384615384615385
 40
0.384615384615385
 40
0.384615384615385
 40
0.384615384615385
 40
0.461538461538462
 40
0.461538461538462
 40
0.461538461538462
 40
0.461538461538462
 40
0.538461538461538
 40
0.538461538461538
 40
0.538461538461538
 40
0.538461538461538
 40
0.615384615384615
 40
0.615384615384615
 40
0.615384615384615
 40
0.615384615384615
 40
0.692307692307692
 40
0.692307692307692
 40
0.692307692307692
 40
0.692307692307692
 40
0.769230769230769
 40
0.769230769230769
 40
0.769230769230769
 40
0.769230769230769
 40
0.846153846153846
 40
0.846153846153846
 40
0.846153846153846
 40
0.846153846153846
 40
0.923076923076923
 40
0.923076923076923
 40
0.923076923076923
 40
0.923076923076923
 40
1
 40
1
 40
1
 40
1
 10
-91.4289
 20
-38.3097
 30
0
 10
-92.0535
 20
-38.9073
 30
0
 10
-93.4461
 20
-40.263
 30
0
 10
-94.3388
 20
-41.2064
 30
0
 10
-94.3388
 20
-41.2064
 30
0
 10
-94.3388
 20
-41.2064
 30
0
 10
-94.3419
 20
-41.2031
 30
0
 10
-94.3419
 20
-41.2031
 30
0
 10
-94.3419
 20
-41.2031
 30
0
 10
-94.3419
 20
-41.2031
 30
0
 10
-94.4088
 20
-41.27
 30
0
 10
-94.4088
 20
-41.27
 30
0
 10
-94.4088
 20
-41.27
 30
0
 10
-94.3802
 20
-41.3021
 30
0
 10
-94.3785
 20
-41.3492
 30
0
 10
-94.4063
 20
-41.3771
 30
0
 10
-94.4063
 20
-41.3771
 30
0
 10
-94.436
 20
-41.406
 30
0
 10
-94.4859
 20
-41.4041
 30
0
 10
-94.5176
 20
-41.3716
 30
0
 10
-94.5176
 20
-41.3716
 30
0
 10
-94.5497
 20
-41.339
 30
0
 10
-94.5437
 20
-41.2817
 30
0
 10
-94.5148
 20
-41.2524
 30
0
 10
-94.5148
 20
-41.2524
 30
0
 10
-94.5148
 20
-41.2524
 30
0
 10
-95.9442
 20
-39.8228
 30
0
 10
-95.9442
 20
-39.8228
 30
0
 10
-95.9442
 20
-39.8228
 30
0
 10
-95.9739
 20
-39.8462
 30
0
 10
-96.0228
 20
-39.8473
 30
0
 10
-96.0527
 20
-39.8176
 30
0
 10
-96.0527
 20
-39.8176
 30
0
 10
-96.0852
 20
-39.7848
 30
0
 10
-96.0871
 20
-39.7353
 30
0
 10
-96.0582
 20
-39.706
 30
0
 10
-96.0582
 20
-39.706
 30
0
 10
-96.0317
 20
-39.6797
 30
0
 10
-95.9898
 20
-39.6797
 30
0
 10
-95.958
 20
-39.7032
 30
0
 10
-95.958
 20
-39.7032
 30
0
 10
-95.958
 20
-39.7032
 30
0
 10
-95.9035
 20
-39.6497
 30
0
 10
-95.9035
 20
-39.6497
 30
0
 10
-95.9035
 20
-39.6497
 30
0
 10
-95.9035
 20
-39.6497
 30
0
 10
-95.8956
 20
-39.645
 30
0
 10
-95.8956
 20
-39.645
 30
0
 10
-95.8956
 20
-39.645
 30
0
 10
-94.7272
 20
-38.5332
 30
0
 10
-94.1172
 20
-37.9335
 30
0
 10
-92.9928
 20
-36.746
 30
0
  0
SPLINE
  5
72
100
AcDbEntity
  8
EBENE_1
100
AcDbSpline
370
-1
 62
250
  6
BYLAYER
 70
24
 71
3
 72
8
 73
4
 40
0
 40
0
 40
0
 40
0
 40
1
 40
1
 40
1
 40
1
 10
-91.437
 20
42.785
 30
0
 10
-91.437
 20
42.785
 30
0
 10
-91.4345
 20
42.7827
 30
0
 10
-91.4345
 20
42.7827
 30
0
  0
SPLINE
  5
73
100
AcDbEntity
  8
EBENE_1
100
AcDbSpline
370
-1
 62
250
  6
BYLAYER
 70
24
 71
3
 72
8
 73
4
 40
0
 40
0
 40
0
 40
0
 40
1
 40
1
 40
1
 40
1
 10
-93.0007
 20
41.2213
 30
0
 10
-93.0007
 20
41.2213
 30
0
 10
-92.9984
 20
41.2186
 30
0
 10
-92.9984
 20
41.2186
 30
0
  0
SPLINE
  5
74
100
AcDbEntity
  8
EBENE_1
100
AcDbSpline
370
-1
 62
250
  6
BYLAYER
 70
8
 71
3
 72
56
 73
52
 40
0
 40
0
 40
0
 40
0
 40
0.0769230769230769
 40
0.0769230769230769
 40
0.0769230769230769
 40
0.0769230769230769
 40
0.153846153846154
 40
0.153846153846154
 40
0.153846153846154
 40
0.153846153846154
 40
0.230769230769231
 40
0.230769230769231
 40
0.230769230769231
 40
0.230769230769231
 40
0.307692307692308
 40
0.307692307692308
 40
0.307692307692308
 40
0.307692307692308
 40
0.384615384615385
 40
0.384615384615385
 40
0.384615384615385
 40
0.384615384615385
 40
0.461538461538462
 40
0.461538461538462
 40
0.461538461538462
 40
0.461538461538462
 40
0.538461538461538
 40
0.538461538461538
 40
0.538461538461538
 40
0.538461538461538
 40
0.615384615384615
 40
0.615384615384615
 40
0.615384615384615
 40
0.615384615384615
 40
0.692307692307692
 40
0.692307692307692
 40
0.692307692307692
 40
0.692307692307692
 40
0.769230769230769
 40
0.769230769230769
 40
0.769230769230769
 40
0.769230769230769
 40
0.846153846153846
 40
0.846153846153846
 40
0.846153846153846
 40
0.846153846153846
 40
0.923076923076923
 40
0.923076923076923
 40
0.923076923076923
 40
0.923076923076923
 40
1
 40
1
 40
1
 40
1
 10
-91.437
 20
42.785
 30
0
 10
-92.6243
 20
43.9093
 30
0
 10
-93.224
 20
44.5194
 30
0
 10
-94.3361
 20
45.6878
 30
0
 10
-94.3361
 20
45.6878
 30
0
 10
-94.3361
 20
45.6878
 30
0
 10
-94.3405
 20
45.696
 30
0
 10
-94.3405
 20
45.696
 30
0
 10
-94.3405
 20
45.696
 30
0
 10
-94.3405
 20
45.696
 30
0
 10
-94.394
 20
45.7501
 30
0
 10
-94.394
 20
45.7501
 30
0
 10
-94.394
 20
45.7501
 30
0
 10
-94.3705
 20
45.782
 30
0
 10
-94.3705
 20
45.8236
 30
0
 10
-94.3966
 20
45.8503
 30
0
 10
-94.3966
 20
45.8503
 30
0
 10
-94.4259
 20
45.8792
 30
0
 10
-94.4757
 20
45.8772
 30
0
 10
-94.5083
 20
45.8446
 30
0
 10
-94.5083
 20
45.8446
 30
0
 10
-94.5379
 20
45.815
 30
0
 10
-94.5369
 20
45.7659
 30
0
 10
-94.5136
 20
45.7363
 30
0
 10
-94.5136
 20
45.7363
 30
0
 10
-94.5136
 20
45.7363
 30
0
 10
-95.9432
 20
44.3069
 30
0
 10
-95.9432
 20
44.3069
 30
0
 10
-95.9432
 20
44.3069
 30
0
 10
-95.9725
 20
44.3358
 30
0
 10
-96.0296
 20
44.3418
 30
0
 10
-96.0624
 20
44.3097
 30
0
 10
-96.0624
 20
44.3097
 30
0
 10
-96.0947
 20
44.2779
 30
0
 10
-96.0972
 20
44.2278
 30
0
 10
-96.0679
 20
44.1982
 30
0
 10
-96.0679
 20
44.1982
 30
0
 10
-96.04
 20
44.1704
 30
0
 10
-95.9928
 20
44.1721
 30
0
 10
-95.9609
 20
44.2008
 30
0
 10
-95.9609
 20
44.2008
 30
0
 10
-95.9609
 20
44.2008
 30
0
 10
-95.894
 20
44.1339
 30
0
 10
-95.894
 20
44.1339
 30
0
 10
-95.894
 20
44.1339
 30
0
 10
-95.894
 20
44.1339
 30
0
 10
-95.897
 20
44.131
 30
0
 10
-95.897
 20
44.131
 30
0
 10
-95.897
 20
44.131
 30
0
 10
-94.9538
 20
43.2383
 30
0
 10
-93.5988
 20
41.8462
 30
0
 10
-93.0007
 20
41.2213
 30
0
  0
SPLINE
  5
75
100
AcDbEntity
  8
EBENE_1
100
AcDbSpline
370
-1
 62
250
  6
BYLAYER
 70
8
 71
3
 72
56
 73
52
 40
0
 40
0
 40
0
 40
0
 40
0.0769230769230769
 40
0.0769230769230769
 40
0.0769230769230769
 40
0.0769230769230769
 40
0.153846153846154
 40
0.153846153846154
 40
0.153846153846154
 40
0.153846153846154
 40
0.230769230769231
 40
0.230769230769231
 40
0.230769230769231
 40
0.230769230769231
 40
0.307692307692308
 40
0.307692307692308
 40
0.307692307692308
 40
0.307692307692308
 40
0.384615384615385
 40
0.384615384615385
 40
0.384615384615385
 40
0.384615384615385
 40
0.461538461538462
 40
0.461538461538462
 40
0.461538461538462
 40
0.461538461538462
 40
0.538461538461538
 40
0.538461538461538
 40
0.538461538461538
 40
0.538461538461538
 40
0.615384615384615
 40
0.615384615384615
 40
0.615384615384615
 40
0.615384615384615
 40
0.692307692307692
 40
0.692307692307692
 40
0.692307692307692
 40
0.692307692307692
 40
0.769230769230769
 40
0.769230769230769
 40
0.769230769230769
 40
0.769230769230769
 40
0.846153846153846
 40
0.846153846153846
 40
0.846153846153846
 40
0.846153846153846
 40
0.923076923076923
 40
0.923076923076923
 40
0.923076923076923
 40
0.923076923076923
 40
1
 40
1
 40
1
 40
1
 10
-11.8984
 20
-36.7384
 30
0
 10
-11.3004
 20
-37.363
 30
0
 10
-9.9452
 20
-38.7551
 30
0
 10
-9.0019
 20
-39.6478
 30
0
 10
-9.0019
 20
-39.6478
 30
0
 10
-9.0019
 20
-39.6478
 30
0
 10
-9.0052
 20
-39.6508
 30
0
 10
-9.0052
 20
-39.6508
 30
0
 10
-9.0052
 20
-39.6508
 30
0
 10
-9.0052
 20
-39.6508
 30
0
 10
-8.9384
 20
-39.7176
 30
0
 10
-8.9384
 20
-39.7176
 30
0
 10
-8.9384
 20
-39.7176
 30
0
 10
-8.906
 20
-39.6891
 30
0
 10
-8.8592
 20
-39.6873
 30
0
 10
-8.831
 20
-39.7153
 30
0
 10
-8.831
 20
-39.7153
 30
0
 10
-8.8019
 20
-39.7448
 30
0
 10
-8.804
 20
-39.7949
 30
0
 10
-8.8368
 20
-39.8265
 30
0
 10
-8.8368
 20
-39.8265
 30
0
 10
-8.8692
 20
-39.8589
 30
0
 10
-8.9267
 20
-39.8527
 30
0
 10
-8.956
 20
-39.8238
 30
0
 10
-8.956
 20
-39.8238
 30
0
 10
-8.956
 20
-39.8238
 30
0
 10
-10.3853
 20
-41.2534
 30
0
 10
-10.3853
 20
-41.2534
 30
0
 10
-10.3853
 20
-41.2534
 30
0
 10
-10.3622
 20
-41.2831
 30
0
 10
-10.361
 20
-41.3321
 30
0
 10
-10.3906
 20
-41.3617
 30
0
 10
-10.3906
 20
-41.3617
 30
0
 10
-10.4232
 20
-41.3944
 30
0
 10
-10.4728
 20
-41.3961
 30
0
 10
-10.5024
 20
-41.3672
 30
0
 10
-10.5024
 20
-41.3672
 30
0
 10
-10.5286
 20
-41.3406
 30
0
 10
-10.5284
 20
-41.299
 30
0
 10
-10.5052
 20
-41.2672
 30
0
 10
-10.5052
 20
-41.2672
 30
0
 10
-10.5052
 20
-41.2672
 30
0
 10
-10.5586
 20
-41.2129
 30
0
 10
-10.5586
 20
-41.2129
 30
0
 10
-10.5586
 20
-41.2129
 30
0
 10
-10.5586
 20
-41.2129
 30
0
 10
-10.5631
 20
-41.2049
 30
0
 10
-10.5631
 20
-41.2049
 30
0
 10
-10.5631
 20
-41.2049
 30
0
 10
-11.675
 20
-40.0367
 30
0
 10
-12.2748
 20
-39.4266
 30
0
 10
-13.462
 20
-38.3021
 30
0
  0
SPLINE
  5
76
100
AcDbEntity
  8
EBENE_1
100
AcDbSpline
370
-1
 62
250
  6
BYLAYER
 70
24
 71
3
 72
8
 73
4
 40
0
 40
0
 40
0
 40
0
 40
1
 40
1
 40
1
 40
1
 10
-11.8984
 20
-36.7384
 30
0
 10
-11.8984
 20
-36.7384
 30
0
 10
-11.9008
 20
-36.736
 30
0
 10
-11.9008
 20
-36.736
 30
0
  0
SPLINE
  5
77
100
AcDbEntity
  8
EBENE_1
100
AcDbSpline
370
-1
 62
250
  6
BYLAYER
 70
24
 71
3
 72
8
 73
4
 40
0
 40
0
 40
0
 40
0
 40
1
 40
1
 40
1
 40
1
 10
-13.4641
 20
-38.2996
 30
0
 10
-13.4641
 20
-38.2996
 30
0
 10
-13.462
 20
-38.3021
 30
0
 10
-13.462
 20
-38.3021
 30
0
  0
SPLINE
  5
78
100
AcDbEntity
  8
EBENE_1
100
AcDbSpline
370
-1
 62
250
  6
BYLAYER
 70
11
 71
3
 72
20
 73
16
 40
0
 40
0
 40
0
 40
0
 40
0.25
 40
0.25
 40
0.25
 40
0.25
 40
0.5
 40
0.5
 40
0.5
 40
0.5
 40
0.75
 40
0.75
 40
0.75
 40
0.75
 40
1
 40
1
 40
1
 40
1
 10
-127.4496
 20
2.2409
 30
0
 10
-127.4496
 20
-39.1794
 30
0
 10
-93.8706
 20
-72.7586
 30
0
 10
-52.4496
 20
-72.7586
 30
0
 10
-52.4496
 20
-72.7586
 30
0
 10
-11.0285
 20
-72.7586
 30
0
 10
22.5504
 20
-39.1795
 30
0
 10
22.5504
 20
2.2409
 30
0
 10
22.5504
 20
2.2409
 30
0
 10
22.5504
 20
43.6627
 30
0
 10
-11.0286
 20
77.2415
 30
0
 10
-52.4496
 20
77.2415
 30
0
 10
-52.4496
 20
77.2415
 30
0
 10
-93.8706
 20
77.2415
 30
0
 10
-127.4496
 20
43.6627
 30
0
 10
-127.4496
 20
2.2409
 30
0
  0
SPLINE
  5
79
100
AcDbEntity
  8
EBENE_1
100
AcDbSpline
370
-1
 62
250
  6
BYLAYER
 70
24
 71
3
 72
8
 73
4
 40
0
 40
0
 40
0
 40
0
 40
1
 40
1
 40
1
 40
1
 10
12.5373
 20
3.3407
 30
0
 10
12.5373
 20
3.3407
 30
0
 10
12.5402
 20
3.3405
 30
0
 10
12.5402
 20
3.3405
 30
0
  0
SPLINE
  5
7A
100
AcDbEntity
  8
EBENE_1
100
AcDbSpline
370
-1
 62
250
  6
BYLAYER
 70
24
 71
3
 72
8
 73
4
 40
0
 40
0
 40
0
 40
0
 40
1
 40
1
 40
1
 40
1
 10
12.5373
 20
1.135
 30
0
 10
12.5373
 20
1.135
 30
0
 10
12.54
 20
1.135
 30
0
 10
12.54
 20
1.135
 30
0
  0
SPLINE
  5
7B
100
AcDbEntity
  8
EBENE_1
100
AcDbSpline
370
-1
 62
250
  6
BYLAYER
 70
8
 71
3
 72
60
 73
56
 40
0
 40
0
 40
0
 40
0
 40
0.0714285714285714
 40
0.0714285714285714
 40
0.0714285714285714
 40
0.0714285714285714
 40
0.142857142857143
 40
0.142857142857143
 40
0.142857142857143
 40
0.142857142857143
 40
0.214285714285714
 40
0.214285714285714
 40
0.214285714285714
 40
0.214285714285714
 40
0.285714285714286
 40
0.285714285714286
 40
0.285714285714286
 40
0.285714285714286
 40
0.357142857142857
 40
0.357142857142857
 40
0.357142857142857
 40
0.357142857142857
 40
0.428571428571429
 40
0.428571428571429
 40
0.428571428571429
 40
0.428571428571429
 40
0.5
 40
0.5
 40
0.5
 40
0.5
 40
0.571428571428571
 40
0.571428571428571
 40
0.571428571428571
 40
0.571428571428571
 40
0.642857142857143
 40
0.642857142857143
 40
0.642857142857143
 40
0.642857142857143
 40
0.714285714285714
 40
0.714285714285714
 40
0.714285714285714
 40
0.714285714285714
 40
0.785714285714286
 40
0.785714285714286
 40
0.785714285714286
 40
0.785714285714286
 40
0.857142857142857
 40
0.857142857142857
 40
0.857142857142857
 40
0.857142857142857
 40
0.928571428571428
 40
0.928571428571428
 40
0.928571428571428
 40
0.928571428571428
 40
1
 40
1
 40
1
 40
1
 10
12.54
 20
1.135
 30
0
 10
14.1755
 20
1.1794
 30
0
 10
15.788
 20
1.178
 30
0
 10
17.4007
 20
1.1374
 30
0
 10
17.4007
 20
1.1374
 30
0
 10
17.4007
 20
1.1374
 30
0
 10
17.4098
 20
1.1353
 30
0
 10
17.4098
 20
1.1353
 30
0
 10
17.4098
 20
1.1353
 30
0
 10
17.4098
 20
1.1353
 30
0
 10
17.4858
 20
1.1346
 30
0
 10
17.4858
 20
1.1346
 30
0
 10
17.4858
 20
1.1346
 30
0
 10
17.4917
 20
1.0962
 30
0
 10
17.521
 20
1.0662
 30
0
 10
17.5586
 20
1.0658
 30
0
 10
17.5586
 20
1.0658
 30
0
 10
17.5999
 20
1.0662
 30
0
 10
17.6335
 20
1.103
 30
0
 10
17.6335
 20
1.1487
 30
0
 10
17.6335
 20
1.1487
 30
0
 10
17.6335
 20
1.1909
 30
0
 10
17.6039
 20
1.2246
 30
0
 10
17.5667
 20
1.2293
 30
0
 10
17.5667
 20
1.2293
 30
0
 10
17.5667
 20
1.2293
 30
0
 10
17.5696
 20
3.2508
 30
0
 10
17.5696
 20
3.2508
 30
0
 10
17.5696
 20
3.2508
 30
0
 10
17.5696
 20
3.2508
 30
0
 10
17.572
 20
3.2507
 30
0
 10
17.572
 20
3.2507
 30
0
 10
17.572
 20
3.2507
 30
0
 10
17.6133
 20
3.2508
 30
0
 10
17.6471
 20
3.2873
 30
0
 10
17.6471
 20
3.3328
 30
0
 10
17.6471
 20
3.3328
 30
0
 10
17.6471
 20
3.3783
 30
0
 10
17.6136
 20
3.4151
 30
0
 10
17.5723
 20
3.4157
 30
0
 10
17.5723
 20
3.4157
 30
0
 10
17.5327
 20
3.4157
 30
0
 10
17.4982
 20
3.3813
 30
0
 10
17.4982
 20
3.3382
 30
0
 10
17.4982
 20
3.3382
 30
0
 10
17.4982
 20
3.3382
 30
0
 10
17.4036
 20
3.3382
 30
0
 10
17.4036
 20
3.3382
 30
0
 10
17.4036
 20
3.3382
 30
0
 10
17.4036
 20
3.3382
 30
0
 10
17.4039
 20
3.3423
 30
0
 10
17.4039
 20
3.3423
 30
0
 10
17.4039
 20
3.3423
 30
0
 10
16.1053
 20
3.3069
 30
0
 10
13.4062
 20
3.3213
 30
0
 10
12.5402
 20
3.3405
 30
0
  0
SPLINE
  5
7C
100
AcDbEntity
  8
EBENE_1
100
AcDbSpline
370
-1
 62
250
  6
BYLAYER
 70
24
 71
3
 72
8
 73
4
 40
0
 40
0
 40
0
 40
0
 40
1
 40
1
 40
1
 40
1
 10
-117.4365
 20
3.348
 30
0
 10
-117.4365
 20
3.348
 30
0
 10
-117.4392
 20
3.3478
 30
0
 10
-117.4392
 20
3.3478
 30
0
  0
SPLINE
  5
7D
100
AcDbEntity
  8
EBENE_1
100
AcDbSpline
370
-1
 62
250
  6
BYLAYER
 70
24
 71
3
 72
8
 73
4
 40
0
 40
0
 40
0
 40
0
 40
1
 40
1
 40
1
 40
1
 10
-117.4392
 20
1.1426
 30
0
 10
-117.4392
 20
1.1426
 30
0
 10
-117.4367
 20
1.1426
 30
0
 10
-117.4367
 20
1.1426
 30
0
  0
SPLINE
  5
7E
100
AcDbEntity
  8
EBENE_1
100
AcDbSpline
370
-1
 62
250
  6
BYLAYER
 70
8
 71
3
 72
60
 73
56
 40
0
 40
0
 40
0
 40
0
 40
0.0714285714285714
 40
0.0714285714285714
 40
0.0714285714285714
 40
0.0714285714285714
 40
0.142857142857143
 40
0.142857142857143
 40
0.142857142857143
 40
0.142857142857143
 40
0.214285714285714
 40
0.214285714285714
 40
0.214285714285714
 40
0.214285714285714
 40
0.285714285714286
 40
0.285714285714286
 40
0.285714285714286
 40
0.285714285714286
 40
0.357142857142857
 40
0.357142857142857
 40
0.357142857142857
 40
0.357142857142857
 40
0.428571428571429
 40
0.428571428571429
 40
0.428571428571429
 40
0.428571428571429
 40
0.5
 40
0.5
 40
0.5
 40
0.5
 40
0.571428571428571
 40
0.571428571428571
 40
0.571428571428571
 40
0.571428571428571
 40
0.642857142857143
 40
0.642857142857143
 40
0.642857142857143
 40
0.642857142857143
 40
0.714285714285714
 40
0.714285714285714
 40
0.714285714285714
 40
0.714285714285714
 40
0.785714285714286
 40
0.785714285714286
 40
0.785714285714286
 40
0.785714285714286
 40
0.857142857142857
 40
0.857142857142857
 40
0.857142857142857
 40
0.857142857142857
 40
0.928571428571428
 40
0.928571428571428
 40
0.928571428571428
 40
0.928571428571428
 40
1
 40
1
 40
1
 40
1
 10
-117.4392
 20
1.1426
 30
0
 10
-118.3049
 20
1.162
 30
0
 10
-121.0045
 20
1.1764
 30
0
 10
-122.3031
 20
1.1406
 30
0
 10
-122.3031
 20
1.1406
 30
0
 10
-122.3031
 20
1.1406
 30
0
 10
-122.3028
 20
1.1451
 30
0
 10
-122.3028
 20
1.1451
 30
0
 10
-122.3028
 20
1.1451
 30
0
 10
-122.3028
 20
1.1451
 30
0
 10
-122.3975
 20
1.1451
 30
0
 10
-122.3975
 20
1.1451
 30
0
 10
-122.3975
 20
1.1451
 30
0
 10
-122.3975
 20
1.102
 30
0
 10
-122.4321
 20
1.0674
 30
0
 10
-122.4716
 20
1.0674
 30
0
 10
-122.4716
 20
1.0674
 30
0
 10
-122.513
 20
1.0681
 30
0
 10
-122.5464
 20
1.1046
 30
0
 10
-122.5464
 20
1.1501
 30
0
 10
-122.5464
 20
1.1501
 30
0
 10
-122.5464
 20
1.1957
 30
0
 10
-122.5127
 20
1.2325
 30
0
 10
-122.4714
 20
1.2325
 30
0
 10
-122.4714
 20
1.2325
 30
0
 10
-122.4714
 20
1.2325
 30
0
 10
-122.4689
 20
1.2325
 30
0
 10
-122.4689
 20
1.2325
 30
0
 10
-122.4689
 20
1.2325
 30
0
 10
-122.4689
 20
1.2325
 30
0
 10
-122.4659
 20
3.2538
 30
0
 10
-122.4659
 20
3.2538
 30
0
 10
-122.4659
 20
3.2538
 30
0
 10
-122.5033
 20
3.2584
 30
0
 10
-122.533
 20
3.292
 30
0
 10
-122.533
 20
3.3342
 30
0
 10
-122.533
 20
3.3342
 30
0
 10
-122.533
 20
3.3799
 30
0
 10
-122.4991
 20
3.4171
 30
0
 10
-122.4578
 20
3.4174
 30
0
 10
-122.4578
 20
3.4174
 30
0
 10
-122.4202
 20
3.4171
 30
0
 10
-122.391
 20
3.3868
 30
0
 10
-122.3851
 20
3.3487
 30
0
 10
-122.3851
 20
3.3487
 30
0
 10
-122.3851
 20
3.3487
 30
0
 10
-122.3089
 20
3.3476
 30
0
 10
-122.3089
 20
3.3476
 30
0
 10
-122.3089
 20
3.3476
 30
0
 10
-122.3089
 20
3.3476
 30
0
 10
-122.2999
 20
3.3455
 30
0
 10
-122.2999
 20
3.3455
 30
0
 10
-122.2999
 20
3.3455
 30
0
 10
-120.6872
 20
3.3053
 30
0
 10
-119.0747
 20
3.3035
 30
0
 10
-117.4392
 20
3.3478
 30
0
  0
SPLINE
  5
7F
100
AcDbEntity
  8
EBENE_1
100
AcDbSpline
370
-1
 62
250
  6
BYLAYER
 70
24
 71
3
 72
8
 73
4
 40
0
 40
0
 40
0
 40
0
 40
1
 40
1
 40
1
 40
1
 10
-53.5485
 20
67.2313
 30
0
 10
-53.5485
 20
67.2313
 30
0
 10
-53.5485
 20
67.2286
 30
0
 10
-53.5485
 20
67.2286
 30
0
  0
SPLINE
  5
80
100
AcDbEntity
  8
EBENE_1
100
AcDbSpline
370
-1
 62
250
  6
BYLAYER
 70
24
 71
3
 72
8
 73
4
 40
0
 40
0
 40
0
 40
0
 40
1
 40
1
 40
1
 40
1
 10
-51.3433
 20
67.2313
 30
0
 10
-51.3433
 20
67.2313
 30
0
 10
-51.3432
 20
67.2284
 30
0
 10
-51.3432
 20
67.2284
 30
0
  0
SPLINE
  5
81
100
AcDbEntity
  8
EBENE_1
100
AcDbSpline
370
-1
 62
250
  6
BYLAYER
 70
8
 71
3
 72
60
 73
56
 40
0
 40
0
 40
0
 40
0
 40
0.0714285714285714
 40
0.0714285714285714
 40
0.0714285714285714
 40
0.0714285714285714
 40
0.142857142857143
 40
0.142857142857143
 40
0.142857142857143
 40
0.142857142857143
 40
0.214285714285714
 40
0.214285714285714
 40
0.214285714285714
 40
0.214285714285714
 40
0.285714285714286
 40
0.285714285714286
 40
0.285714285714286
 40
0.285714285714286
 40
0.357142857142857
 40
0.357142857142857
 40
0.357142857142857
 40
0.357142857142857
 40
0.428571428571429
 40
0.428571428571429
 40
0.428571428571429
 40
0.428571428571429
 40
0.5
 40
0.5
 40
0.5
 40
0.5
 40
0.571428571428571
 40
0.571428571428571
 40
0.571428571428571
 40
0.571428571428571
 40
0.642857142857143
 40
0.642857142857143
 40
0.642857142857143
 40
0.642857142857143
 40
0.714285714285714
 40
0.714285714285714
 40
0.714285714285714
 40
0.714285714285714
 40
0.785714285714286
 40
0.785714285714286
 40
0.785714285714286
 40
0.785714285714286
 40
0.857142857142857
 40
0.857142857142857
 40
0.857142857142857
 40
0.857142857142857
 40
0.928571428571428
 40
0.928571428571428
 40
0.928571428571428
 40
0.928571428571428
 40
1
 40
1
 40
1
 40
1
 10
-51.3433
 20
67.2313
 30
0
 10
-51.3876
 20
68.8667
 30
0
 10
-51.3862
 20
70.4793
 30
0
 10
-51.3456
 20
72.0918
 30
0
 10
-51.3456
 20
72.0918
 30
0
 10
-51.3456
 20
72.0918
 30
0
 10
-51.3435
 20
72.1009
 30
0
 10
-51.3435
 20
72.1009
 30
0
 10
-51.3435
 20
72.1009
 30
0
 10
-51.3435
 20
72.1009
 30
0
 10
-51.3428
 20
72.1773
 30
0
 10
-51.3428
 20
72.1773
 30
0
 10
-51.3428
 20
72.1773
 30
0
 10
-51.3043
 20
72.183
 30
0
 10
-51.2738
 20
72.2123
 30
0
 10
-51.2738
 20
72.2499
 30
0
 10
-51.2738
 20
72.2499
 30
0
 10
-51.2738
 20
72.291
 30
0
 10
-51.3112
 20
72.3246
 30
0
 10
-51.3571
 20
72.3248
 30
0
 10
-51.3571
 20
72.3248
 30
0
 10
-51.399
 20
72.3247
 30
0
 10
-51.4328
 20
72.2954
 30
0
 10
-51.4375
 20
72.258
 30
0
 10
-51.4375
 20
72.258
 30
0
 10
-51.4375
 20
72.258
 30
0
 10
-53.4587
 20
72.2608
 30
0
 10
-53.4587
 20
72.2608
 30
0
 10
-53.4587
 20
72.2608
 30
0
 10
-53.4587
 20
72.2608
 30
0
 10
-53.4587
 20
72.2633
 30
0
 10
-53.4587
 20
72.2633
 30
0
 10
-53.4587
 20
72.2633
 30
0
 10
-53.4587
 20
72.3046
 30
0
 10
-53.4954
 20
72.3381
 30
0
 10
-53.5407
 20
72.3384
 30
0
 10
-53.5407
 20
72.3384
 30
0
 10
-53.5862
 20
72.3388
 30
0
 10
-53.6236
 20
72.3049
 30
0
 10
-53.6236
 20
72.2634
 30
0
 10
-53.6236
 20
72.2634
 30
0
 10
-53.6236
 20
72.224
 30
0
 10
-53.5892
 20
72.192
 30
0
 10
-53.5462
 20
72.1894
 30
0
 10
-53.5462
 20
72.1894
 30
0
 10
-53.5462
 20
72.1894
 30
0
 10
-53.5462
 20
72.0948
 30
0
 10
-53.5462
 20
72.0948
 30
0
 10
-53.5462
 20
72.0948
 30
0
 10
-53.5462
 20
72.0948
 30
0
 10
-53.5504
 20
72.0952
 30
0
 10
-53.5504
 20
72.0952
 30
0
 10
-53.5504
 20
72.0952
 30
0
 10
-53.5148
 20
70.7966
 30
0
 10
-53.5293
 20
68.097
 30
0
 10
-53.5485
 20
67.2312
 30
0
  0
SPLINE
  5
82
100
AcDbEntity
  8
EBENE_1
100
AcDbSpline
370
-1
 62
250
  6
BYLAYER
 70
24
 71
3
 72
8
 73
4
 40
0
 40
0
 40
0
 40
0
 40
1
 40
1
 40
1
 40
1
 10
-53.5557
 20
-62.7482
 30
0
 10
-53.5557
 20
-62.7482
 30
0
 10
-53.5559
 20
-62.7454
 30
0
 10
-53.5559
 20
-62.7454
 30
0
  0
SPLINE
  5
83
100
AcDbEntity
  8
EBENE_1
100
AcDbSpline
370
-1
 62
250
  6
BYLAYER
 70
24
 71
3
 72
8
 73
4
 40
0
 40
0
 40
0
 40
0
 40
1
 40
1
 40
1
 40
1
 10
-51.3506
 20
-62.7485
 30
0
 10
-51.3506
 20
-62.7485
 30
0
 10
-51.3506
 20
-62.7454
 30
0
 10
-51.3506
 20
-62.7454
 30
0
  0
SPLINE
  5
84
100
AcDbEntity
  8
EBENE_1
100
AcDbSpline
370
-1
 62
250
  6
BYLAYER
 70
8
 71
3
 72
60
 73
56
 40
0
 40
0
 40
0
 40
0
 40
0.0714285714285714
 40
0.0714285714285714
 40
0.0714285714285714
 40
0.0714285714285714
 40
0.142857142857143
 40
0.142857142857143
 40
0.142857142857143
 40
0.142857142857143
 40
0.214285714285714
 40
0.214285714285714
 40
0.214285714285714
 40
0.214285714285714
 40
0.285714285714286
 40
0.285714285714286
 40
0.285714285714286
 40
0.285714285714286
 40
0.357142857142857
 40
0.357142857142857
 40
0.357142857142857
 40
0.357142857142857
 40
0.428571428571429
 40
0.428571428571429
 40
0.428571428571429
 40
0.428571428571429
 40
0.5
 40
0.5
 40
0.5
 40
0.5
 40
0.571428571428571
 40
0.571428571428571
 40
0.571428571428571
 40
0.571428571428571
 40
0.642857142857143
 40
0.642857142857143
 40
0.642857142857143
 40
0.642857142857143
 40
0.714285714285714
 40
0.714285714285714
 40
0.714285714285714
 40
0.714285714285714
 40
0.785714285714286
 40
0.785714285714286
 40
0.785714285714286
 40
0.785714285714286
 40
0.857142857142857
 40
0.857142857142857
 40
0.857142857142857
 40
0.857142857142857
 40
0.928571428571428
 40
0.928571428571428
 40
0.928571428571428
 40
0.928571428571428
 40
1
 40
1
 40
1
 40
1
 10
-53.5557
 20
-62.7482
 30
0
 10
-53.5114
 20
-64.3835
 30
0
 10
-53.513
 20
-65.9962
 30
0
 10
-53.5536
 20
-67.6088
 30
0
 10
-53.5536
 20
-67.6088
 30
0
 10
-53.5536
 20
-67.6088
 30
0
 10
-53.5555
 20
-67.6178
 30
0
 10
-53.5555
 20
-67.6178
 30
0
 10
-53.5555
 20
-67.6178
 30
0
 10
-53.5555
 20
-67.6178
 30
0
 10
-53.5564
 20
-67.694
 30
0
 10
-53.5564
 20
-67.694
 30
0
 10
-53.5564
 20
-67.694
 30
0
 10
-53.5949
 20
-67.6998
 30
0
 10
-53.6254
 20
-67.7291
 30
0
 10
-53.6254
 20
-67.7666
 30
0
 10
-53.6254
 20
-67.7666
 30
0
 10
-53.6254
 20
-67.8079
 30
0
 10
-53.588
 20
-67.8418
 30
0
 10
-53.5421
 20
-67.8418
 30
0
 10
-53.5421
 20
-67.8418
 30
0
 10
-53.5001
 20
-67.8414
 30
0
 10
-53.4665
 20
-67.8121
 30
0
 10
-53.4617
 20
-67.7749
 30
0
 10
-53.4617
 20
-67.7749
 30
0
 10
-53.4617
 20
-67.7749
 30
0
 10
-51.4405
 20
-67.7776
 30
0
 10
-51.4405
 20
-67.7776
 30
0
 10
-51.4405
 20
-67.7776
 30
0
 10
-51.4405
 20
-67.7776
 30
0
 10
-51.4405
 20
-67.78
 30
0
 10
-51.4405
 20
-67.78
 30
0
 10
-51.4405
 20
-67.78
 30
0
 10
-51.4405
 20
-67.8213
 30
0
 10
-51.4038
 20
-67.8548
 30
0
 10
-51.3583
 20
-67.8552
 30
0
 10
-51.3583
 20
-67.8552
 30
0
 10
-51.313
 20
-67.8555
 30
0
 10
-51.2756
 20
-67.8217
 30
0
 10
-51.2756
 20
-67.7804
 30
0
 10
-51.2756
 20
-67.7804
 30
0
 10
-51.2756
 20
-67.7407
 30
0
 10
-51.31
 20
-67.7088
 30
0
 10
-51.353
 20
-67.7063
 30
0
 10
-51.353
 20
-67.7063
 30
0
 10
-51.353
 20
-67.7063
 30
0
 10
-51.353
 20
-67.6116
 30
0
 10
-51.353
 20
-67.6116
 30
0
 10
-51.353
 20
-67.6116
 30
0
 10
-51.353
 20
-67.6116
 30
0
 10
-51.3488
 20
-67.6119
 30
0
 10
-51.3488
 20
-67.6119
 30
0
 10
-51.3488
 20
-67.6119
 30
0
 10
-51.3844
 20
-66.3134
 30
0
 10
-51.37
 20
-63.6143
 30
0
 10
-51.3506
 20
-62.7485
 30
0
  0
SPLINE
  5
85
100
AcDbEntity
  8
EBENE_1
100
AcDbSpline
370
-1
 62
250
  6
BYLAYER
 70
24
 71
3
 72
8
 73
4
 40
0
 40
0
 40
0
 40
0
 40
1
 40
1
 40
1
 40
1
 10
-5.7128
 20
47.4139
 30
0
 10
-5.7128
 20
47.4139
 30
0
 10
-5.7149
 20
47.412
 30
0
 10
-5.7149
 20
47.412
 30
0
  0
SPLINE
  5
86
100
AcDbEntity
  8
EBENE_1
100
AcDbSpline
370
-1
 62
250
  6
BYLAYER
 70
8
 71
3
 72
60
 73
56
 40
0
 40
0
 40
0
 40
0
 40
0.0714285714285714
 40
0.0714285714285714
 40
0.0714285714285714
 40
0.0714285714285714
 40
0.142857142857143
 40
0.142857142857143
 40
0.142857142857143
 40
0.142857142857143
 40
0.214285714285714
 40
0.214285714285714
 40
0.214285714285714
 40
0.214285714285714
 40
0.285714285714286
 40
0.285714285714286
 40
0.285714285714286
 40
0.285714285714286
 40
0.357142857142857
 40
0.357142857142857
 40
0.357142857142857
 40
0.357142857142857
 40
0.428571428571429
 40
0.428571428571429
 40
0.428571428571429
 40
0.428571428571429
 40
0.5
 40
0.5
 40
0.5
 40
0.5
 40
0.571428571428571
 40
0.571428571428571
 40
0.571428571428571
 40
0.571428571428571
 40
0.642857142857143
 40
0.642857142857143
 40
0.642857142857143
 40
0.642857142857143
 40
0.714285714285714
 40
0.714285714285714
 40
0.714285714285714
 40
0.714285714285714
 40
0.785714285714286
 40
0.785714285714286
 40
0.785714285714286
 40
0.785714285714286
 40
0.857142857142857
 40
0.857142857142857
 40
0.857142857142857
 40
0.857142857142857
 40
0.928571428571428
 40
0.928571428571428
 40
0.928571428571428
 40
0.928571428571428
 40
1
 40
1
 40
1
 40
1
 10
-5.7128
 20
47.4139
 30
0
 10
-4.5875
 20
48.6018
 30
0
 10
-3.4463
 20
49.7407
 30
0
 10
-2.2772
 20
50.8526
 30
0
 10
-2.2772
 20
50.8526
 30
0
 10
-2.2772
 20
50.8526
 30
0
 10
-2.2698
 20
50.8574
 30
0
 10
-2.2698
 20
50.8574
 30
0
 10
-2.2698
 20
50.8574
 30
0
 10
-2.2698
 20
50.8574
 30
0
 10
-2.2149
 20
50.9109
 30
0
 10
-2.2149
 20
50.9109
 30
0
 10
-2.2149
 20
50.9109
 30
0
 10
-2.1836
 20
50.8878
 30
0
 10
-2.1416
 20
50.887
 30
0
 10
-2.1151
 20
50.9135
 30
0
 10
-2.1151
 20
50.9135
 30
0
 10
-2.0861
 20
50.9429
 30
0
 10
-2.0885
 20
50.9927
 30
0
 10
-2.1206
 20
51.0255
 30
0
 10
-2.1206
 20
51.0255
 30
0
 10
-2.1505
 20
51.0549
 30
0
 10
-2.1954
 20
51.058
 30
0
 10
-2.225
 20
51.0349
 30
0
 10
-2.225
 20
51.0349
 30
0
 10
-2.225
 20
51.0349
 30
0
 10
-3.6518
 20
52.4663
 30
0
 10
-3.6518
 20
52.4663
 30
0
 10
-3.6518
 20
52.4663
 30
0
 10
-3.6518
 20
52.4663
 30
0
 10
-3.6506
 20
52.468
 30
0
 10
-3.6506
 20
52.468
 30
0
 10
-3.6506
 20
52.468
 30
0
 10
-3.6212
 20
52.4973
 30
0
 10
-3.6233
 20
52.5469
 30
0
 10
-3.6554
 20
52.5793
 30
0
 10
-3.6554
 20
52.5793
 30
0
 10
-3.6874
 20
52.6116
 30
0
 10
-3.737
 20
52.6137
 30
0
 10
-3.767
 20
52.5848
 30
0
 10
-3.767
 20
52.5848
 30
0
 10
-3.7949
 20
52.5569
 30
0
 10
-3.7931
 20
52.5096
 30
0
 10
-3.7645
 20
52.4775
 30
0
 10
-3.7645
 20
52.4775
 30
0
 10
-3.7645
 20
52.4775
 30
0
 10
-3.8314
 20
52.4109
 30
0
 10
-3.8314
 20
52.4109
 30
0
 10
-3.8314
 20
52.4109
 30
0
 10
-3.8314
 20
52.4109
 30
0
 10
-3.8342
 20
52.4139
 30
0
 10
-3.8342
 20
52.4139
 30
0
 10
-3.8342
 20
52.4139
 30
0
 10
-4.7272
 20
51.4704
 30
0
 10
-6.6464
 20
49.5715
 30
0
 10
-7.272
 20
48.9734
 30
0
  0
SPLINE
  5
87
100
AcDbEntity
  8
EBENE_1
100
AcDbSpline
370
-1
 62
250
  6
BYLAYER
 70
24
 71
3
 72
8
 73
4
 40
0
 40
0
 40
0
 40
0
 40
1
 40
1
 40
1
 40
1
 10
-7.272
 20
48.9735
 30
0
 10
-7.272
 20
48.9735
 30
0
 10
-7.2742
 20
48.9715
 30
0
 10
-7.2742
 20
48.9715
 30
0
  0
SPLINE
  5
88
100
AcDbEntity
  8
EBENE_1
100
AcDbSpline
370
-1
 62
250
  6
BYLAYER
 70
24
 71
3
 72
8
 73
4
 40
0
 40
0
 40
0
 40
0
 40
1
 40
1
 40
1
 40
1
 10
-97.6252
 20
-44.4884
 30
0
 10
-97.6252
 20
-44.4884
 30
0
 10
-97.627
 20
-44.4902
 30
0
 10
-97.627
 20
-44.4902
 30
0
  0
SPLINE
  5
89
100
AcDbEntity
  8
EBENE_1
100
AcDbSpline
370
-1
 62
250
  6
BYLAYER
 70
8
 71
3
 72
60
 73
56
 40
0
 40
0
 40
0
 40
0
 40
0.0714285714285714
 40
0.0714285714285714
 40
0.0714285714285714
 40
0.0714285714285714
 40
0.142857142857143
 40
0.142857142857143
 40
0.142857142857143
 40
0.142857142857143
 40
0.214285714285714
 40
0.214285714285714
 40
0.214285714285714
 40
0.214285714285714
 40
0.285714285714286
 40
0.285714285714286
 40
0.285714285714286
 40
0.285714285714286
 40
0.357142857142857
 40
0.357142857142857
 40
0.357142857142857
 40
0.357142857142857
 40
0.428571428571429
 40
0.428571428571429
 40
0.428571428571429
 40
0.428571428571429
 40
0.5
 40
0.5
 40
0.5
 40
0.5
 40
0.571428571428571
 40
0.571428571428571
 40
0.571428571428571
 40
0.571428571428571
 40
0.642857142857143
 40
0.642857142857143
 40
0.642857142857143
 40
0.642857142857143
 40
0.714285714285714
 40
0.714285714285714
 40
0.714285714285714
 40
0.714285714285714
 40
0.785714285714286
 40
0.785714285714286
 40
0.785714285714286
 40
0.785714285714286
 40
0.857142857142857
 40
0.857142857142857
 40
0.857142857142857
 40
0.857142857142857
 40
0.928571428571428
 40
0.928571428571428
 40
0.928571428571428
 40
0.928571428571428
 40
1
 40
1
 40
1
 40
1
 10
-97.627
 20
-44.4902
 30
0
 10
-98.2525
 20
-45.0881
 30
0
 10
-100.172
 20
-46.9871
 30
0
 10
-101.0652
 20
-47.9308
 30
0
 10
-101.0652
 20
-47.9308
 30
0
 10
-101.0652
 20
-47.9308
 30
0
 10
-101.068
 20
-47.9273
 30
0
 10
-101.068
 20
-47.9273
 30
0
 10
-101.068
 20
-47.9273
 30
0
 10
-101.068
 20
-47.9273
 30
0
 10
-101.1349
 20
-47.9945
 30
0
 10
-101.1349
 20
-47.9945
 30
0
 10
-101.1349
 20
-47.9945
 30
0
 10
-101.1063
 20
-48.0266
 30
0
 10
-101.1045
 20
-48.0737
 30
0
 10
-101.1324
 20
-48.1016
 30
0
 10
-101.1324
 20
-48.1016
 30
0
 10
-101.1622
 20
-48.1307
 30
0
 10
-101.2119
 20
-48.1286
 30
0
 10
-101.2441
 20
-48.0957
 30
0
 10
-101.2441
 20
-48.0957
 30
0
 10
-101.2758
 20
-48.0635
 30
0
 10
-101.2781
 20
-48.0141
 30
0
 10
-101.249
 20
-47.9848
 30
0
 10
-101.249
 20
-47.9848
 30
0
 10
-101.249
 20
-47.9848
 30
0
 10
-101.2472
 20
-47.9832
 30
0
 10
-101.2472
 20
-47.9832
 30
0
 10
-101.2472
 20
-47.9832
 30
0
 10
-101.2472
 20
-47.9832
 30
0
 10
-102.6744
 20
-46.5516
 30
0
 10
-102.6744
 20
-46.5516
 30
0
 10
-102.6744
 20
-46.5516
 30
0
 10
-102.704
 20
-46.5747
 30
0
 10
-102.7486
 20
-46.5717
 30
0
 10
-102.7786
 20
-46.5425
 30
0
 10
-102.7786
 20
-46.5425
 30
0
 10
-102.8109
 20
-46.5097
 30
0
 10
-102.8132
 20
-46.4597
 30
0
 10
-102.7843
 20
-46.4305
 30
0
 10
-102.7843
 20
-46.4305
 30
0
 10
-102.7576
 20
-46.4038
 30
0
 10
-102.7157
 20
-46.4045
 30
0
 10
-102.6843
 20
-46.4276
 30
0
 10
-102.6843
 20
-46.4276
 30
0
 10
-102.6843
 20
-46.4276
 30
0
 10
-102.6296
 20
-46.3742
 30
0
 10
-102.6296
 20
-46.3742
 30
0
 10
-102.6296
 20
-46.3742
 30
0
 10
-102.6296
 20
-46.3742
 30
0
 10
-102.6218
 20
-46.3694
 30
0
 10
-102.6218
 20
-46.3694
 30
0
 10
-102.6218
 20
-46.3694
 30
0
 10
-101.4527
 20
-45.2576
 30
0
 10
-100.3117
 20
-44.1184
 30
0
 10
-99.1865
 20
-42.9305
 30
0
  0
SPLINE
  5
8A
100
AcDbEntity
  8
EBENE_1
100
AcDbSpline
370
-1
 62
250
  6
BYLAYER
 70
24
 71
3
 72
8
 73
4
 40
0
 40
0
 40
0
 40
0
 40
1
 40
1
 40
1
 40
1
 10
-99.1847
 20
-42.9288
 30
0
 10
-99.1847
 20
-42.9288
 30
0
 10
-99.1865
 20
-42.9305
 30
0
 10
-99.1865
 20
-42.9305
 30
0
  0
SPLINE
  5
8B
100
AcDbEntity
  8
EBENE_1
100
AcDbSpline
370
-1
 62
250
  6
BYLAYER
 70
8
 71
3
 72
60
 73
56
 40
0
 40
0
 40
0
 40
0
 40
0.0714285714285714
 40
0.0714285714285714
 40
0.0714285714285714
 40
0.0714285714285714
 40
0.142857142857143
 40
0.142857142857143
 40
0.142857142857143
 40
0.142857142857143
 40
0.214285714285714
 40
0.214285714285714
 40
0.214285714285714
 40
0.214285714285714
 40
0.285714285714286
 40
0.285714285714286
 40
0.285714285714286
 40
0.285714285714286
 40
0.357142857142857
 40
0.357142857142857
 40
0.357142857142857
 40
0.357142857142857
 40
0.428571428571429
 40
0.428571428571429
 40
0.428571428571429
 40
0.428571428571429
 40
0.5
 40
0.5
 40
0.5
 40
0.5
 40
0.571428571428571
 40
0.571428571428571
 40
0.571428571428571
 40
0.571428571428571
 40
0.642857142857143
 40
0.642857142857143
 40
0.642857142857143
 40
0.642857142857143
 40
0.714285714285714
 40
0.714285714285714
 40
0.714285714285714
 40
0.714285714285714
 40
0.785714285714286
 40
0.785714285714286
 40
0.785714285714286
 40
0.785714285714286
 40
0.857142857142857
 40
0.857142857142857
 40
0.857142857142857
 40
0.857142857142857
 40
0.928571428571428
 40
0.928571428571428
 40
0.928571428571428
 40
0.928571428571428
 40
1
 40
1
 40
1
 40
1
 10
-97.6219
 20
48.9784
 30
0
 10
-98.8097
 20
50.1036
 30
0
 10
-99.9488
 20
51.2449
 30
0
 10
-101.0606
 20
52.4135
 30
0
 10
-101.0606
 20
52.4135
 30
0
 10
-101.0606
 20
52.4135
 30
0
 10
-101.0654
 20
52.4215
 30
0
 10
-101.0654
 20
52.4215
 30
0
 10
-101.0654
 20
52.4215
 30
0
 10
-101.0654
 20
52.4215
 30
0
 10
-101.1188
 20
52.476
 30
0
 10
-101.1188
 20
52.476
 30
0
 10
-101.1188
 20
52.476
 30
0
 10
-101.0957
 20
52.5072
 30
0
 10
-101.0952
 20
52.5493
 30
0
 10
-101.1215
 20
52.5761
 30
0
 10
-101.1215
 20
52.5761
 30
0
 10
-101.1507
 20
52.6051
 30
0
 10
-101.201
 20
52.6026
 30
0
 10
-101.2333
 20
52.5703
 30
0
 10
-101.2333
 20
52.5703
 30
0
 10
-101.2629
 20
52.5404
 30
0
 10
-101.2661
 20
52.4959
 30
0
 10
-101.243
 20
52.4663
 30
0
 10
-101.243
 20
52.4663
 30
0
 10
-101.243
 20
52.4663
 30
0
 10
-102.6742
 20
51.039
 30
0
 10
-102.6742
 20
51.039
 30
0
 10
-102.6742
 20
51.039
 30
0
 10
-102.6742
 20
51.039
 30
0
 10
-102.676
 20
51.0407
 30
0
 10
-102.676
 20
51.0407
 30
0
 10
-102.676
 20
51.0407
 30
0
 10
-102.7051
 20
51.0701
 30
0
 10
-102.7546
 20
51.0675
 30
0
 10
-102.7871
 20
51.0359
 30
0
 10
-102.7871
 20
51.0359
 30
0
 10
-102.8194
 20
51.0039
 30
0
 10
-102.8215
 20
50.9539
 30
0
 10
-102.7927
 20
50.9243
 30
0
 10
-102.7927
 20
50.9243
 30
0
 10
-102.7649
 20
50.8964
 30
0
 10
-102.7178
 20
50.898
 30
0
 10
-102.6857
 20
50.9266
 30
0
 10
-102.6857
 20
50.9266
 30
0
 10
-102.6857
 20
50.9266
 30
0
 10
-102.6186
 20
50.8599
 30
0
 10
-102.6186
 20
50.8599
 30
0
 10
-102.6186
 20
50.8599
 30
0
 10
-102.6186
 20
50.8599
 30
0
 10
-102.6218
 20
50.8571
 30
0
 10
-102.6218
 20
50.8571
 30
0
 10
-102.6218
 20
50.8571
 30
0
 10
-101.6785
 20
49.9639
 30
0
 10
-99.7797
 20
48.0447
 30
0
 10
-99.1812
 20
47.4191
 30
0
  0
SPLINE
  5
8C
100
AcDbEntity
  8
EBENE_1
100
AcDbSpline
370
-1
 62
250
  6
BYLAYER
 70
24
 71
3
 72
8
 73
4
 40
0
 40
0
 40
0
 40
0
 40
1
 40
1
 40
1
 40
1
 10
-97.6219
 20
48.9784
 30
0
 10
-97.6219
 20
48.9784
 30
0
 10
-97.62
 20
48.9764
 30
0
 10
-97.62
 20
48.9764
 30
0
  0
SPLINE
  5
8D
100
AcDbEntity
  8
EBENE_1
100
AcDbSpline
370
-1
 62
250
  6
BYLAYER
 70
24
 71
3
 72
8
 73
4
 40
0
 40
0
 40
0
 40
0
 40
1
 40
1
 40
1
 40
1
 10
-99.1796
 20
47.4171
 30
0
 10
-99.1796
 20
47.4171
 30
0
 10
-99.1812
 20
47.4191
 30
0
 10
-99.1812
 20
47.4191
 30
0
  0
SPLINE
  5
8E
100
AcDbEntity
  8
EBENE_1
100
AcDbSpline
370
-1
 62
250
  6
BYLAYER
 70
8
 71
3
 72
60
 73
56
 40
0
 40
0
 40
0
 40
0
 40
0.0714285714285714
 40
0.0714285714285714
 40
0.0714285714285714
 40
0.0714285714285714
 40
0.142857142857143
 40
0.142857142857143
 40
0.142857142857143
 40
0.142857142857143
 40
0.214285714285714
 40
0.214285714285714
 40
0.214285714285714
 40
0.214285714285714
 40
0.285714285714286
 40
0.285714285714286
 40
0.285714285714286
 40
0.285714285714286
 40
0.357142857142857
 40
0.357142857142857
 40
0.357142857142857
 40
0.357142857142857
 40
0.428571428571429
 40
0.428571428571429
 40
0.428571428571429
 40
0.428571428571429
 40
0.5
 40
0.5
 40
0.5
 40
0.5
 40
0.571428571428571
 40
0.571428571428571
 40
0.571428571428571
 40
0.571428571428571
 40
0.642857142857143
 40
0.642857142857143
 40
0.642857142857143
 40
0.642857142857143
 40
0.714285714285714
 40
0.714285714285714
 40
0.714285714285714
 40
0.714285714285714
 40
0.785714285714286
 40
0.785714285714286
 40
0.785714285714286
 40
0.785714285714286
 40
0.857142857142857
 40
0.857142857142857
 40
0.857142857142857
 40
0.857142857142857
 40
0.928571428571428
 40
0.928571428571428
 40
0.928571428571428
 40
0.928571428571428
 40
1
 40
1
 40
1
 40
1
 10
-7.2772
 20
-44.4953
 30
0
 10
-6.0895
 20
-45.6205
 30
0
 10
-4.9504
 20
-46.7619
 30
0
 10
-3.8386
 20
-47.9308
 30
0
 10
-3.8386
 20
-47.9308
 30
0
 10
-3.8386
 20
-47.9308
 30
0
 10
-3.8339
 20
-47.9384
 30
0
 10
-3.8339
 20
-47.9384
 30
0
 10
-3.8339
 20
-47.9384
 30
0
 10
-3.8339
 20
-47.9384
 30
0
 10
-3.7804
 20
-47.9931
 30
0
 10
-3.7804
 20
-47.9931
 30
0
 10
-3.7804
 20
-47.9931
 30
0
 10
-3.8035
 20
-48.0245
 30
0
 10
-3.8042
 20
-48.0665
 30
0
 10
-3.7776
 20
-48.0931
 30
0
 10
-3.7776
 20
-48.0931
 30
0
 10
-3.7482
 20
-48.122
 30
0
 10
-3.6984
 20
-48.1196
 30
0
 10
-3.6658
 20
-48.0875
 30
0
 10
-3.6658
 20
-48.0875
 30
0
 10
-3.6364
 20
-48.0575
 30
0
 10
-3.6333
 20
-48.0128
 30
0
 10
-3.6564
 20
-47.9832
 30
0
 10
-3.6564
 20
-47.9832
 30
0
 10
-3.6564
 20
-47.9832
 30
0
 10
-2.2249
 20
-46.5559
 30
0
 10
-2.2249
 20
-46.5559
 30
0
 10
-2.2249
 20
-46.5559
 30
0
 10
-2.2249
 20
-46.5559
 30
0
 10
-2.2233
 20
-46.5576
 30
0
 10
-2.2233
 20
-46.5576
 30
0
 10
-2.2233
 20
-46.5576
 30
0
 10
-2.194
 20
-46.5869
 30
0
 10
-2.1444
 20
-46.5848
 30
0
 10
-2.112
 20
-46.5527
 30
0
 10
-2.112
 20
-46.5527
 30
0
 10
-2.0795
 20
-46.5208
 30
0
 10
-2.0776
 20
-46.471
 30
0
 10
-2.1065
 20
-46.441
 30
0
 10
-2.1065
 20
-46.441
 30
0
 10
-2.1343
 20
-46.4132
 30
0
 10
-2.1816
 20
-46.4149
 30
0
 10
-2.2136
 20
-46.4435
 30
0
 10
-2.2136
 20
-46.4435
 30
0
 10
-2.2136
 20
-46.4435
 30
0
 10
-2.2804
 20
-46.3766
 30
0
 10
-2.2804
 20
-46.3766
 30
0
 10
-2.2804
 20
-46.3766
 30
0
 10
-2.2804
 20
-46.3766
 30
0
 10
-2.2772
 20
-46.374
 30
0
 10
-2.2772
 20
-46.374
 30
0
 10
-2.2772
 20
-46.374
 30
0
 10
-3.2205
 20
-45.481
 30
0
 10
-5.1196
 20
-43.5617
 30
0
 10
-5.7179
 20
-42.936
 30
0
  0
SPLINE
  5
8F
100
AcDbEntity
  8
EBENE_1
100
AcDbSpline
370
-1
 62
250
  6
BYLAYER
 70
24
 71
3
 72
8
 73
4
 40
0
 40
0
 40
0
 40
0
 40
1
 40
1
 40
1
 40
1
 10
-7.2792
 20
-44.4932
 30
0
 10
-7.2792
 20
-44.4932
 30
0
 10
-7.2773
 20
-44.4953
 30
0
 10
-7.2773
 20
-44.4953
 30
0
  0
SPLINE
  5
90
100
AcDbEntity
  8
EBENE_1
100
AcDbSpline
370
-1
 62
250
  6
BYLAYER
 70
24
 71
3
 72
8
 73
4
 40
0
 40
0
 40
0
 40
0
 40
1
 40
1
 40
1
 40
1
 10
-5.7178
 20
-42.936
 30
0
 10
-5.7178
 20
-42.936
 30
0
 10
-5.7196
 20
-42.9341
 30
0
 10
-5.7196
 20
-42.9341
 30
0
  0
SPLINE
  5
91
100
AcDbEntity
  8
EBENE_1
100
AcDbSpline
370
-1
 62
250
  6
BYLAYER
 70
8
 71
3
 72
8
 73
4
 40
0
 40
0
 40
0
 40
0
 40
1
 40
1
 40
1
 40
1
 10
-111.4617
 20
69.7656
 30
0
 10
-111.4799
 20
69.7656
 30
0
 10
-111.4982
 20
69.7654
 30
0
 10
-111.5169
 20
69.7652
 30
0
  0
SPLINE
  5
92
100
AcDbEntity
  8
EBENE_1
100
AcDbSpline
370
-1
 62
250
  6
BYLAYER
 70
8
 71
3
 72
8
 73
4
 40
0
 40
0
 40
0
 40
0
 40
1
 40
1
 40
1
 40
1
 10
-126.3061
 20
49.7952
 30
0
 10
-126.2922
 20
49.7949
 30
0
 10
-126.2784
 20
49.7947
 30
0
 10
-126.2643
 20
49.7943
 30
0
  0
SPLINE
  5
93
100
AcDbEntity
  8
EBENE_1
100
AcDbSpline
370
-1
 62
250
  6
BYLAYER
 70
24
 71
3
 72
8
 73
4
 40
0
 40
0
 40
0
 40
0
 40
1
 40
1
 40
1
 40
1
 10
-136.5986
 20
29.7994
 30
0
 10
-136.5986
 20
29.7994
 30
0
 10
-136.5984
 20
29.7994
 30
0
 10
-136.5984
 20
29.7994
 30
0
  0
SPLINE
  5
94
100
AcDbEntity
  8
EBENE_1
100
AcDbSpline
370
-1
 62
250
  6
BYLAYER
 70
24
 71
3
 72
8
 73
4
 40
0
 40
0
 40
0
 40
0
 40
1
 40
1
 40
1
 40
1
 10
-137.6571
 20
27.594
 30
0
 10
-137.6571
 20
27.594
 30
0
 10
-137.6573
 20
27.594
 30
0
 10
-137.6573
 20
27.594
 30
0
  0
SPLINE
  5
95
100
AcDbEntity
  8
EBENE_1
100
AcDbSpline
370
-1
 62
250
  6
BYLAYER
 70
24
 71
3
 72
8
 73
4
 40
0
 40
0
 40
0
 40
0
 40
1
 40
1
 40
1
 40
1
 10
-148.5733
 20
34.6364
 30
0
 10
-148.5733
 20
34.6364
 30
0
 10
-148.5734
 20
34.6364
 30
0
 10
-148.5734
 20
34.6364
 30
0
  0
SPLINE
  5
96
100
AcDbEntity
  8
EBENE_1
100
AcDbSpline
370
-1
 62
250
  6
BYLAYER
 70
8
 71
3
 72
60
 73
56
 40
0
 40
0
 40
0
 40
0
 40
0.0714285714285714
 40
0.0714285714285714
 40
0.0714285714285714
 40
0.0714285714285714
 40
0.142857142857143
 40
0.142857142857143
 40
0.142857142857143
 40
0.142857142857143
 40
0.214285714285714
 40
0.214285714285714
 40
0.214285714285714
 40
0.214285714285714
 40
0.285714285714286
 40
0.285714285714286
 40
0.285714285714286
 40
0.285714285714286
 40
0.357142857142857
 40
0.357142857142857
 40
0.357142857142857
 40
0.357142857142857
 40
0.428571428571429
 40
0.428571428571429
 40
0.428571428571429
 40
0.428571428571429
 40
0.5
 40
0.5
 40
0.5
 40
0.5
 40
0.571428571428571
 40
0.571428571428571
 40
0.571428571428571
 40
0.571428571428571
 40
0.642857142857143
 40
0.642857142857143
 40
0.642857142857143
 40
0.642857142857143
 40
0.714285714285714
 40
0.714285714285714
 40
0.714285714285714
 40
0.714285714285714
 40
0.785714285714286
 40
0.785714285714286
 40
0.785714285714286
 40
0.785714285714286
 40
0.857142857142857
 40
0.857142857142857
 40
0.857142857142857
 40
0.857142857142857
 40
0.928571428571428
 40
0.928571428571428
 40
0.928571428571428
 40
0.928571428571428
 40
1
 40
1
 40
1
 40
1
 10
-136.5984
 20
24.155
 30
0
 10
-135.7354
 20
24.1357
 30
0
 10
-133.9946
 20
24.1213
 30
0
 10
-132.695
 20
24.1569
 30
0
 10
-132.695
 20
24.1569
 30
0
 10
-132.695
 20
24.1569
 30
0
 10
-132.6953
 20
24.1525
 30
0
 10
-132.6953
 20
24.1525
 30
0
 10
-132.6953
 20
24.1525
 30
0
 10
-132.6953
 20
24.1525
 30
0
 10
-132.6006
 20
24.1525
 30
0
 10
-132.6006
 20
24.1525
 30
0
 10
-132.6006
 20
24.1525
 30
0
 10
-132.6006
 20
24.1958
 30
0
 10
-132.5661
 20
24.2301
 30
0
 10
-132.5265
 20
24.2301
 30
0
 10
-132.5265
 20
24.2301
 30
0
 10
-132.4852
 20
24.2294
 30
0
 10
-132.4518
 20
24.1927
 30
0
 10
-132.4518
 20
24.1472
 30
0
 10
-132.4518
 20
24.1472
 30
0
 10
-132.4518
 20
24.1017
 30
0
 10
-132.4855
 20
24.065
 30
0
 10
-132.5267
 20
24.065
 30
0
 10
-132.5267
 20
24.065
 30
0
 10
-132.5267
 20
24.065
 30
0
 10
-132.5293
 20
24.065
 30
0
 10
-132.5293
 20
24.065
 30
0
 10
-132.5293
 20
24.065
 30
0
 10
-132.5293
 20
24.065
 30
0
 10
-132.532
 20
22.0438
 30
0
 10
-132.532
 20
22.0438
 30
0
 10
-132.532
 20
22.0438
 30
0
 10
-132.4948
 20
22.0392
 30
0
 10
-132.4652
 20
22.0055
 30
0
 10
-132.4652
 20
21.9633
 30
0
 10
-132.4652
 20
21.9633
 30
0
 10
-132.4652
 20
21.9177
 30
0
 10
-132.4989
 20
21.8806
 30
0
 10
-132.5403
 20
21.8802
 30
0
 10
-132.5403
 20
21.8802
 30
0
 10
-132.5777
 20
21.8806
 30
0
 10
-132.6071
 20
21.9106
 30
0
 10
-132.613
 20
21.949
 30
0
 10
-132.613
 20
21.949
 30
0
 10
-132.613
 20
21.949
 30
0
 10
-132.6891
 20
21.9499
 30
0
 10
-132.6891
 20
21.9499
 30
0
 10
-132.6891
 20
21.9499
 30
0
 10
-132.6891
 20
21.9499
 30
0
 10
-132.6981
 20
21.952
 30
0
 10
-132.6981
 20
21.952
 30
0
 10
-132.6981
 20
21.952
 30
0
 10
-134.3118
 20
21.9925
 30
0
 10
-136.0207
 20
21.994
 30
0
 10
-137.6571
 20
21.9496
 30
0
  0
SPLINE
  5
97
100
AcDbEntity
  8
EBENE_1
100
AcDbSpline
370
-1
 62
250
  6
BYLAYER
 70
8
 71
3
 72
64
 73
60
 40
0
 40
0
 40
0
 40
0
 40
0.0666666666666667
 40
0.0666666666666667
 40
0.0666666666666667
 40
0.0666666666666667
 40
0.133333333333333
 40
0.133333333333333
 40
0.133333333333333
 40
0.133333333333333
 40
0.2
 40
0.2
 40
0.2
 40
0.2
 40
0.266666666666667
 40
0.266666666666667
 40
0.266666666666667
 40
0.266666666666667
 40
0.333333333333333
 40
0.333333333333333
 40
0.333333333333333
 40
0.333333333333333
 40
0.4
 40
0.4
 40
0.4
 40
0.4
 40
0.466666666666667
 40
0.466666666666667
 40
0.466666666666667
 40
0.466666666666667
 40
0.533333333333333
 40
0.533333333333333
 40
0.533333333333333
 40
0.533333333333333
 40
0.6
 40
0.6
 40
0.6
 40
0.6
 40
0.666666666666667
 40
0.666666666666667
 40
0.666666666666667
 40
0.666666666666667
 40
0.733333333333333
 40
0.733333333333333
 40
0.733333333333333
 40
0.733333333333333
 40
0.8
 40
0.8
 40
0.8
 40
0.8
 40
0.866666666666667
 40
0.866666666666667
 40
0.866666666666667
 40
0.866666666666667
 40
0.933333333333333
 40
0.933333333333333
 40
0.933333333333333
 40
0.933333333333333
 40
1
 40
1
 40
1
 40
1
 10
-126.2643
 20
44.1499
 30
0
 10
-125.4192
 20
44.1309
 30
0
 10
-124.6874
 20
44.1061
 30
0
 10
-123.4087
 20
44.1412
 30
0
 10
-123.4087
 20
44.1412
 30
0
 10
-123.4087
 20
44.1412
 30
0
 10
-123.4091
 20
44.1368
 30
0
 10
-123.4091
 20
44.1368
 30
0
 10
-123.4091
 20
44.1368
 30
0
 10
-123.4091
 20
44.1368
 30
0
 10
-123.3144
 20
44.1368
 30
0
 10
-123.3144
 20
44.1368
 30
0
 10
-123.3144
 20
44.1368
 30
0
 10
-123.3144
 20
44.1797
 30
0
 10
-123.28
 20
44.2143
 30
0
 10
-123.2403
 20
44.2143
 30
0
 10
-123.2403
 20
44.2143
 30
0
 10
-123.199
 20
44.2139
 30
0
 10
-123.1655
 20
44.1772
 30
0
 10
-123.1655
 20
44.1315
 30
0
 10
-123.1655
 20
44.1315
 30
0
 10
-123.1655
 20
44.0859
 30
0
 10
-123.2106
 20
44.0495
 30
0
 10
-123.2519
 20
44.049
 30
0
 10
-123.2519
 20
44.049
 30
0
 10
-123.2519
 20
44.049
 30
0
 10
-123.2519
 20
42.0276
 30
0
 10
-123.2519
 20
42.0276
 30
0
 10
-123.2519
 20
42.0276
 30
0
 10
-123.2143
 20
42.0234
 30
0
 10
-123.1789
 20
41.9895
 30
0
 10
-123.1789
 20
41.9473
 30
0
 10
-123.1789
 20
41.9473
 30
0
 10
-123.1789
 20
41.9014
 30
0
 10
-123.2128
 20
41.8646
 30
0
 10
-123.254
 20
41.8644
 30
0
 10
-123.254
 20
41.8644
 30
0
 10
-123.2914
 20
41.8646
 30
0
 10
-123.3209
 20
41.8944
 30
0
 10
-123.3267
 20
41.9334
 30
0
 10
-123.3267
 20
41.9334
 30
0
 10
-123.3267
 20
41.9334
 30
0
 10
-123.4029
 20
41.9341
 30
0
 10
-123.4029
 20
41.9341
 30
0
 10
-123.4029
 20
41.9341
 30
0
 10
-123.4029
 20
41.9341
 30
0
 10
-123.4119
 20
41.9363
 30
0
 10
-123.4119
 20
41.9363
 30
0
 10
-123.4119
 20
41.9363
 30
0
 10
-125.0255
 20
41.9765
 30
0
 10
-126.1154
 20
41.9838
 30
0
 10
-127.752
 20
41.9392
 30
0
 10
-127.752
 20
41.9392
 30
0
 10
-127.752
 20
41.9392
 30
0
 10
-127.7519
 20
41.9862
 30
0
 10
-127.7519
 20
41.9862
 30
0
 10
-127.7519
 20
41.9862
 30
0
 10
-127.7519
 20
41.9862
 30
0
 10
-136.5984
 20
24.155
 30
0
 10
-136.5984
 20
24.155
 30
0
  0
SPLINE
  5
98
100
AcDbEntity
  8
EBENE_1
100
AcDbSpline
370
-1
 62
250
  6
BYLAYER
 70
8
 71
3
 72
56
 73
52
 40
0
 40
0
 40
0
 40
0
 40
0.0769230769230769
 40
0.0769230769230769
 40
0.0769230769230769
 40
0.0769230769230769
 40
0.153846153846154
 40
0.153846153846154
 40
0.153846153846154
 40
0.153846153846154
 40
0.230769230769231
 40
0.230769230769231
 40
0.230769230769231
 40
0.230769230769231
 40
0.307692307692308
 40
0.307692307692308
 40
0.307692307692308
 40
0.307692307692308
 40
0.384615384615385
 40
0.384615384615385
 40
0.384615384615385
 40
0.384615384615385
 40
0.461538461538462
 40
0.461538461538462
 40
0.461538461538462
 40
0.461538461538462
 40
0.538461538461538
 40
0.538461538461538
 40
0.538461538461538
 40
0.538461538461538
 40
0.615384615384615
 40
0.615384615384615
 40
0.615384615384615
 40
0.615384615384615
 40
0.692307692307692
 40
0.692307692307692
 40
0.692307692307692
 40
0.692307692307692
 40
0.769230769230769
 40
0.769230769230769
 40
0.769230769230769
 40
0.769230769230769
 40
0.846153846153846
 40
0.846153846153846
 40
0.846153846153846
 40
0.846153846153846
 40
0.923076923076923
 40
0.923076923076923
 40
0.923076923076923
 40
0.923076923076923
 40
1
 40
1
 40
1
 40
1
 10
-126.2643
 20
44.1499
 30
0
 10
-126.2643
 20
44.1499
 30
0
 10
-114.0019
 20
61.9862
 30
0
 10
-114.0019
 20
61.9862
 30
0
 10
-114.0019
 20
61.9862
 30
0
 10
-114.0019
 20
61.9862
 30
0
 10
-114.0019
 20
61.9404
 30
0
 10
-114.0019
 20
61.9404
 30
0
 10
-114.0019
 20
61.9404
 30
0
 10
-112.3973
 20
61.984
 30
0
 10
-111.8383
 20
61.969
 30
0
 10
-110.3177
 20
61.9304
 30
0
 10
-110.3177
 20
61.9304
 30
0
 10
-110.3177
 20
61.9304
 30
0
 10
-110.3187
 20
61.9262
 30
0
 10
-110.3187
 20
61.9262
 30
0
 10
-110.3187
 20
61.9262
 30
0
 10
-110.3187
 20
61.8808
 30
0
 10
-110.285
 20
61.8438
 30
0
 10
-110.2436
 20
61.8434
 30
0
 10
-110.2436
 20
61.8434
 30
0
 10
-110.2023
 20
61.8435
 30
0
 10
-110.1684
 20
61.8805
 30
0
 10
-110.1684
 20
61.9258
 30
0
 10
-110.1684
 20
61.9258
 30
0
 10
-110.1684
 20
61.9719
 30
0
 10
-110.2023
 20
62.0087
 30
0
 10
-110.2436
 20
62.0087
 30
0
 10
-110.2436
 20
62.0087
 30
0
 10
-110.2436
 20
62.0087
 30
0
 10
-110.2529
 20
62.0064
 30
0
 10
-110.2529
 20
62.0064
 30
0
 10
-110.2529
 20
62.0064
 30
0
 10
-110.2529
 20
62.0064
 30
0
 10
-110.2501
 20
64.0282
 30
0
 10
-110.2501
 20
64.0282
 30
0
 10
-110.2501
 20
64.0282
 30
0
 10
-110.2088
 20
64.0282
 30
0
 10
-110.1748
 20
64.0642
 30
0
 10
-110.1748
 20
64.1104
 30
0
 10
-110.1748
 20
64.1104
 30
0
 10
-110.1748
 20
64.1559
 30
0
 10
-110.2081
 20
64.1929
 30
0
 10
-110.2496
 20
64.1933
 30
0
 10
-110.2496
 20
64.1933
 30
0
 10
-110.2894
 20
64.193
 30
0
 10
-110.3235
 20
64.1589
 30
0
 10
-110.3235
 20
64.1153
 30
0
 10
-110.3235
 20
64.1153
 30
0
 10
-110.9341
 20
64.0985
 30
0
 10
-111.1543
 20
64.1215
 30
0
 10
-111.4617
 20
64.1212
 30
0
  0
SPLINE
  5
99
100
AcDbEntity
  8
EBENE_1
100
AcDbSpline
370
-1
 62
250
  6
BYLAYER
 70
8
 71
3
 72
80
 73
76
 40
0
 40
0
 40
0
 40
0
 40
0.0526315789473684
 40
0.0526315789473684
 40
0.0526315789473684
 40
0.0526315789473684
 40
0.105263157894737
 40
0.105263157894737
 40
0.105263157894737
 40
0.105263157894737
 40
0.157894736842105
 40
0.157894736842105
 40
0.157894736842105
 40
0.157894736842105
 40
0.210526315789474
 40
0.210526315789474
 40
0.210526315789474
 40
0.210526315789474
 40
0.263157894736842
 40
0.263157894736842
 40
0.263157894736842
 40
0.263157894736842
 40
0.31578947368421
 40
0.31578947368421
 40
0.31578947368421
 40
0.31578947368421
 40
0.368421052631579
 40
0.368421052631579
 40
0.368421052631579
 40
0.368421052631579
 40
0.421052631578947
 40
0.421052631578947
 40
0.421052631578947
 40
0.421052631578947
 40
0.473684210526316
 40
0.473684210526316
 40
0.473684210526316
 40
0.473684210526316
 40
0.526315789473684
 40
0.526315789473684
 40
0.526315789473684
 40
0.526315789473684
 40
0.578947368421053
 40
0.578947368421053
 40
0.578947368421053
 40
0.578947368421053
 40
0.631578947368421
 40
0.631578947368421
 40
0.631578947368421
 40
0.631578947368421
 40
0.68421052631579
 40
0.68421052631579
 40
0.68421052631579
 40
0.68421052631579
 40
0.736842105263158
 40
0.736842105263158
 40
0.736842105263158
 40
0.736842105263158
 40
0.789473684210527
 40
0.789473684210527
 40
0.789473684210527
 40
0.789473684210527
 40
0.842105263157895
 40
0.842105263157895
 40
0.842105263157895
 40
0.842105263157895
 40
0.894736842105263
 40
0.894736842105263
 40
0.894736842105263
 40
0.894736842105263
 40
0.947368421052632
 40
0.947368421052632
 40
0.947368421052632
 40
0.947368421052632
 40
1
 40
1
 40
1
 40
1
 10
-78.3202
 20
82.0043
 30
0
 10
-78.3202
 20
82.0043
 30
0
 10
-68.3316
 20
81.9967
 30
0
 10
-68.3316
 20
81.9967
 30
0
 10
-68.3316
 20
81.9967
 30
0
 10
-68.3316
 20
81.9967
 30
0
 10
-68.3341
 20
81.9972
 30
0
 10
-68.3341
 20
81.9972
 30
0
 10
-68.3341
 20
81.9972
 30
0
 10
-68.3341
 20
81.9972
 30
0
 10
-67.3878
 20
81.9972
 30
0
 10
-67.3878
 20
81.9972
 30
0
 10
-67.3878
 20
81.9972
 30
0
 10
-66.5425
 20
81.9968
 30
0
 10
-65.8777
 20
81.3019
 30
0
 10
-65.8777
 20
80.4737
 30
0
 10
-65.8777
 20
80.4737
 30
0
 10
-65.8777
 20
80.4737
 30
0
 10
-65.8867
 20
78.614
 30
0
 10
-65.8867
 20
78.614
 30
0
 10
-65.8867
 20
78.614
 30
0
 10
-65.8867
 20
78.614
 30
0
 10
-66.7764
 20
78.614
 30
0
 10
-66.7764
 20
78.614
 30
0
 10
-66.7764
 20
78.614
 30
0
 10
-66.7764
 20
78.614
 30
0
 10
-66.7766
 20
78.614
 30
0
 10
-66.7766
 20
78.614
 30
0
 10
-66.7766
 20
78.614
 30
0
 10
-66.7766
 20
78.614
 30
0
 10
-66.7771
 20
76.6441
 30
0
 10
-66.7771
 20
76.6441
 30
0
 10
-66.7771
 20
76.6441
 30
0
 10
-66.7771
 20
76.6441
 30
0
 10
-66.778
 20
76.5747
 30
0
 10
-66.778
 20
76.5747
 30
0
 10
-66.778
 20
76.5747
 30
0
 10
-67.4968
 20
76.5758
 30
0
 10
-68.2803
 20
76.5661
 30
0
 10
-68.9866
 20
76.5672
 30
0
 10
-68.9866
 20
76.5672
 30
0
 10
-68.9866
 20
76.5672
 30
0
 10
-68.9797
 20
78.6393
 30
0
 10
-68.9797
 20
78.6393
 30
0
 10
-68.9797
 20
78.6393
 30
0
 10
-68.9797
 20
78.6393
 30
0
 10
-90.0165
 20
78.6359
 30
0
 10
-90.0165
 20
78.6359
 30
0
 10
-90.0165
 20
78.6359
 30
0
 10
-90.0165
 20
78.6359
 30
0
 10
-90.0701
 20
76.5651
 30
0
 10
-90.0701
 20
76.5651
 30
0
 10
-90.0701
 20
76.5651
 30
0
 10
-90.0701
 20
76.5651
 30
0
 10
-107.7517
 20
61.9862
 30
0
 10
-107.7517
 20
61.9862
 30
0
 10
-107.7517
 20
61.9862
 30
0
 10
-107.7517
 20
61.9862
 30
0
 10
-119.002
 20
41.9862
 30
0
 10
-119.002
 20
41.9862
 30
0
 10
-119.002
 20
41.9862
 30
0
 10
-119.002
 20
41.9862
 30
0
 10
-127.756
 20
21.9747
 30
0
 10
-127.756
 20
21.9747
 30
0
 10
-127.756
 20
21.9747
 30
0
 10
-127.756
 20
21.9747
 30
0
 10
-127.7519
 20
1.9859
 30
0
 10
-127.7519
 20
1.9859
 30
0
 10
-127.7519
 20
1.9859
 30
0
 10
-127.8285
 20
1.3124
 30
0
 10
-127.9294
 20
1.4399
 30
0
 10
-128.2132
 20
1.9859
 30
0
 10
-128.2132
 20
1.9859
 30
0
 10
-128.2132
 20
1.9859
 30
0
 10
-137.6571
 20
21.9497
 30
0
 10
-137.6571
 20
21.9497
 30
0
  0
SPLINE
  5
9A
100
AcDbEntity
  8
EBENE_1
100
AcDbSpline
370
-1
 62
250
  6
BYLAYER
 70
8
 71
3
 72
12
 73
8
 40
0
 40
0
 40
0
 40
0
 40
0.5
 40
0.5
 40
0.5
 40
0.5
 40
1
 40
1
 40
1
 40
1
 10
-111.4617
 20
64.1212
 30
0
 10
-111.4617
 20
64.1212
 30
0
 10
-90.1749
 20
82.0132
 30
0
 10
-90.1749
 20
82.0132
 30
0
 10
-90.1749
 20
82.0132
 30
0
 10
-90.1749
 20
82.0132
 30
0
 10
-79.2443
 20
82.005
 30
0
 10
-79.2443
 20
82.005
 30
0
  0
SPLINE
  5
9B
100
AcDbEntity
  8
EBENE_1
100
AcDbSpline
370
-1
 62
250
  6
BYLAYER
 70
24
 71
3
 72
8
 73
4
 40
0
 40
0
 40
0
 40
0
 40
1
 40
1
 40
1
 40
1
 10
-78.3202
 20
82.0043
 30
0
 10
-78.3202
 20
82.0043
 30
0
 10
-79.2443
 20
82.005
 30
0
 10
-79.2443
 20
82.005
 30
0
  0
SPLINE
  5
9C
100
AcDbEntity
  8
EBENE_1
100
AcDbSpline
370
-1
 62
250
  6
BYLAYER
 70
8
 71
3
 72
60
 73
56
 40
0
 40
0
 40
0
 40
0
 40
0.0714285714285714
 40
0.0714285714285714
 40
0.0714285714285714
 40
0.0714285714285714
 40
0.142857142857143
 40
0.142857142857143
 40
0.142857142857143
 40
0.142857142857143
 40
0.214285714285714
 40
0.214285714285714
 40
0.214285714285714
 40
0.214285714285714
 40
0.285714285714286
 40
0.285714285714286
 40
0.285714285714286
 40
0.285714285714286
 40
0.357142857142857
 40
0.357142857142857
 40
0.357142857142857
 40
0.357142857142857
 40
0.428571428571429
 40
0.428571428571429
 40
0.428571428571429
 40
0.428571428571429
 40
0.5
 40
0.5
 40
0.5
 40
0.5
 40
0.571428571428571
 40
0.571428571428571
 40
0.571428571428571
 40
0.571428571428571
 40
0.642857142857143
 40
0.642857142857143
 40
0.642857142857143
 40
0.642857142857143
 40
0.714285714285714
 40
0.714285714285714
 40
0.714285714285714
 40
0.714285714285714
 40
0.785714285714286
 40
0.785714285714286
 40
0.785714285714286
 40
0.785714285714286
 40
0.857142857142857
 40
0.857142857142857
 40
0.857142857142857
 40
0.857142857142857
 40
0.928571428571428
 40
0.928571428571428
 40
0.928571428571428
 40
0.928571428571428
 40
1
 40
1
 40
1
 40
1
 10
-146.8562
 20
29.5892
 30
0
 10
-145.9932
 20
29.5699
 30
0
 10
-144.2525
 20
29.5555
 30
0
 10
-142.9528
 20
29.5911
 30
0
 10
-142.9528
 20
29.5911
 30
0
 10
-142.9528
 20
29.5911
 30
0
 10
-142.9531
 20
29.5869
 30
0
 10
-142.9531
 20
29.5869
 30
0
 10
-142.9531
 20
29.5869
 30
0
 10
-142.9531
 20
29.5869
 30
0
 10
-142.8584
 20
29.5869
 30
0
 10
-142.8584
 20
29.5869
 30
0
 10
-142.8584
 20
29.5869
 30
0
 10
-142.8584
 20
29.63
 30
0
 10
-142.8239
 20
29.6643
 30
0
 10
-142.7843
 20
29.6643
 30
0
 10
-142.7843
 20
29.6643
 30
0
 10
-142.7429
 20
29.6636
 30
0
 10
-142.7095
 20
29.6269
 30
0
 10
-142.7095
 20
29.5814
 30
0
 10
-142.7095
 20
29.5814
 30
0
 10
-142.7095
 20
29.5359
 30
0
 10
-142.7433
 20
29.4992
 30
0
 10
-142.7845
 20
29.4992
 30
0
 10
-142.7845
 20
29.4992
 30
0
 10
-142.7845
 20
29.4992
 30
0
 10
-142.787
 20
29.4992
 30
0
 10
-142.787
 20
29.4992
 30
0
 10
-142.787
 20
29.4992
 30
0
 10
-142.787
 20
29.4992
 30
0
 10
-142.7898
 20
27.478
 30
0
 10
-142.7898
 20
27.478
 30
0
 10
-142.7898
 20
27.478
 30
0
 10
-142.7526
 20
27.4734
 30
0
 10
-142.723
 20
27.4397
 30
0
 10
-142.723
 20
27.3975
 30
0
 10
-142.723
 20
27.3975
 30
0
 10
-142.723
 20
27.3519
 30
0
 10
-142.7567
 20
27.3148
 30
0
 10
-142.7981
 20
27.3144
 30
0
 10
-142.7981
 20
27.3144
 30
0
 10
-142.8354
 20
27.3148
 30
0
 10
-142.8649
 20
27.3449
 30
0
 10
-142.8708
 20
27.3832
 30
0
 10
-142.8708
 20
27.3832
 30
0
 10
-142.8708
 20
27.3832
 30
0
 10
-142.9469
 20
27.3842
 30
0
 10
-142.9469
 20
27.3842
 30
0
 10
-142.9469
 20
27.3842
 30
0
 10
-142.9469
 20
27.3842
 30
0
 10
-142.9558
 20
27.3862
 30
0
 10
-142.9558
 20
27.3862
 30
0
 10
-142.9558
 20
27.3862
 30
0
 10
-144.5695
 20
27.4266
 30
0
 10
-146.2785
 20
27.4282
 30
0
 10
-147.915
 20
27.3838
 30
0
  0
SPLINE
  5
9D
100
AcDbEntity
  8
EBENE_1
100
AcDbSpline
370
-1
 62
250
  6
BYLAYER
 70
8
 71
3
 72
64
 73
60
 40
0
 40
0
 40
0
 40
0
 40
0.0666666666666667
 40
0.0666666666666667
 40
0.0666666666666667
 40
0.0666666666666667
 40
0.133333333333333
 40
0.133333333333333
 40
0.133333333333333
 40
0.133333333333333
 40
0.2
 40
0.2
 40
0.2
 40
0.2
 40
0.266666666666667
 40
0.266666666666667
 40
0.266666666666667
 40
0.266666666666667
 40
0.333333333333333
 40
0.333333333333333
 40
0.333333333333333
 40
0.333333333333333
 40
0.4
 40
0.4
 40
0.4
 40
0.4
 40
0.466666666666667
 40
0.466666666666667
 40
0.466666666666667
 40
0.466666666666667
 40
0.533333333333333
 40
0.533333333333333
 40
0.533333333333333
 40
0.533333333333333
 40
0.6
 40
0.6
 40
0.6
 40
0.6
 40
0.666666666666667
 40
0.666666666666667
 40
0.666666666666667
 40
0.666666666666667
 40
0.733333333333333
 40
0.733333333333333
 40
0.733333333333333
 40
0.733333333333333
 40
0.8
 40
0.8
 40
0.8
 40
0.8
 40
0.866666666666667
 40
0.866666666666667
 40
0.866666666666667
 40
0.866666666666667
 40
0.933333333333333
 40
0.933333333333333
 40
0.933333333333333
 40
0.933333333333333
 40
1
 40
1
 40
1
 40
1
 10
-136.5221
 20
49.5841
 30
0
 10
-135.677
 20
49.565
 30
0
 10
-134.9451
 20
49.5403
 30
0
 10
-133.6665
 20
49.5754
 30
0
 10
-133.6665
 20
49.5754
 30
0
 10
-133.6665
 20
49.5754
 30
0
 10
-133.6668
 20
49.5711
 30
0
 10
-133.6668
 20
49.5711
 30
0
 10
-133.6668
 20
49.5711
 30
0
 10
-133.6668
 20
49.5711
 30
0
 10
-133.5721
 20
49.5711
 30
0
 10
-133.5721
 20
49.5711
 30
0
 10
-133.5721
 20
49.5711
 30
0
 10
-133.5721
 20
49.6141
 30
0
 10
-133.5376
 20
49.6484
 30
0
 10
-133.498
 20
49.6484
 30
0
 10
-133.498
 20
49.6484
 30
0
 10
-133.4567
 20
49.6482
 30
0
 10
-133.4233
 20
49.6114
 30
0
 10
-133.4233
 20
49.5657
 30
0
 10
-133.4233
 20
49.5657
 30
0
 10
-133.4233
 20
49.5201
 30
0
 10
-133.4684
 20
49.4837
 30
0
 10
-133.5097
 20
49.4832
 30
0
 10
-133.5097
 20
49.4832
 30
0
 10
-133.5097
 20
49.4832
 30
0
 10
-133.5097
 20
47.4618
 30
0
 10
-133.5097
 20
47.4618
 30
0
 10
-133.5097
 20
47.4618
 30
0
 10
-133.4722
 20
47.4576
 30
0
 10
-133.4367
 20
47.4238
 30
0
 10
-133.4367
 20
47.3815
 30
0
 10
-133.4367
 20
47.3815
 30
0
 10
-133.4367
 20
47.3357
 30
0
 10
-133.4705
 20
47.2989
 30
0
 10
-133.5118
 20
47.2986
 30
0
 10
-133.5118
 20
47.2986
 30
0
 10
-133.5492
 20
47.299
 30
0
 10
-133.5786
 20
47.3288
 30
0
 10
-133.5845
 20
47.3676
 30
0
 10
-133.5845
 20
47.3676
 30
0
 10
-133.5845
 20
47.3676
 30
0
 10
-133.6606
 20
47.3683
 30
0
 10
-133.6606
 20
47.3683
 30
0
 10
-133.6606
 20
47.3683
 30
0
 10
-133.6606
 20
47.3683
 30
0
 10
-133.6696
 20
47.3704
 30
0
 10
-133.6696
 20
47.3704
 30
0
 10
-133.6696
 20
47.3704
 30
0
 10
-135.2833
 20
47.4107
 30
0
 10
-136.3731
 20
47.418
 30
0
 10
-138.0097
 20
47.3734
 30
0
 10
-138.0097
 20
47.3734
 30
0
 10
-138.0097
 20
47.3734
 30
0
 10
-138.0097
 20
47.4203
 30
0
 10
-138.0097
 20
47.4203
 30
0
 10
-138.0097
 20
47.4203
 30
0
 10
-138.0097
 20
47.4203
 30
0
 10
-146.8562
 20
29.5892
 30
0
 10
-146.8562
 20
29.5892
 30
0
  0
SPLINE
  5
9E
100
AcDbEntity
  8
EBENE_1
100
AcDbSpline
370
-1
 62
250
  6
BYLAYER
 70
8
 71
3
 72
56
 73
52
 40
0
 40
0
 40
0
 40
0
 40
0.0769230769230769
 40
0.0769230769230769
 40
0.0769230769230769
 40
0.0769230769230769
 40
0.153846153846154
 40
0.153846153846154
 40
0.153846153846154
 40
0.153846153846154
 40
0.230769230769231
 40
0.230769230769231
 40
0.230769230769231
 40
0.230769230769231
 40
0.307692307692308
 40
0.307692307692308
 40
0.307692307692308
 40
0.307692307692308
 40
0.384615384615385
 40
0.384615384615385
 40
0.384615384615385
 40
0.384615384615385
 40
0.461538461538462
 40
0.461538461538462
 40
0.461538461538462
 40
0.461538461538462
 40
0.538461538461538
 40
0.538461538461538
 40
0.538461538461538
 40
0.538461538461538
 40
0.615384615384615
 40
0.615384615384615
 40
0.615384615384615
 40
0.615384615384615
 40
0.692307692307692
 40
0.692307692307692
 40
0.692307692307692
 40
0.692307692307692
 40
0.769230769230769
 40
0.769230769230769
 40
0.769230769230769
 40
0.769230769230769
 40
0.846153846153846
 40
0.846153846153846
 40
0.846153846153846
 40
0.846153846153846
 40
0.923076923076923
 40
0.923076923076923
 40
0.923076923076923
 40
0.923076923076923
 40
1
 40
1
 40
1
 40
1
 10
-136.5221
 20
49.5841
 30
0
 10
-136.5221
 20
49.5841
 30
0
 10
-124.2596
 20
67.4204
 30
0
 10
-124.2596
 20
67.4204
 30
0
 10
-124.2596
 20
67.4204
 30
0
 10
-124.2596
 20
67.4204
 30
0
 10
-124.2596
 20
67.3745
 30
0
 10
-124.2596
 20
67.3745
 30
0
 10
-124.2596
 20
67.3745
 30
0
 10
-122.6552
 20
67.4182
 30
0
 10
-122.0962
 20
67.4032
 30
0
 10
-120.5754
 20
67.3646
 30
0
 10
-120.5754
 20
67.3646
 30
0
 10
-120.5754
 20
67.3646
 30
0
 10
-120.5764
 20
67.3604
 30
0
 10
-120.5764
 20
67.3604
 30
0
 10
-120.5764
 20
67.3604
 30
0
 10
-120.5764
 20
67.315
 30
0
 10
-120.5428
 20
67.278
 30
0
 10
-120.5015
 20
67.2776
 30
0
 10
-120.5015
 20
67.2776
 30
0
 10
-120.46
 20
67.2776
 30
0
 10
-120.4263
 20
67.3147
 30
0
 10
-120.4263
 20
67.36
 30
0
 10
-120.4263
 20
67.36
 30
0
 10
-120.4263
 20
67.4061
 30
0
 10
-120.46
 20
67.4429
 30
0
 10
-120.5015
 20
67.4429
 30
0
 10
-120.5015
 20
67.4429
 30
0
 10
-120.5015
 20
67.4429
 30
0
 10
-120.5107
 20
67.4406
 30
0
 10
-120.5107
 20
67.4406
 30
0
 10
-120.5107
 20
67.4406
 30
0
 10
-120.5107
 20
67.4406
 30
0
 10
-120.508
 20
69.4624
 30
0
 10
-120.508
 20
69.4624
 30
0
 10
-120.508
 20
69.4624
 30
0
 10
-120.4665
 20
69.4624
 30
0
 10
-120.4325
 20
69.4984
 30
0
 10
-120.4325
 20
69.5446
 30
0
 10
-120.4325
 20
69.5446
 30
0
 10
-120.4325
 20
69.5903
 30
0
 10
-120.4659
 20
69.6273
 30
0
 10
-120.5075
 20
69.6275
 30
0
 10
-120.5075
 20
69.6275
 30
0
 10
-120.5472
 20
69.6273
 30
0
 10
-120.5814
 20
69.5931
 30
0
 10
-120.5814
 20
69.5495
 30
0
 10
-120.5814
 20
69.5495
 30
0
 10
-121.192
 20
69.5326
 30
0
 10
-121.4122
 20
69.5557
 30
0
 10
-121.7195
 20
69.5553
 30
0
  0
SPLINE
  5
9F
100
AcDbEntity
  8
EBENE_1
100
AcDbSpline
370
-1
 62
250
  6
BYLAYER
 70
8
 71
3
 72
44
 73
40
 40
0
 40
0
 40
0
 40
0
 40
0.1
 40
0.1
 40
0.1
 40
0.1
 40
0.2
 40
0.2
 40
0.2
 40
0.2
 40
0.3
 40
0.3
 40
0.3
 40
0.3
 40
0.4
 40
0.4
 40
0.4
 40
0.4
 40
0.5
 40
0.5
 40
0.5
 40
0.5
 40
0.6
 40
0.6
 40
0.6
 40
0.6
 40
0.7
 40
0.7
 40
0.7
 40
0.7
 40
0.8
 40
0.8
 40
0.8
 40
0.8
 40
0.9
 40
0.9
 40
0.9
 40
0.9
 40
1
 40
1
 40
1
 40
1
 10
-77.0359
 20
82.009
 30
0
 10
-77.0359
 20
82.009
 30
0
 10
-77.035
 20
82.0783
 30
0
 10
-77.035
 20
82.0783
 30
0
 10
-77.035
 20
82.0783
 30
0
 10
-77.035
 20
82.0783
 30
0
 10
-77.0343
 20
84.0483
 30
0
 10
-77.0343
 20
84.0483
 30
0
 10
-77.0343
 20
84.0483
 30
0
 10
-77.0343
 20
84.0483
 30
0
 10
-77.0341
 20
84.0483
 30
0
 10
-77.0341
 20
84.0483
 30
0
 10
-77.0341
 20
84.0483
 30
0
 10
-77.0341
 20
84.0483
 30
0
 10
-76.1444
 20
84.0483
 30
0
 10
-76.1444
 20
84.0483
 30
0
 10
-76.1444
 20
84.0483
 30
0
 10
-76.1444
 20
84.0483
 30
0
 10
-76.1354
 20
85.9079
 30
0
 10
-76.1354
 20
85.9079
 30
0
 10
-76.1354
 20
85.9079
 30
0
 10
-76.1354
 20
86.7361
 30
0
 10
-76.8004
 20
87.431
 30
0
 10
-77.6457
 20
87.4314
 30
0
 10
-77.6457
 20
87.4314
 30
0
 10
-77.6457
 20
87.4314
 30
0
 10
-78.5918
 20
87.4314
 30
0
 10
-78.5918
 20
87.4314
 30
0
 10
-78.5918
 20
87.4314
 30
0
 10
-78.5918
 20
87.4314
 30
0
 10
-78.5893
 20
87.431
 30
0
 10
-78.5893
 20
87.431
 30
0
 10
-78.5893
 20
87.431
 30
0
 10
-78.5893
 20
87.431
 30
0
 10
-100.4327
 20
87.4474
 30
0
 10
-100.4327
 20
87.4474
 30
0
 10
-100.4327
 20
87.4474
 30
0
 10
-100.4327
 20
87.4474
 30
0
 10
-121.7194
 20
69.5554
 30
0
 10
-121.7194
 20
69.5554
 30
0
  0
SPLINE
  5
A0
100
AcDbEntity
  8
EBENE_1
100
AcDbSpline
370
-1
 62
250
  6
BYLAYER
 70
8
 71
3
 72
40
 73
36
 40
0
 40
0
 40
0
 40
0
 40
0.111111111111111
 40
0.111111111111111
 40
0.111111111111111
 40
0.111111111111111
 40
0.222222222222222
 40
0.222222222222222
 40
0.222222222222222
 40
0.222222222222222
 40
0.333333333333333
 40
0.333333333333333
 40
0.333333333333333
 40
0.333333333333333
 40
0.444444444444444
 40
0.444444444444444
 40
0.444444444444444
 40
0.444444444444444
 40
0.555555555555556
 40
0.555555555555556
 40
0.555555555555556
 40
0.555555555555556
 40
0.666666666666667
 40
0.666666666666667
 40
0.666666666666667
 40
0.666666666666667
 40
0.777777777777778
 40
0.777777777777778
 40
0.777777777777778
 40
0.777777777777778
 40
0.888888888888889
 40
0.888888888888889
 40
0.888888888888889
 40
0.888888888888889
 40
1
 40
1
 40
1
 40
1
 10
-79.2443
 20
82.005
 30
0
 10
-79.2443
 20
82.005
 30
0
 10
-79.2374
 20
84.0734
 30
0
 10
-79.2374
 20
84.0734
 30
0
 10
-79.2374
 20
84.0734
 30
0
 10
-79.2374
 20
84.0734
 30
0
 10
-100.2744
 20
84.07
 30
0
 10
-100.2744
 20
84.07
 30
0
 10
-100.2744
 20
84.07
 30
0
 10
-100.2744
 20
84.07
 30
0
 10
-100.3279
 20
81.9993
 30
0
 10
-100.3279
 20
81.9993
 30
0
 10
-100.3279
 20
81.9993
 30
0
 10
-100.3279
 20
81.9993
 30
0
 10
-118.0096
 20
67.4204
 30
0
 10
-118.0096
 20
67.4204
 30
0
 10
-118.0096
 20
67.4204
 30
0
 10
-118.0096
 20
67.4204
 30
0
 10
-129.2597
 20
47.4203
 30
0
 10
-129.2597
 20
47.4203
 30
0
 10
-129.2597
 20
47.4203
 30
0
 10
-129.2597
 20
47.4203
 30
0
 10
-138.0139
 20
27.4089
 30
0
 10
-138.0139
 20
27.4089
 30
0
 10
-138.0139
 20
27.4089
 30
0
 10
-138.0139
 20
27.4089
 30
0
 10
-138.0097
 20
7.4203
 30
0
 10
-138.0097
 20
7.4203
 30
0
 10
-138.0097
 20
7.4203
 30
0
 10
-138.0862
 20
6.7468
 30
0
 10
-138.1872
 20
6.8741
 30
0
 10
-138.471
 20
7.4202
 30
0
 10
-138.471
 20
7.4202
 30
0
 10
-138.471
 20
7.4202
 30
0
 10
-147.915
 20
27.3838
 30
0
 10
-147.915
 20
27.3838
 30
0
  0
SPLINE
  5
A1
100
AcDbEntity
  8
EBENE_1
100
AcDbSpline
370
-1
 62
250
  6
BYLAYER
 70
8
 71
3
 72
60
 73
56
 40
0
 40
0
 40
0
 40
0
 40
0.0714285714285714
 40
0.0714285714285714
 40
0.0714285714285714
 40
0.0714285714285714
 40
0.142857142857143
 40
0.142857142857143
 40
0.142857142857143
 40
0.142857142857143
 40
0.214285714285714
 40
0.214285714285714
 40
0.214285714285714
 40
0.214285714285714
 40
0.285714285714286
 40
0.285714285714286
 40
0.285714285714286
 40
0.285714285714286
 40
0.357142857142857
 40
0.357142857142857
 40
0.357142857142857
 40
0.357142857142857
 40
0.428571428571429
 40
0.428571428571429
 40
0.428571428571429
 40
0.428571428571429
 40
0.5
 40
0.5
 40
0.5
 40
0.5
 40
0.571428571428571
 40
0.571428571428571
 40
0.571428571428571
 40
0.571428571428571
 40
0.642857142857143
 40
0.642857142857143
 40
0.642857142857143
 40
0.642857142857143
 40
0.714285714285714
 40
0.714285714285714
 40
0.714285714285714
 40
0.714285714285714
 40
0.785714285714286
 40
0.785714285714286
 40
0.785714285714286
 40
0.785714285714286
 40
0.857142857142857
 40
0.857142857142857
 40
0.857142857142857
 40
0.857142857142857
 40
0.928571428571428
 40
0.928571428571428
 40
0.928571428571428
 40
0.928571428571428
 40
1
 40
1
 40
1
 40
1
 10
-74.1389
 20
-81.9254
 30
0
 10
-74.1195
 20
-81.0628
 30
0
 10
-74.105
 20
-79.3219
 30
0
 10
-74.141
 20
-78.0226
 30
0
 10
-74.141
 20
-78.0226
 30
0
 10
-74.141
 20
-78.0226
 30
0
 10
-74.1364
 20
-78.0229
 30
0
 10
-74.1364
 20
-78.0229
 30
0
 10
-74.1364
 20
-78.0229
 30
0
 10
-74.1364
 20
-78.0229
 30
0
 10
-74.1364
 20
-77.9282
 30
0
 10
-74.1364
 20
-77.9282
 30
0
 10
-74.1364
 20
-77.9282
 30
0
 10
-74.1795
 20
-77.9257
 30
0
 10
-74.214
 20
-77.8938
 30
0
 10
-74.214
 20
-77.8541
 30
0
 10
-74.214
 20
-77.8541
 30
0
 10
-74.214
 20
-77.8129
 30
0
 10
-74.1768
 20
-77.779
 30
0
 10
-74.1313
 20
-77.7794
 30
0
 10
-74.1313
 20
-77.7794
 30
0
 10
-74.0858
 20
-77.7797
 30
0
 10
-74.0489
 20
-77.8132
 30
0
 10
-74.0489
 20
-77.8541
 30
0
 10
-74.0489
 20
-77.8541
 30
0
 10
-74.0489
 20
-77.8541
 30
0
 10
-74.0489
 20
-77.857
 30
0
 10
-74.0489
 20
-77.857
 30
0
 10
-74.0489
 20
-77.857
 30
0
 10
-74.0489
 20
-77.857
 30
0
 10
-72.0277
 20
-77.8596
 30
0
 10
-72.0277
 20
-77.8596
 30
0
 10
-72.0277
 20
-77.8596
 30
0
 10
-72.0233
 20
-77.8226
 30
0
 10
-71.9894
 20
-77.7929
 30
0
 10
-71.9474
 20
-77.7929
 30
0
 10
-71.9474
 20
-77.7929
 30
0
 10
-71.9015
 20
-77.7929
 30
0
 10
-71.864
 20
-77.8266
 30
0
 10
-71.864
 20
-77.8679
 30
0
 10
-71.864
 20
-77.8679
 30
0
 10
-71.864
 20
-77.9051
 30
0
 10
-71.8947
 20
-77.9348
 30
0
 10
-71.933
 20
-77.9406
 30
0
 10
-71.933
 20
-77.9406
 30
0
 10
-71.933
 20
-77.9406
 30
0
 10
-71.934
 20
-78.0168
 30
0
 10
-71.934
 20
-78.0168
 30
0
 10
-71.934
 20
-78.0168
 30
0
 10
-71.934
 20
-78.0168
 30
0
 10
-71.9361
 20
-78.0258
 30
0
 10
-71.9361
 20
-78.0258
 30
0
 10
-71.9361
 20
-78.0258
 30
0
 10
-71.9764
 20
-79.6394
 30
0
 10
-71.9781
 20
-81.3486
 30
0
 10
-71.9337
 20
-82.9855
 30
0
  0
SPLINE
  5
A2
100
AcDbEntity
  8
EBENE_1
100
AcDbSpline
370
-1
 62
250
  6
BYLAYER
 70
8
 71
3
 72
64
 73
60
 40
0
 40
0
 40
0
 40
0
 40
0.0666666666666667
 40
0.0666666666666667
 40
0.0666666666666667
 40
0.0666666666666667
 40
0.133333333333333
 40
0.133333333333333
 40
0.133333333333333
 40
0.133333333333333
 40
0.2
 40
0.2
 40
0.2
 40
0.2
 40
0.266666666666667
 40
0.266666666666667
 40
0.266666666666667
 40
0.266666666666667
 40
0.333333333333333
 40
0.333333333333333
 40
0.333333333333333
 40
0.333333333333333
 40
0.4
 40
0.4
 40
0.4
 40
0.4
 40
0.466666666666667
 40
0.466666666666667
 40
0.466666666666667
 40
0.466666666666667
 40
0.533333333333333
 40
0.533333333333333
 40
0.533333333333333
 40
0.533333333333333
 40
0.6
 40
0.6
 40
0.6
 40
0.6
 40
0.666666666666667
 40
0.666666666666667
 40
0.666666666666667
 40
0.666666666666667
 40
0.733333333333333
 40
0.733333333333333
 40
0.733333333333333
 40
0.733333333333333
 40
0.8
 40
0.8
 40
0.8
 40
0.8
 40
0.866666666666667
 40
0.866666666666667
 40
0.866666666666667
 40
0.866666666666667
 40
0.933333333333333
 40
0.933333333333333
 40
0.933333333333333
 40
0.933333333333333
 40
1
 40
1
 40
1
 40
1
 10
-94.1338
 20
-71.592
 30
0
 10
-94.1149
 20
-70.7469
 30
0
 10
-94.0901
 20
-70.0152
 30
0
 10
-94.1252
 20
-68.7364
 30
0
 10
-94.1252
 20
-68.7364
 30
0
 10
-94.1252
 20
-68.7364
 30
0
 10
-94.1209
 20
-68.7368
 30
0
 10
-94.1209
 20
-68.7368
 30
0
 10
-94.1209
 20
-68.7368
 30
0
 10
-94.1209
 20
-68.7368
 30
0
 10
-94.1209
 20
-68.6421
 30
0
 10
-94.1209
 20
-68.6421
 30
0
 10
-94.1209
 20
-68.6421
 30
0
 10
-94.1638
 20
-68.6396
 30
0
 10
-94.1982
 20
-68.6075
 30
0
 10
-94.1982
 20
-68.568
 30
0
 10
-94.1982
 20
-68.568
 30
0
 10
-94.1982
 20
-68.5265
 30
0
 10
-94.1612
 20
-68.4928
 30
0
 10
-94.1156
 20
-68.4932
 30
0
 10
-94.1156
 20
-68.4932
 30
0
 10
-94.0699
 20
-68.4935
 30
0
 10
-94.0331
 20
-68.5383
 30
0
 10
-94.0331
 20
-68.5796
 30
0
 10
-94.0331
 20
-68.5796
 30
0
 10
-94.0331
 20
-68.5796
 30
0
 10
-92.0116
 20
-68.5796
 30
0
 10
-92.0116
 20
-68.5796
 30
0
 10
-92.0116
 20
-68.5796
 30
0
 10
-92.0074
 20
-68.542
 30
0
 10
-91.9736
 20
-68.5066
 30
0
 10
-91.9314
 20
-68.5066
 30
0
 10
-91.9314
 20
-68.5066
 30
0
 10
-91.8853
 20
-68.5066
 30
0
 10
-91.8483
 20
-68.5403
 30
0
 10
-91.8483
 20
-68.5817
 30
0
 10
-91.8483
 20
-68.5817
 30
0
 10
-91.8483
 20
-68.6189
 30
0
 10
-91.8785
 20
-68.6486
 30
0
 10
-91.9175
 20
-68.6544
 30
0
 10
-91.9175
 20
-68.6544
 30
0
 10
-91.9175
 20
-68.6544
 30
0
 10
-91.9182
 20
-68.7306
 30
0
 10
-91.9182
 20
-68.7306
 30
0
 10
-91.9182
 20
-68.7306
 30
0
 10
-91.9182
 20
-68.7306
 30
0
 10
-91.9201
 20
-68.7394
 30
0
 10
-91.9201
 20
-68.7394
 30
0
 10
-91.9201
 20
-68.7394
 30
0
 10
-91.9605
 20
-70.3532
 30
0
 10
-91.9679
 20
-71.4429
 30
0
 10
-91.9233
 20
-73.0796
 30
0
 10
-91.9233
 20
-73.0796
 30
0
 10
-91.9233
 20
-73.0796
 30
0
 10
-91.9702
 20
-73.0796
 30
0
 10
-91.9702
 20
-73.0796
 30
0
 10
-91.9702
 20
-73.0796
 30
0
 10
-91.9702
 20
-73.0796
 30
0
 10
-74.1389
 20
-81.9254
 30
0
 10
-74.1389
 20
-81.9254
 30
0
  0
SPLINE
  5
A3
100
AcDbEntity
  8
EBENE_1
100
AcDbSpline
370
-1
 62
250
  6
BYLAYER
 70
8
 71
3
 72
56
 73
52
 40
0
 40
0
 40
0
 40
0
 40
0.0769230769230769
 40
0.0769230769230769
 40
0.0769230769230769
 40
0.0769230769230769
 40
0.153846153846154
 40
0.153846153846154
 40
0.153846153846154
 40
0.153846153846154
 40
0.230769230769231
 40
0.230769230769231
 40
0.230769230769231
 40
0.230769230769231
 40
0.307692307692308
 40
0.307692307692308
 40
0.307692307692308
 40
0.307692307692308
 40
0.384615384615385
 40
0.384615384615385
 40
0.384615384615385
 40
0.384615384615385
 40
0.461538461538462
 40
0.461538461538462
 40
0.461538461538462
 40
0.461538461538462
 40
0.538461538461538
 40
0.538461538461538
 40
0.538461538461538
 40
0.538461538461538
 40
0.615384615384615
 40
0.615384615384615
 40
0.615384615384615
 40
0.615384615384615
 40
0.692307692307692
 40
0.692307692307692
 40
0.692307692307692
 40
0.692307692307692
 40
0.769230769230769
 40
0.769230769230769
 40
0.769230769230769
 40
0.769230769230769
 40
0.846153846153846
 40
0.846153846153846
 40
0.846153846153846
 40
0.846153846153846
 40
0.923076923076923
 40
0.923076923076923
 40
0.923076923076923
 40
0.923076923076923
 40
1
 40
1
 40
1
 40
1
 10
-94.1338
 20
-71.592
 30
0
 10
-94.1338
 20
-71.592
 30
0
 10
-111.9701
 20
-59.3296
 30
0
 10
-111.9701
 20
-59.3296
 30
0
 10
-111.9701
 20
-59.3296
 30
0
 10
-111.9701
 20
-59.3296
 30
0
 10
-111.9244
 20
-59.3296
 30
0
 10
-111.9244
 20
-59.3296
 30
0
 10
-111.9244
 20
-59.3296
 30
0
 10
-111.9681
 20
-57.7248
 30
0
 10
-111.9532
 20
-57.166
 30
0
 10
-111.9145
 20
-55.6454
 30
0
 10
-111.9145
 20
-55.6454
 30
0
 10
-111.9145
 20
-55.6454
 30
0
 10
-111.9103
 20
-55.6464
 30
0
 10
-111.9103
 20
-55.6464
 30
0
 10
-111.9103
 20
-55.6464
 30
0
 10
-111.8649
 20
-55.6464
 30
0
 10
-111.8276
 20
-55.6126
 30
0
 10
-111.8276
 20
-55.5713
 30
0
 10
-111.8276
 20
-55.5713
 30
0
 10
-111.8276
 20
-55.53
 30
0
 10
-111.8646
 20
-55.4965
 30
0
 10
-111.9099
 20
-55.4961
 30
0
 10
-111.9099
 20
-55.4961
 30
0
 10
-111.9558
 20
-55.4958
 30
0
 10
-111.9927
 20
-55.53
 30
0
 10
-111.9927
 20
-55.5713
 30
0
 10
-111.9927
 20
-55.5713
 30
0
 10
-111.9927
 20
-55.5713
 30
0
 10
-111.9905
 20
-55.5806
 30
0
 10
-111.9905
 20
-55.5806
 30
0
 10
-111.9905
 20
-55.5806
 30
0
 10
-111.9905
 20
-55.5806
 30
0
 10
-114.0121
 20
-55.5778
 30
0
 10
-114.0121
 20
-55.5778
 30
0
 10
-114.0121
 20
-55.5778
 30
0
 10
-114.0121
 20
-55.5365
 30
0
 10
-114.0483
 20
-55.5023
 30
0
 10
-114.0943
 20
-55.5023
 30
0
 10
-114.0943
 20
-55.5023
 30
0
 10
-114.14
 20
-55.5021
 30
0
 10
-114.1774
 20
-55.5358
 30
0
 10
-114.1774
 20
-55.5771
 30
0
 10
-114.1774
 20
-55.5771
 30
0
 10
-114.1774
 20
-55.6171
 30
0
 10
-114.143
 20
-55.6489
 30
0
 10
-114.0995
 20
-55.6512
 30
0
 10
-114.0995
 20
-55.6512
 30
0
 10
-114.0825
 20
-56.2617
 30
0
 10
-114.1051
 20
-56.4818
 30
0
 10
-114.1051
 20
-56.7891
 30
0
  0
SPLINE
  5
A4
100
AcDbEntity
  8
EBENE_1
100
AcDbSpline
370
-1
 62
250
  6
BYLAYER
 70
8
 71
3
 72
80
 73
76
 40
0
 40
0
 40
0
 40
0
 40
0.0526315789473684
 40
0.0526315789473684
 40
0.0526315789473684
 40
0.0526315789473684
 40
0.105263157894737
 40
0.105263157894737
 40
0.105263157894737
 40
0.105263157894737
 40
0.157894736842105
 40
0.157894736842105
 40
0.157894736842105
 40
0.157894736842105
 40
0.210526315789474
 40
0.210526315789474
 40
0.210526315789474
 40
0.210526315789474
 40
0.263157894736842
 40
0.263157894736842
 40
0.263157894736842
 40
0.263157894736842
 40
0.31578947368421
 40
0.31578947368421
 40
0.31578947368421
 40
0.31578947368421
 40
0.368421052631579
 40
0.368421052631579
 40
0.368421052631579
 40
0.368421052631579
 40
0.421052631578947
 40
0.421052631578947
 40
0.421052631578947
 40
0.421052631578947
 40
0.473684210526316
 40
0.473684210526316
 40
0.473684210526316
 40
0.473684210526316
 40
0.526315789473684
 40
0.526315789473684
 40
0.526315789473684
 40
0.526315789473684
 40
0.578947368421053
 40
0.578947368421053
 40
0.578947368421053
 40
0.578947368421053
 40
0.631578947368421
 40
0.631578947368421
 40
0.631578947368421
 40
0.631578947368421
 40
0.68421052631579
 40
0.68421052631579
 40
0.68421052631579
 40
0.68421052631579
 40
0.736842105263158
 40
0.736842105263158
 40
0.736842105263158
 40
0.736842105263158
 40
0.789473684210527
 40
0.789473684210527
 40
0.789473684210527
 40
0.789473684210527
 40
0.842105263157895
 40
0.842105263157895
 40
0.842105263157895
 40
0.842105263157895
 40
0.894736842105263
 40
0.894736842105263
 40
0.894736842105263
 40
0.894736842105263
 40
0.947368421052632
 40
0.947368421052632
 40
0.947368421052632
 40
0.947368421052632
 40
1
 40
1
 40
1
 40
1
 10
-131.9882
 20
-23.6477
 30
0
 10
-131.9882
 20
-23.6477
 30
0
 10
-131.9806
 20
-13.6593
 30
0
 10
-131.9806
 20
-13.6593
 30
0
 10
-131.9806
 20
-13.6593
 30
0
 10
-131.9806
 20
-13.6593
 30
0
 10
-131.9813
 20
-13.6616
 30
0
 10
-131.9813
 20
-13.6616
 30
0
 10
-131.9813
 20
-13.6616
 30
0
 10
-131.9813
 20
-13.6616
 30
0
 10
-131.9813
 20
-12.7153
 30
0
 10
-131.9813
 20
-12.7153
 30
0
 10
-131.9813
 20
-12.7153
 30
0
 10
-131.9813
 20
-11.8702
 30
0
 10
-131.2859
 20
-11.204
 30
0
 10
-130.4578
 20
-11.2054
 30
0
 10
-130.4578
 20
-11.2054
 30
0
 10
-130.4578
 20
-11.2054
 30
0
 10
-128.5981
 20
-11.2142
 30
0
 10
-128.5981
 20
-11.2142
 30
0
 10
-128.5981
 20
-11.2142
 30
0
 10
-128.5981
 20
-11.2142
 30
0
 10
-128.5981
 20
-12.1038
 30
0
 10
-128.5981
 20
-12.1038
 30
0
 10
-128.5981
 20
-12.1038
 30
0
 10
-128.5981
 20
-12.1038
 30
0
 10
-128.5981
 20
-12.1041
 30
0
 10
-128.5981
 20
-12.1041
 30
0
 10
-128.5981
 20
-12.1041
 30
0
 10
-128.5981
 20
-12.1041
 30
0
 10
-126.628
 20
-12.1048
 30
0
 10
-126.628
 20
-12.1048
 30
0
 10
-126.628
 20
-12.1048
 30
0
 10
-126.628
 20
-12.1048
 30
0
 10
-126.5587
 20
-12.1055
 30
0
 10
-126.5587
 20
-12.1055
 30
0
 10
-126.5587
 20
-12.1055
 30
0
 10
-126.5587
 20
-12.8245
 30
0
 10
-126.5511
 20
-13.608
 30
0
 10
-126.5511
 20
-14.3143
 30
0
 10
-126.5511
 20
-14.3143
 30
0
 10
-126.5511
 20
-14.3143
 30
0
 10
-128.6231
 20
-14.3074
 30
0
 10
-128.6231
 20
-14.3074
 30
0
 10
-128.6231
 20
-14.3074
 30
0
 10
-128.6231
 20
-14.3074
 30
0
 10
-128.62
 20
-35.3441
 30
0
 10
-128.62
 20
-35.3441
 30
0
 10
-128.62
 20
-35.3441
 30
0
 10
-128.62
 20
-35.3441
 30
0
 10
-126.5491
 20
-35.3978
 30
0
 10
-126.5491
 20
-35.3978
 30
0
 10
-126.5491
 20
-35.3978
 30
0
 10
-126.5491
 20
-35.3978
 30
0
 10
-111.9701
 20
-53.0794
 30
0
 10
-111.9701
 20
-53.0794
 30
0
 10
-111.9701
 20
-53.0794
 30
0
 10
-111.9701
 20
-53.0794
 30
0
 10
-91.9702
 20
-64.3293
 30
0
 10
-91.9702
 20
-64.3293
 30
0
 10
-91.9702
 20
-64.3293
 30
0
 10
-91.9702
 20
-64.3293
 30
0
 10
-71.9583
 20
-73.0837
 30
0
 10
-71.9583
 20
-73.0837
 30
0
 10
-71.9583
 20
-73.0837
 30
0
 10
-71.9583
 20
-73.0837
 30
0
 10
-51.97
 20
-73.0796
 30
0
 10
-51.97
 20
-73.0796
 30
0
 10
-51.97
 20
-73.0796
 30
0
 10
-51.2966
 20
-73.156
 30
0
 10
-51.4239
 20
-73.2571
 30
0
 10
-51.97
 20
-73.5409
 30
0
 10
-51.97
 20
-73.5409
 30
0
 10
-51.97
 20
-73.5409
 30
0
 10
-71.9336
 20
-82.9855
 30
0
 10
-71.9336
 20
-82.9855
 30
0
  0
SPLINE
  5
A5
100
AcDbEntity
  8
EBENE_1
100
AcDbSpline
370
-1
 62
250
  6
BYLAYER
 70
8
 71
3
 72
12
 73
8
 40
0
 40
0
 40
0
 40
0
 40
0.5
 40
0.5
 40
0.5
 40
0.5
 40
1
 40
1
 40
1
 40
1
 10
-114.1051
 20
-56.7891
 30
0
 10
-114.1051
 20
-56.7891
 30
0
 10
-131.9972
 20
-35.5026
 30
0
 10
-131.9972
 20
-35.5026
 30
0
 10
-131.9972
 20
-35.5026
 30
0
 10
-131.9972
 20
-35.5026
 30
0
 10
-131.9889
 20
-24.572
 30
0
 10
-131.9889
 20
-24.572
 30
0
  0
SPLINE
  5
A6
100
AcDbEntity
  8
EBENE_1
100
AcDbSpline
370
-1
 62
250
  6
BYLAYER
 70
24
 71
3
 72
8
 73
4
 40
0
 40
0
 40
0
 40
0
 40
1
 40
1
 40
1
 40
1
 10
-131.9882
 20
-23.6477
 30
0
 10
-131.9882
 20
-23.6477
 30
0
 10
-131.9889
 20
-24.572
 30
0
 10
-131.9889
 20
-24.572
 30
0
  0
SPLINE
  5
A7
100
AcDbEntity
  8
EBENE_1
100
AcDbSpline
370
-1
 62
250
  6
BYLAYER
 70
8
 71
3
 72
60
 73
56
 40
0
 40
0
 40
0
 40
0
 40
0.0714285714285714
 40
0.0714285714285714
 40
0.0714285714285714
 40
0.0714285714285714
 40
0.142857142857143
 40
0.142857142857143
 40
0.142857142857143
 40
0.142857142857143
 40
0.214285714285714
 40
0.214285714285714
 40
0.214285714285714
 40
0.214285714285714
 40
0.285714285714286
 40
0.285714285714286
 40
0.285714285714286
 40
0.285714285714286
 40
0.357142857142857
 40
0.357142857142857
 40
0.357142857142857
 40
0.357142857142857
 40
0.428571428571429
 40
0.428571428571429
 40
0.428571428571429
 40
0.428571428571429
 40
0.5
 40
0.5
 40
0.5
 40
0.5
 40
0.571428571428571
 40
0.571428571428571
 40
0.571428571428571
 40
0.571428571428571
 40
0.642857142857143
 40
0.642857142857143
 40
0.642857142857143
 40
0.642857142857143
 40
0.714285714285714
 40
0.714285714285714
 40
0.714285714285714
 40
0.714285714285714
 40
0.785714285714286
 40
0.785714285714286
 40
0.785714285714286
 40
0.785714285714286
 40
0.857142857142857
 40
0.857142857142857
 40
0.857142857142857
 40
0.857142857142857
 40
0.928571428571428
 40
0.928571428571428
 40
0.928571428571428
 40
0.928571428571428
 40
1
 40
1
 40
1
 40
1
 10
-79.5731
 20
-92.1841
 30
0
 10
-79.5538
 20
-91.3199
 30
0
 10
-79.5394
 20
-89.5807
 30
0
 10
-79.5752
 20
-88.2807
 30
0
 10
-79.5752
 20
-88.2807
 30
0
 10
-79.5752
 20
-88.2807
 30
0
 10
-79.5708
 20
-88.2807
 30
0
 10
-79.5708
 20
-88.2807
 30
0
 10
-79.5708
 20
-88.2807
 30
0
 10
-79.5708
 20
-88.2807
 30
0
 10
-79.5708
 20
-88.1854
 30
0
 10
-79.5708
 20
-88.1854
 30
0
 10
-79.5708
 20
-88.1854
 30
0
 10
-79.6138
 20
-88.1837
 30
0
 10
-79.6482
 20
-88.1519
 30
0
 10
-79.6482
 20
-88.1113
 30
0
 10
-79.6482
 20
-88.1113
 30
0
 10
-79.6482
 20
-88.0708
 30
0
 10
-79.611
 20
-88.0373
 30
0
 10
-79.5655
 20
-88.0373
 30
0
 10
-79.5655
 20
-88.0373
 30
0
 10
-79.5202
 20
-88.0373
 30
0
 10
-79.4833
 20
-88.0708
 30
0
 10
-79.4833
 20
-88.1113
 30
0
 10
-79.4833
 20
-88.1113
 30
0
 10
-79.4833
 20
-88.1113
 30
0
 10
-79.4833
 20
-88.1149
 30
0
 10
-79.4833
 20
-88.1149
 30
0
 10
-79.4833
 20
-88.1149
 30
0
 10
-79.4833
 20
-88.1149
 30
0
 10
-77.4621
 20
-88.1166
 30
0
 10
-77.4621
 20
-88.1166
 30
0
 10
-77.4621
 20
-88.1166
 30
0
 10
-77.4574
 20
-88.0796
 30
0
 10
-77.4238
 20
-88.0514
 30
0
 10
-77.3818
 20
-88.0514
 30
0
 10
-77.3818
 20
-88.0514
 30
0
 10
-77.3359
 20
-88.0514
 30
0
 10
-77.2984
 20
-88.0849
 30
0
 10
-77.2984
 20
-88.1255
 30
0
 10
-77.2984
 20
-88.1255
 30
0
 10
-77.2984
 20
-88.1625
 30
0
 10
-77.3291
 20
-88.1925
 30
0
 10
-77.3673
 20
-88.1978
 30
0
 10
-77.3673
 20
-88.1978
 30
0
 10
-77.3673
 20
-88.1978
 30
0
 10
-77.3682
 20
-88.2754
 30
0
 10
-77.3682
 20
-88.2754
 30
0
 10
-77.3682
 20
-88.2754
 30
0
 10
-77.3682
 20
-88.2754
 30
0
 10
-77.3703
 20
-88.2842
 30
0
 10
-77.3703
 20
-88.2842
 30
0
 10
-77.3703
 20
-88.2842
 30
0
 10
-77.4107
 20
-89.8964
 30
0
 10
-77.4123
 20
-91.6056
 30
0
 10
-77.3679
 20
-93.2425
 30
0
  0
SPLINE
  5
A8
100
AcDbEntity
  8
EBENE_1
100
AcDbSpline
370
-1
 62
250
  6
BYLAYER
 70
8
 71
3
 72
64
 73
60
 40
0
 40
0
 40
0
 40
0
 40
0.0666666666666667
 40
0.0666666666666667
 40
0.0666666666666667
 40
0.0666666666666667
 40
0.133333333333333
 40
0.133333333333333
 40
0.133333333333333
 40
0.133333333333333
 40
0.2
 40
0.2
 40
0.2
 40
0.2
 40
0.266666666666667
 40
0.266666666666667
 40
0.266666666666667
 40
0.266666666666667
 40
0.333333333333333
 40
0.333333333333333
 40
0.333333333333333
 40
0.333333333333333
 40
0.4
 40
0.4
 40
0.4
 40
0.4
 40
0.466666666666667
 40
0.466666666666667
 40
0.466666666666667
 40
0.466666666666667
 40
0.533333333333333
 40
0.533333333333333
 40
0.533333333333333
 40
0.533333333333333
 40
0.6
 40
0.6
 40
0.6
 40
0.6
 40
0.666666666666667
 40
0.666666666666667
 40
0.666666666666667
 40
0.666666666666667
 40
0.733333333333333
 40
0.733333333333333
 40
0.733333333333333
 40
0.733333333333333
 40
0.8
 40
0.8
 40
0.8
 40
0.8
 40
0.866666666666667
 40
0.866666666666667
 40
0.866666666666667
 40
0.866666666666667
 40
0.933333333333333
 40
0.933333333333333
 40
0.933333333333333
 40
0.933333333333333
 40
1
 40
1
 40
1
 40
1
 10
-99.5682
 20
-81.8495
 30
0
 10
-99.5491
 20
-81.0046
 30
0
 10
-99.5244
 20
-80.2726
 30
0
 10
-99.5595
 20
-78.9938
 30
0
 10
-99.5595
 20
-78.9938
 30
0
 10
-99.5595
 20
-78.9938
 30
0
 10
-99.5551
 20
-78.9938
 30
0
 10
-99.5551
 20
-78.9938
 30
0
 10
-99.5551
 20
-78.9938
 30
0
 10
-99.5551
 20
-78.9938
 30
0
 10
-99.5551
 20
-78.9003
 30
0
 10
-99.5551
 20
-78.9003
 30
0
 10
-99.5551
 20
-78.9003
 30
0
 10
-99.5982
 20
-78.8968
 30
0
 10
-99.6326
 20
-78.865
 30
0
 10
-99.6326
 20
-78.8262
 30
0
 10
-99.6326
 20
-78.8262
 30
0
 10
-99.6326
 20
-78.7839
 30
0
 10
-99.5953
 20
-78.7504
 30
0
 10
-99.5498
 20
-78.7504
 30
0
 10
-99.5498
 20
-78.7504
 30
0
 10
-99.5041
 20
-78.7521
 30
0
 10
-99.4673
 20
-78.7962
 30
0
 10
-99.4673
 20
-78.8368
 30
0
 10
-99.4673
 20
-78.8368
 30
0
 10
-99.4673
 20
-78.8368
 30
0
 10
-97.446
 20
-78.8368
 30
0
 10
-97.446
 20
-78.8368
 30
0
 10
-97.446
 20
-78.8368
 30
0
 10
-97.4414
 20
-78.7998
 30
0
 10
-97.4078
 20
-78.7645
 30
0
 10
-97.3656
 20
-78.7645
 30
0
 10
-97.3656
 20
-78.7645
 30
0
 10
-97.3196
 20
-78.7645
 30
0
 10
-97.2827
 20
-78.798
 30
0
 10
-97.2827
 20
-78.8403
 30
0
 10
-97.2827
 20
-78.8403
 30
0
 10
-97.2827
 20
-78.8774
 30
0
 10
-97.3127
 20
-78.9056
 30
0
 10
-97.3515
 20
-78.9127
 30
0
 10
-97.3515
 20
-78.9127
 30
0
 10
-97.3515
 20
-78.9127
 30
0
 10
-97.3522
 20
-78.9885
 30
0
 10
-97.3522
 20
-78.9885
 30
0
 10
-97.3522
 20
-78.9885
 30
0
 10
-97.3522
 20
-78.9885
 30
0
 10
-97.3543
 20
-78.9973
 30
0
 10
-97.3543
 20
-78.9973
 30
0
 10
-97.3543
 20
-78.9973
 30
0
 10
-97.3947
 20
-80.6113
 30
0
 10
-97.4023
 20
-81.7014
 30
0
 10
-97.3575
 20
-83.3383
 30
0
 10
-97.3575
 20
-83.3383
 30
0
 10
-97.3575
 20
-83.3383
 30
0
 10
-97.4042
 20
-83.3383
 30
0
 10
-97.4042
 20
-83.3383
 30
0
 10
-97.4042
 20
-83.3383
 30
0
 10
-97.4042
 20
-83.3383
 30
0
 10
-79.5731
 20
-92.1841
 30
0
 10
-79.5731
 20
-92.1841
 30
0
  0
SPLINE
  5
A9
100
AcDbEntity
  8
EBENE_1
100
AcDbSpline
370
-1
 62
250
  6
BYLAYER
 70
8
 71
3
 72
56
 73
52
 40
0
 40
0
 40
0
 40
0
 40
0.0769230769230769
 40
0.0769230769230769
 40
0.0769230769230769
 40
0.0769230769230769
 40
0.153846153846154
 40
0.153846153846154
 40
0.153846153846154
 40
0.153846153846154
 40
0.230769230769231
 40
0.230769230769231
 40
0.230769230769231
 40
0.230769230769231
 40
0.307692307692308
 40
0.307692307692308
 40
0.307692307692308
 40
0.307692307692308
 40
0.384615384615385
 40
0.384615384615385
 40
0.384615384615385
 40
0.384615384615385
 40
0.461538461538462
 40
0.461538461538462
 40
0.461538461538462
 40
0.461538461538462
 40
0.538461538461538
 40
0.538461538461538
 40
0.538461538461538
 40
0.538461538461538
 40
0.615384615384615
 40
0.615384615384615
 40
0.615384615384615
 40
0.615384615384615
 40
0.692307692307692
 40
0.692307692307692
 40
0.692307692307692
 40
0.692307692307692
 40
0.769230769230769
 40
0.769230769230769
 40
0.769230769230769
 40
0.769230769230769
 40
0.846153846153846
 40
0.846153846153846
 40
0.846153846153846
 40
0.846153846153846
 40
0.923076923076923
 40
0.923076923076923
 40
0.923076923076923
 40
0.923076923076923
 40
1
 40
1
 40
1
 40
1
 10
-99.5682
 20
-81.8495
 30
0
 10
-99.5682
 20
-81.8495
 30
0
 10
-117.4045
 20
-69.5873
 30
0
 10
-117.4045
 20
-69.5873
 30
0
 10
-117.4045
 20
-69.5873
 30
0
 10
-117.4045
 20
-69.5873
 30
0
 10
-117.3586
 20
-69.5873
 30
0
 10
-117.3586
 20
-69.5873
 30
0
 10
-117.3586
 20
-69.5873
 30
0
 10
-117.4023
 20
-67.9825
 30
0
 10
-117.3872
 20
-67.4237
 30
0
 10
-117.3487
 20
-65.9031
 30
0
 10
-117.3487
 20
-65.9031
 30
0
 10
-117.3487
 20
-65.9031
 30
0
 10
-117.3445
 20
-65.9041
 30
0
 10
-117.3445
 20
-65.9041
 30
0
 10
-117.3445
 20
-65.9041
 30
0
 10
-117.299
 20
-65.9041
 30
0
 10
-117.2618
 20
-65.8705
 30
0
 10
-117.2618
 20
-65.829
 30
0
 10
-117.2618
 20
-65.829
 30
0
 10
-117.2618
 20
-65.7877
 30
0
 10
-117.2986
 20
-65.7544
 30
0
 10
-117.3441
 20
-65.754
 30
0
 10
-117.3441
 20
-65.754
 30
0
 10
-117.39
 20
-65.7537
 30
0
 10
-117.4269
 20
-65.7877
 30
0
 10
-117.4269
 20
-65.829
 30
0
 10
-117.4269
 20
-65.829
 30
0
 10
-117.4269
 20
-65.829
 30
0
 10
-117.4247
 20
-65.8384
 30
0
 10
-117.4247
 20
-65.8384
 30
0
 10
-117.4247
 20
-65.8384
 30
0
 10
-117.4247
 20
-65.8384
 30
0
 10
-119.4463
 20
-65.8357
 30
0
 10
-119.4463
 20
-65.8357
 30
0
 10
-119.4463
 20
-65.8357
 30
0
 10
-119.4463
 20
-65.7943
 30
0
 10
-119.4825
 20
-65.7602
 30
0
 10
-119.5287
 20
-65.7602
 30
0
 10
-119.5287
 20
-65.7602
 30
0
 10
-119.5742
 20
-65.7598
 30
0
 10
-119.6118
 20
-65.7935
 30
0
 10
-119.6118
 20
-65.835
 30
0
 10
-119.6118
 20
-65.835
 30
0
 10
-119.6118
 20
-65.8748
 30
0
 10
-119.5772
 20
-65.9066
 30
0
 10
-119.5335
 20
-65.9091
 30
0
 10
-119.5335
 20
-65.9091
 30
0
 10
-119.5167
 20
-66.5197
 30
0
 10
-119.5393
 20
-66.7397
 30
0
 10
-119.5393
 20
-67.0473
 30
0
  0
SPLINE
  5
AA
100
AcDbEntity
  8
EBENE_1
100
AcDbSpline
370
-1
 62
250
  6
BYLAYER
 70
8
 71
3
 72
44
 73
40
 40
0
 40
0
 40
0
 40
0
 40
0.1
 40
0.1
 40
0.1
 40
0.1
 40
0.2
 40
0.2
 40
0.2
 40
0.2
 40
0.3
 40
0.3
 40
0.3
 40
0.3
 40
0.4
 40
0.4
 40
0.4
 40
0.4
 40
0.5
 40
0.5
 40
0.5
 40
0.5
 40
0.6
 40
0.6
 40
0.6
 40
0.6
 40
0.7
 40
0.7
 40
0.7
 40
0.7
 40
0.8
 40
0.8
 40
0.8
 40
0.8
 40
0.9
 40
0.9
 40
0.9
 40
0.9
 40
1
 40
1
 40
1
 40
1
 10
-131.993
 20
-22.3632
 30
0
 10
-131.993
 20
-22.3632
 30
0
 10
-132.0623
 20
-22.3627
 30
0
 10
-132.0623
 20
-22.3627
 30
0
 10
-132.0623
 20
-22.3627
 30
0
 10
-132.0623
 20
-22.3627
 30
0
 10
-134.0322
 20
-22.362
 30
0
 10
-134.0322
 20
-22.362
 30
0
 10
-134.0322
 20
-22.362
 30
0
 10
-134.0322
 20
-22.362
 30
0
 10
-134.0322
 20
-22.3616
 30
0
 10
-134.0322
 20
-22.3616
 30
0
 10
-134.0322
 20
-22.3616
 30
0
 10
-134.0322
 20
-22.3616
 30
0
 10
-134.0322
 20
-21.4721
 30
0
 10
-134.0322
 20
-21.4721
 30
0
 10
-134.0322
 20
-21.4721
 30
0
 10
-134.0322
 20
-21.4721
 30
0
 10
-135.8919
 20
-21.4631
 30
0
 10
-135.8919
 20
-21.4631
 30
0
 10
-135.8919
 20
-21.4631
 30
0
 10
-136.7201
 20
-21.4617
 30
0
 10
-137.4155
 20
-22.128
 30
0
 10
-137.4155
 20
-22.9732
 30
0
 10
-137.4155
 20
-22.9732
 30
0
 10
-137.4155
 20
-22.9732
 30
0
 10
-137.4154
 20
-23.9195
 30
0
 10
-137.4154
 20
-23.9195
 30
0
 10
-137.4154
 20
-23.9195
 30
0
 10
-137.4154
 20
-23.9195
 30
0
 10
-137.4149
 20
-23.917
 30
0
 10
-137.4149
 20
-23.917
 30
0
 10
-137.4149
 20
-23.917
 30
0
 10
-137.4149
 20
-23.917
 30
0
 10
-137.4315
 20
-45.7604
 30
0
 10
-137.4315
 20
-45.7604
 30
0
 10
-137.4315
 20
-45.7604
 30
0
 10
-137.4315
 20
-45.7604
 30
0
 10
-119.5393
 20
-67.0473
 30
0
 10
-119.5393
 20
-67.0473
 30
0
  0
SPLINE
  5
AB
100
AcDbEntity
  8
EBENE_1
100
AcDbSpline
370
-1
 62
250
  6
BYLAYER
 70
8
 71
3
 72
40
 73
36
 40
0
 40
0
 40
0
 40
0
 40
0.111111111111111
 40
0.111111111111111
 40
0.111111111111111
 40
0.111111111111111
 40
0.222222222222222
 40
0.222222222222222
 40
0.222222222222222
 40
0.222222222222222
 40
0.333333333333333
 40
0.333333333333333
 40
0.333333333333333
 40
0.333333333333333
 40
0.444444444444444
 40
0.444444444444444
 40
0.444444444444444
 40
0.444444444444444
 40
0.555555555555556
 40
0.555555555555556
 40
0.555555555555556
 40
0.555555555555556
 40
0.666666666666667
 40
0.666666666666667
 40
0.666666666666667
 40
0.666666666666667
 40
0.777777777777778
 40
0.777777777777778
 40
0.777777777777778
 40
0.777777777777778
 40
0.888888888888889
 40
0.888888888888889
 40
0.888888888888889
 40
0.888888888888889
 40
1
 40
1
 40
1
 40
1
 10
-131.9889
 20
-24.572
 30
0
 10
-131.9889
 20
-24.572
 30
0
 10
-134.0573
 20
-24.5651
 30
0
 10
-134.0573
 20
-24.5651
 30
0
 10
-134.0573
 20
-24.5651
 30
0
 10
-134.0573
 20
-24.5651
 30
0
 10
-134.0541
 20
-45.6019
 30
0
 10
-134.0541
 20
-45.6019
 30
0
 10
-134.0541
 20
-45.6019
 30
0
 10
-134.0541
 20
-45.6019
 30
0
 10
-131.9834
 20
-45.6556
 30
0
 10
-131.9834
 20
-45.6556
 30
0
 10
-131.9834
 20
-45.6556
 30
0
 10
-131.9834
 20
-45.6556
 30
0
 10
-117.4045
 20
-63.3372
 30
0
 10
-117.4045
 20
-63.3372
 30
0
 10
-117.4045
 20
-63.3372
 30
0
 10
-117.4045
 20
-63.3372
 30
0
 10
-97.4042
 20
-74.5872
 30
0
 10
-97.4042
 20
-74.5872
 30
0
 10
-97.4042
 20
-74.5872
 30
0
 10
-97.4042
 20
-74.5872
 30
0
 10
-77.3927
 20
-83.3418
 30
0
 10
-77.3927
 20
-83.3418
 30
0
 10
-77.3927
 20
-83.3418
 30
0
 10
-77.3927
 20
-83.3418
 30
0
 10
-57.4043
 20
-83.3383
 30
0
 10
-57.4043
 20
-83.3383
 30
0
 10
-57.4043
 20
-83.3383
 30
0
 10
-56.7307
 20
-83.4141
 30
0
 10
-56.8583
 20
-83.5146
 30
0
 10
-57.4044
 20
-83.7986
 30
0
 10
-57.4044
 20
-83.7986
 30
0
 10
-57.4044
 20
-83.7986
 30
0
 10
-77.3678
 20
-93.2425
 30
0
 10
-77.3678
 20
-93.2425
 30
0
  0
SPLINE
  5
AC
100
AcDbEntity
  8
EBENE_1
100
AcDbSpline
370
-1
 62
250
  6
BYLAYER
 70
8
 71
3
 72
60
 73
56
 40
0
 40
0
 40
0
 40
0
 40
0.0714285714285714
 40
0.0714285714285714
 40
0.0714285714285714
 40
0.0714285714285714
 40
0.142857142857143
 40
0.142857142857143
 40
0.142857142857143
 40
0.142857142857143
 40
0.214285714285714
 40
0.214285714285714
 40
0.214285714285714
 40
0.214285714285714
 40
0.285714285714286
 40
0.285714285714286
 40
0.285714285714286
 40
0.285714285714286
 40
0.357142857142857
 40
0.357142857142857
 40
0.357142857142857
 40
0.357142857142857
 40
0.428571428571429
 40
0.428571428571429
 40
0.428571428571429
 40
0.428571428571429
 40
0.5
 40
0.5
 40
0.5
 40
0.5
 40
0.571428571428571
 40
0.571428571428571
 40
0.571428571428571
 40
0.571428571428571
 40
0.642857142857143
 40
0.642857142857143
 40
0.642857142857143
 40
0.642857142857143
 40
0.714285714285714
 40
0.714285714285714
 40
0.714285714285714
 40
0.714285714285714
 40
0.785714285714286
 40
0.785714285714286
 40
0.785714285714286
 40
0.785714285714286
 40
0.857142857142857
 40
0.857142857142857
 40
0.857142857142857
 40
0.857142857142857
 40
0.928571428571428
 40
0.928571428571428
 40
0.928571428571428
 40
0.928571428571428
 40
1
 40
1
 40
1
 40
1
 10
31.6925
 20
-19.499
 30
0
 10
30.83
 20
-19.4798
 30
0
 10
29.0889
 20
-19.4654
 30
0
 10
27.7888
 20
-19.5012
 30
0
 10
27.7888
 20
-19.5012
 30
0
 10
27.7888
 20
-19.5012
 30
0
 10
27.7891
 20
-19.4968
 30
0
 10
27.7891
 20
-19.4968
 30
0
 10
27.7891
 20
-19.4968
 30
0
 10
27.7891
 20
-19.4968
 30
0
 10
27.6943
 20
-19.4968
 30
0
 10
27.6943
 20
-19.4968
 30
0
 10
27.6943
 20
-19.4968
 30
0
 10
27.6943
 20
-19.5398
 30
0
 10
27.6598
 20
-19.5742
 30
0
 10
27.6203
 20
-19.5742
 30
0
 10
27.6203
 20
-19.5742
 30
0
 10
27.5789
 20
-19.5734
 30
0
 10
27.5455
 20
-19.537
 30
0
 10
27.5455
 20
-19.4915
 30
0
 10
27.5455
 20
-19.4915
 30
0
 10
27.5455
 20
-19.446
 30
0
 10
27.5792
 20
-19.4091
 30
0
 10
27.6207
 20
-19.4091
 30
0
 10
27.6207
 20
-19.4091
 30
0
 10
27.6207
 20
-19.4091
 30
0
 10
27.623
 20
-19.4091
 30
0
 10
27.623
 20
-19.4091
 30
0
 10
27.623
 20
-19.4091
 30
0
 10
27.623
 20
-19.4091
 30
0
 10
27.6258
 20
-17.3879
 30
0
 10
27.6258
 20
-17.3879
 30
0
 10
27.6258
 20
-17.3879
 30
0
 10
27.5886
 20
-17.3834
 30
0
 10
27.559
 20
-17.3498
 30
0
 10
27.559
 20
-17.3076
 30
0
 10
27.559
 20
-17.3076
 30
0
 10
27.559
 20
-17.2619
 30
0
 10
27.5926
 20
-17.2247
 30
0
 10
27.6341
 20
-17.2243
 30
0
 10
27.6341
 20
-17.2243
 30
0
 10
27.6717
 20
-17.2247
 30
0
 10
27.7009
 20
-17.255
 30
0
 10
27.7068
 20
-17.2931
 30
0
 10
27.7068
 20
-17.2931
 30
0
 10
27.7068
 20
-17.2931
 30
0
 10
27.7828
 20
-17.2942
 30
0
 10
27.7828
 20
-17.2942
 30
0
 10
27.7828
 20
-17.2942
 30
0
 10
27.7828
 20
-17.2942
 30
0
 10
27.7918
 20
-17.2963
 30
0
 10
27.7918
 20
-17.2963
 30
0
 10
27.7918
 20
-17.2963
 30
0
 10
29.4047
 20
-17.3365
 30
0
 10
31.1139
 20
-17.3383
 30
0
 10
32.7508
 20
-17.2938
 30
0
  0
SPLINE
  5
AD
100
AcDbEntity
  8
EBENE_1
100
AcDbSpline
370
-1
 62
250
  6
BYLAYER
 70
8
 71
3
 72
64
 73
60
 40
0
 40
0
 40
0
 40
0
 40
0.0666666666666667
 40
0.0666666666666667
 40
0.0666666666666667
 40
0.0666666666666667
 40
0.133333333333333
 40
0.133333333333333
 40
0.133333333333333
 40
0.133333333333333
 40
0.2
 40
0.2
 40
0.2
 40
0.2
 40
0.266666666666667
 40
0.266666666666667
 40
0.266666666666667
 40
0.266666666666667
 40
0.333333333333333
 40
0.333333333333333
 40
0.333333333333333
 40
0.333333333333333
 40
0.4
 40
0.4
 40
0.4
 40
0.4
 40
0.466666666666667
 40
0.466666666666667
 40
0.466666666666667
 40
0.466666666666667
 40
0.533333333333333
 40
0.533333333333333
 40
0.533333333333333
 40
0.533333333333333
 40
0.6
 40
0.6
 40
0.6
 40
0.6
 40
0.666666666666667
 40
0.666666666666667
 40
0.666666666666667
 40
0.666666666666667
 40
0.733333333333333
 40
0.733333333333333
 40
0.733333333333333
 40
0.733333333333333
 40
0.8
 40
0.8
 40
0.8
 40
0.8
 40
0.866666666666667
 40
0.866666666666667
 40
0.866666666666667
 40
0.866666666666667
 40
0.933333333333333
 40
0.933333333333333
 40
0.933333333333333
 40
0.933333333333333
 40
1
 40
1
 40
1
 40
1
 10
21.3582
 20
-39.4941
 30
0
 10
20.5131
 20
-39.4751
 30
0
 10
19.7813
 20
-39.4504
 30
0
 10
18.5024
 20
-39.4855
 30
0
 10
18.5024
 20
-39.4855
 30
0
 10
18.5024
 20
-39.4855
 30
0
 10
18.5029
 20
-39.4809
 30
0
 10
18.5029
 20
-39.4809
 30
0
 10
18.5029
 20
-39.4809
 30
0
 10
18.5029
 20
-39.4809
 30
0
 10
18.4081
 20
-39.4809
 30
0
 10
18.4081
 20
-39.4809
 30
0
 10
18.4081
 20
-39.4809
 30
0
 10
18.4081
 20
-39.5241
 30
0
 10
18.3737
 20
-39.5585
 30
0
 10
18.334
 20
-39.5585
 30
0
 10
18.334
 20
-39.5585
 30
0
 10
18.2927
 20
-39.5581
 30
0
 10
18.2592
 20
-39.5213
 30
0
 10
18.2592
 20
-39.4758
 30
0
 10
18.2592
 20
-39.4758
 30
0
 10
18.2592
 20
-39.4299
 30
0
 10
18.3044
 20
-39.3938
 30
0
 10
18.3456
 20
-39.3931
 30
0
 10
18.3456
 20
-39.3931
 30
0
 10
18.3456
 20
-39.3931
 30
0
 10
18.3457
 20
-37.3718
 30
0
 10
18.3457
 20
-37.3718
 30
0
 10
18.3457
 20
-37.3718
 30
0
 10
18.3083
 20
-37.3674
 30
0
 10
18.2726
 20
-37.3337
 30
0
 10
18.2726
 20
-37.2916
 30
0
 10
18.2726
 20
-37.2916
 30
0
 10
18.2726
 20
-37.2455
 30
0
 10
18.3065
 20
-37.209
 30
0
 10
18.3477
 20
-37.2087
 30
0
 10
18.3477
 20
-37.2087
 30
0
 10
18.3854
 20
-37.209
 30
0
 10
18.4146
 20
-37.2387
 30
0
 10
18.4204
 20
-37.2775
 30
0
 10
18.4204
 20
-37.2775
 30
0
 10
18.4204
 20
-37.2775
 30
0
 10
18.4967
 20
-37.2781
 30
0
 10
18.4967
 20
-37.2781
 30
0
 10
18.4967
 20
-37.2781
 30
0
 10
18.4967
 20
-37.2781
 30
0
 10
18.5056
 20
-37.2803
 30
0
 10
18.5056
 20
-37.2803
 30
0
 10
18.5056
 20
-37.2803
 30
0
 10
20.1192
 20
-37.3205
 30
0
 10
21.2093
 20
-37.3281
 30
0
 10
22.8457
 20
-37.2833
 30
0
 10
22.8457
 20
-37.2833
 30
0
 10
22.8457
 20
-37.2833
 30
0
 10
22.8457
 20
-37.3302
 30
0
 10
22.8457
 20
-37.3302
 30
0
 10
22.8457
 20
-37.3302
 30
0
 10
22.8457
 20
-37.3302
 30
0
 10
31.6925
 20
-19.499
 30
0
 10
31.6925
 20
-19.499
 30
0
  0
SPLINE
  5
AE
100
AcDbEntity
  8
EBENE_1
100
AcDbSpline
370
-1
 62
250
  6
BYLAYER
 70
8
 71
3
 72
56
 73
52
 40
0
 40
0
 40
0
 40
0
 40
0.0769230769230769
 40
0.0769230769230769
 40
0.0769230769230769
 40
0.0769230769230769
 40
0.153846153846154
 40
0.153846153846154
 40
0.153846153846154
 40
0.153846153846154
 40
0.230769230769231
 40
0.230769230769231
 40
0.230769230769231
 40
0.230769230769231
 40
0.307692307692308
 40
0.307692307692308
 40
0.307692307692308
 40
0.307692307692308
 40
0.384615384615385
 40
0.384615384615385
 40
0.384615384615385
 40
0.384615384615385
 40
0.461538461538462
 40
0.461538461538462
 40
0.461538461538462
 40
0.461538461538462
 40
0.538461538461538
 40
0.538461538461538
 40
0.538461538461538
 40
0.538461538461538
 40
0.615384615384615
 40
0.615384615384615
 40
0.615384615384615
 40
0.615384615384615
 40
0.692307692307692
 40
0.692307692307692
 40
0.692307692307692
 40
0.692307692307692
 40
0.769230769230769
 40
0.769230769230769
 40
0.769230769230769
 40
0.769230769230769
 40
0.846153846153846
 40
0.846153846153846
 40
0.846153846153846
 40
0.846153846153846
 40
0.923076923076923
 40
0.923076923076923
 40
0.923076923076923
 40
0.923076923076923
 40
1
 40
1
 40
1
 40
1
 10
21.3582
 20
-39.4941
 30
0
 10
21.3582
 20
-39.4941
 30
0
 10
9.0956
 20
-57.3304
 30
0
 10
9.0956
 20
-57.3304
 30
0
 10
9.0956
 20
-57.3304
 30
0
 10
9.0956
 20
-57.3304
 30
0
 10
9.0956
 20
-57.2845
 30
0
 10
9.0956
 20
-57.2845
 30
0
 10
9.0956
 20
-57.2845
 30
0
 10
7.4913
 20
-57.3283
 30
0
 10
6.932
 20
-57.3131
 30
0
 10
5.4114
 20
-57.2745
 30
0
 10
5.4114
 20
-57.2745
 30
0
 10
5.4114
 20
-57.2745
 30
0
 10
5.4124
 20
-57.2704
 30
0
 10
5.4124
 20
-57.2704
 30
0
 10
5.4124
 20
-57.2704
 30
0
 10
5.4124
 20
-57.2249
 30
0
 10
5.3788
 20
-57.1881
 30
0
 10
5.3373
 20
-57.1877
 30
0
 10
5.3373
 20
-57.1877
 30
0
 10
5.2961
 20
-57.1877
 30
0
 10
5.2623
 20
-57.2246
 30
0
 10
5.2623
 20
-57.2701
 30
0
 10
5.2623
 20
-57.2701
 30
0
 10
5.2623
 20
-57.3159
 30
0
 10
5.296
 20
-57.3528
 30
0
 10
5.3373
 20
-57.3528
 30
0
 10
5.3373
 20
-57.3528
 30
0
 10
5.3373
 20
-57.3528
 30
0
 10
5.3466
 20
-57.3507
 30
0
 10
5.3466
 20
-57.3507
 30
0
 10
5.3466
 20
-57.3507
 30
0
 10
5.3466
 20
-57.3507
 30
0
 10
5.3441
 20
-59.3723
 30
0
 10
5.3441
 20
-59.3723
 30
0
 10
5.3441
 20
-59.3723
 30
0
 10
5.3026
 20
-59.3723
 30
0
 10
5.2685
 20
-59.4085
 30
0
 10
5.2685
 20
-59.4547
 30
0
 10
5.2685
 20
-59.4547
 30
0
 10
5.2685
 20
-59.5002
 30
0
 10
5.3018
 20
-59.5372
 30
0
 10
5.3437
 20
-59.5376
 30
0
 10
5.3437
 20
-59.5376
 30
0
 10
5.3832
 20
-59.5372
 30
0
 10
5.4174
 20
-59.5032
 30
0
 10
5.4174
 20
-59.4594
 30
0
 10
5.4174
 20
-59.4594
 30
0
 10
6.0281
 20
-59.4425
 30
0
 10
6.2482
 20
-59.4656
 30
0
 10
6.5556
 20
-59.4653
 30
0
  0
SPLINE
  5
AF
100
AcDbEntity
  8
EBENE_1
100
AcDbSpline
370
-1
 62
250
  6
BYLAYER
 70
8
 71
3
 72
76
 73
72
 40
0
 40
0
 40
0
 40
0
 40
0.0555555555555556
 40
0.0555555555555556
 40
0.0555555555555556
 40
0.0555555555555556
 40
0.111111111111111
 40
0.111111111111111
 40
0.111111111111111
 40
0.111111111111111
 40
0.166666666666667
 40
0.166666666666667
 40
0.166666666666667
 40
0.166666666666667
 40
0.222222222222222
 40
0.222222222222222
 40
0.222222222222222
 40
0.222222222222222
 40
0.277777777777778
 40
0.277777777777778
 40
0.277777777777778
 40
0.277777777777778
 40
0.333333333333333
 40
0.333333333333333
 40
0.333333333333333
 40
0.333333333333333
 40
0.388888888888889
 40
0.388888888888889
 40
0.388888888888889
 40
0.388888888888889
 40
0.444444444444444
 40
0.444444444444444
 40
0.444444444444444
 40
0.444444444444444
 40
0.5
 40
0.5
 40
0.5
 40
0.5
 40
0.555555555555556
 40
0.555555555555556
 40
0.555555555555556
 40
0.555555555555556
 40
0.611111111111111
 40
0.611111111111111
 40
0.611111111111111
 40
0.611111111111111
 40
0.666666666666667
 40
0.666666666666667
 40
0.666666666666667
 40
0.666666666666667
 40
0.722222222222222
 40
0.722222222222222
 40
0.722222222222222
 40
0.722222222222222
 40
0.777777777777778
 40
0.777777777777778
 40
0.777777777777778
 40
0.777777777777778
 40
0.833333333333334
 40
0.833333333333334
 40
0.833333333333334
 40
0.833333333333334
 40
0.888888888888889
 40
0.888888888888889
 40
0.888888888888889
 40
0.888888888888889
 40
0.944444444444445
 40
0.944444444444445
 40
0.944444444444445
 40
0.944444444444445
 40
1
 40
1
 40
1
 40
1
 10
-26.5859
 20
-77.3484
 30
0
 10
-26.5859
 20
-77.3484
 30
0
 10
-36.5746
 20
-77.3408
 30
0
 10
-36.5746
 20
-77.3408
 30
0
 10
-36.5746
 20
-77.3408
 30
0
 10
-36.5746
 20
-77.3408
 30
0
 10
-36.5721
 20
-77.3416
 30
0
 10
-36.5721
 20
-77.3416
 30
0
 10
-36.5721
 20
-77.3416
 30
0
 10
-36.5721
 20
-77.3416
 30
0
 10
-37.5183
 20
-77.3416
 30
0
 10
-37.5183
 20
-77.3416
 30
0
 10
-37.5183
 20
-77.3416
 30
0
 10
-38.3636
 20
-77.3412
 30
0
 10
-39.0286
 20
-76.6461
 30
0
 10
-39.0286
 20
-75.8177
 30
0
 10
-39.0286
 20
-75.8177
 30
0
 10
-39.0286
 20
-75.8177
 30
0
 10
-39.0195
 20
-73.9581
 30
0
 10
-39.0195
 20
-73.9581
 30
0
 10
-39.0195
 20
-73.9581
 30
0
 10
-39.0195
 20
-73.9581
 30
0
 10
-38.1296
 20
-73.9581
 30
0
 10
-38.1296
 20
-73.9581
 30
0
 10
-38.1296
 20
-73.9581
 30
0
 10
-38.1296
 20
-73.9581
 30
0
 10
-38.1289
 20
-71.9881
 30
0
 10
-38.1289
 20
-71.9881
 30
0
 10
-38.1289
 20
-71.9881
 30
0
 10
-38.1289
 20
-71.9881
 30
0
 10
-38.1282
 20
-71.919
 30
0
 10
-38.1282
 20
-71.919
 30
0
 10
-38.1282
 20
-71.919
 30
0
 10
-37.4093
 20
-71.9201
 30
0
 10
-36.626
 20
-71.9104
 30
0
 10
-35.9197
 20
-71.9114
 30
0
 10
-35.9197
 20
-71.9114
 30
0
 10
-35.9197
 20
-71.9114
 30
0
 10
-35.9266
 20
-73.9833
 30
0
 10
-35.9266
 20
-73.9833
 30
0
 10
-35.9266
 20
-73.9833
 30
0
 10
-35.9266
 20
-73.9833
 30
0
 10
-14.8893
 20
-73.9801
 30
0
 10
-14.8893
 20
-73.9801
 30
0
 10
-14.8893
 20
-73.9801
 30
0
 10
-14.8893
 20
-73.9801
 30
0
 10
-14.8361
 20
-71.9093
 30
0
 10
-14.8361
 20
-71.9093
 30
0
 10
-14.8361
 20
-71.9093
 30
0
 10
-14.8361
 20
-71.9093
 30
0
 10
2.8455
 20
-57.3304
 30
0
 10
2.8455
 20
-57.3304
 30
0
 10
2.8455
 20
-57.3304
 30
0
 10
2.8455
 20
-57.3304
 30
0
 10
14.096
 20
-37.3302
 30
0
 10
14.096
 20
-37.3302
 30
0
 10
14.096
 20
-37.3302
 30
0
 10
14.096
 20
-37.3302
 30
0
 10
22.8499
 20
-17.3187
 30
0
 10
22.8499
 20
-17.3187
 30
0
 10
22.8499
 20
-17.3187
 30
0
 10
22.8499
 20
-17.3187
 30
0
 10
22.8457
 20
2.6698
 30
0
 10
22.8457
 20
2.6698
 30
0
 10
22.8457
 20
2.6698
 30
0
 10
22.9223
 20
3.3434
 30
0
 10
23.0231
 20
3.2158
 30
0
 10
23.3069
 20
2.6697
 30
0
 10
23.3069
 20
2.6697
 30
0
 10
23.3069
 20
2.6697
 30
0
 10
32.7508
 20
-17.2938
 30
0
 10
32.7508
 20
-17.2938
 30
0
  0
SPLINE
  5
B0
100
AcDbEntity
  8
EBENE_1
100
AcDbSpline
370
-1
 62
250
  6
BYLAYER
 70
8
 71
3
 72
12
 73
8
 40
0
 40
0
 40
0
 40
0
 40
0.5
 40
0.5
 40
0.5
 40
0.5
 40
1
 40
1
 40
1
 40
1
 10
6.5556
 20
-59.4652
 30
0
 10
6.5556
 20
-59.4652
 30
0
 10
-14.7313
 20
-77.3574
 30
0
 10
-14.7313
 20
-77.3574
 30
0
 10
-14.7313
 20
-77.3574
 30
0
 10
-14.7313
 20
-77.3574
 30
0
 10
-25.662
 20
-77.3491
 30
0
 10
-25.662
 20
-77.3491
 30
0
  0
SPLINE
  5
B1
100
AcDbEntity
  8
EBENE_1
100
AcDbSpline
370
-1
 62
250
  6
BYLAYER
 70
24
 71
3
 72
8
 73
4
 40
0
 40
0
 40
0
 40
0
 40
1
 40
1
 40
1
 40
1
 10
-26.5859
 20
-77.3484
 30
0
 10
-26.5859
 20
-77.3484
 30
0
 10
-25.662
 20
-77.3491
 30
0
 10
-25.662
 20
-77.3491
 30
0
  0
SPLINE
  5
B2
100
AcDbEntity
  8
EBENE_1
100
AcDbSpline
370
-1
 62
250
  6
BYLAYER
 70
8
 71
3
 72
60
 73
56
 40
0
 40
0
 40
0
 40
0
 40
0.0714285714285714
 40
0.0714285714285714
 40
0.0714285714285714
 40
0.0714285714285714
 40
0.142857142857143
 40
0.142857142857143
 40
0.142857142857143
 40
0.142857142857143
 40
0.214285714285714
 40
0.214285714285714
 40
0.214285714285714
 40
0.214285714285714
 40
0.285714285714286
 40
0.285714285714286
 40
0.285714285714286
 40
0.285714285714286
 40
0.357142857142857
 40
0.357142857142857
 40
0.357142857142857
 40
0.357142857142857
 40
0.428571428571429
 40
0.428571428571429
 40
0.428571428571429
 40
0.428571428571429
 40
0.5
 40
0.5
 40
0.5
 40
0.5
 40
0.571428571428571
 40
0.571428571428571
 40
0.571428571428571
 40
0.571428571428571
 40
0.642857142857143
 40
0.642857142857143
 40
0.642857142857143
 40
0.642857142857143
 40
0.714285714285714
 40
0.714285714285714
 40
0.714285714285714
 40
0.714285714285714
 40
0.785714285714286
 40
0.785714285714286
 40
0.785714285714286
 40
0.785714285714286
 40
0.857142857142857
 40
0.857142857142857
 40
0.857142857142857
 40
0.857142857142857
 40
0.928571428571428
 40
0.928571428571428
 40
0.928571428571428
 40
0.928571428571428
 40
1
 40
1
 40
1
 40
1
 10
41.9495
 20
-24.9334
 30
0
 10
41.0869
 20
-24.914
 30
0
 10
39.346
 20
-24.8996
 30
0
 10
38.046
 20
-24.9352
 30
0
 10
38.046
 20
-24.9352
 30
0
 10
38.046
 20
-24.9352
 30
0
 10
38.046
 20
-24.9309
 30
0
 10
38.046
 20
-24.9309
 30
0
 10
38.046
 20
-24.9309
 30
0
 10
38.046
 20
-24.9309
 30
0
 10
37.9525
 20
-24.9309
 30
0
 10
37.9525
 20
-24.9309
 30
0
 10
37.9525
 20
-24.9309
 30
0
 10
37.949
 20
-24.974
 30
0
 10
37.9172
 20
-25.0086
 30
0
 10
37.8784
 20
-25.0086
 30
0
 10
37.8784
 20
-25.0086
 30
0
 10
37.8361
 20
-25.0079
 30
0
 10
37.8026
 20
-24.971
 30
0
 10
37.8026
 20
-24.9255
 30
0
 10
37.8026
 20
-24.9255
 30
0
 10
37.8026
 20
-24.88
 30
0
 10
37.8378
 20
-24.8435
 30
0
 10
37.8784
 20
-24.8435
 30
0
 10
37.8784
 20
-24.8435
 30
0
 10
37.8784
 20
-24.8435
 30
0
 10
37.8802
 20
-24.8435
 30
0
 10
37.8802
 20
-24.8435
 30
0
 10
37.8802
 20
-24.8435
 30
0
 10
37.8802
 20
-24.8435
 30
0
 10
37.8838
 20
-22.8222
 30
0
 10
37.8838
 20
-22.8222
 30
0
 10
37.8838
 20
-22.8222
 30
0
 10
37.8467
 20
-22.8175
 30
0
 10
37.8167
 20
-22.7836
 30
0
 10
37.8167
 20
-22.7416
 30
0
 10
37.8167
 20
-22.7416
 30
0
 10
37.8167
 20
-22.6957
 30
0
 10
37.8502
 20
-22.6589
 30
0
 10
37.8925
 20
-22.6585
 30
0
 10
37.8925
 20
-22.6585
 30
0
 10
37.9296
 20
-22.6589
 30
0
 10
37.9578
 20
-22.6889
 30
0
 10
37.9648
 20
-22.7275
 30
0
 10
37.9648
 20
-22.7275
 30
0
 10
37.9648
 20
-22.7275
 30
0
 10
38.0407
 20
-22.7282
 30
0
 10
38.0407
 20
-22.7282
 30
0
 10
38.0407
 20
-22.7282
 30
0
 10
38.0407
 20
-22.7282
 30
0
 10
38.0496
 20
-22.7303
 30
0
 10
38.0496
 20
-22.7303
 30
0
 10
38.0496
 20
-22.7303
 30
0
 10
39.6635
 20
-22.7709
 30
0
 10
41.3727
 20
-22.7723
 30
0
 10
43.0096
 20
-22.7279
 30
0
  0
SPLINE
  5
B3
100
AcDbEntity
  8
EBENE_1
100
AcDbSpline
370
-1
 62
250
  6
BYLAYER
 70
8
 71
3
 72
64
 73
60
 40
0
 40
0
 40
0
 40
0
 40
0.0666666666666667
 40
0.0666666666666667
 40
0.0666666666666667
 40
0.0666666666666667
 40
0.133333333333333
 40
0.133333333333333
 40
0.133333333333333
 40
0.133333333333333
 40
0.2
 40
0.2
 40
0.2
 40
0.2
 40
0.266666666666667
 40
0.266666666666667
 40
0.266666666666667
 40
0.266666666666667
 40
0.333333333333333
 40
0.333333333333333
 40
0.333333333333333
 40
0.333333333333333
 40
0.4
 40
0.4
 40
0.4
 40
0.4
 40
0.466666666666667
 40
0.466666666666667
 40
0.466666666666667
 40
0.466666666666667
 40
0.533333333333333
 40
0.533333333333333
 40
0.533333333333333
 40
0.533333333333333
 40
0.6
 40
0.6
 40
0.6
 40
0.6
 40
0.666666666666667
 40
0.666666666666667
 40
0.666666666666667
 40
0.666666666666667
 40
0.733333333333333
 40
0.733333333333333
 40
0.733333333333333
 40
0.733333333333333
 40
0.8
 40
0.8
 40
0.8
 40
0.8
 40
0.866666666666667
 40
0.866666666666667
 40
0.866666666666667
 40
0.866666666666667
 40
0.933333333333333
 40
0.933333333333333
 40
0.933333333333333
 40
0.933333333333333
 40
1
 40
1
 40
1
 40
1
 10
31.6166
 20
-44.9283
 30
0
 10
30.77
 20
-44.9095
 30
0
 10
30.0397
 20
-44.8846
 30
0
 10
28.7609
 20
-44.9197
 30
0
 10
28.7609
 20
-44.9197
 30
0
 10
28.7609
 20
-44.9197
 30
0
 10
28.7609
 20
-44.9153
 30
0
 10
28.7609
 20
-44.9153
 30
0
 10
28.7609
 20
-44.9153
 30
0
 10
28.7609
 20
-44.9153
 30
0
 10
28.6656
 20
-44.9153
 30
0
 10
28.6656
 20
-44.9153
 30
0
 10
28.6656
 20
-44.9153
 30
0
 10
28.6656
 20
-44.9583
 30
0
 10
28.6321
 20
-44.9927
 30
0
 10
28.5915
 20
-44.9927
 30
0
 10
28.5915
 20
-44.9927
 30
0
 10
28.551
 20
-44.9923
 30
0
 10
28.5174
 20
-44.9557
 30
0
 10
28.5174
 20
-44.9102
 30
0
 10
28.5174
 20
-44.9102
 30
0
 10
28.5174
 20
-44.8643
 30
0
 10
28.5615
 20
-44.8281
 30
0
 10
28.6039
 20
-44.8274
 30
0
 10
28.6039
 20
-44.8274
 30
0
 10
28.6039
 20
-44.8274
 30
0
 10
28.6039
 20
-42.8062
 30
0
 10
28.6039
 20
-42.8062
 30
0
 10
28.6039
 20
-42.8062
 30
0
 10
28.5651
 20
-42.8018
 30
0
 10
28.5298
 20
-42.7679
 30
0
 10
28.5298
 20
-42.7259
 30
0
 10
28.5298
 20
-42.7259
 30
0
 10
28.5298
 20
-42.6797
 30
0
 10
28.5651
 20
-42.6432
 30
0
 10
28.6056
 20
-42.6429
 30
0
 10
28.6056
 20
-42.6429
 30
0
 10
28.6427
 20
-42.6432
 30
0
 10
28.6727
 20
-42.6728
 30
0
 10
28.678
 20
-42.7118
 30
0
 10
28.678
 20
-42.7118
 30
0
 10
28.678
 20
-42.7118
 30
0
 10
28.7538
 20
-42.7125
 30
0
 10
28.7538
 20
-42.7125
 30
0
 10
28.7538
 20
-42.7125
 30
0
 10
28.7538
 20
-42.7125
 30
0
 10
28.7627
 20
-42.7145
 30
0
 10
28.7627
 20
-42.7145
 30
0
 10
28.7627
 20
-42.7145
 30
0
 10
30.3767
 20
-42.7549
 30
0
 10
31.4667
 20
-42.7625
 30
0
 10
33.1036
 20
-42.7177
 30
0
 10
33.1036
 20
-42.7177
 30
0
 10
33.1036
 20
-42.7177
 30
0
 10
33.1036
 20
-42.7646
 30
0
 10
33.1036
 20
-42.7646
 30
0
 10
33.1036
 20
-42.7646
 30
0
 10
33.1036
 20
-42.7646
 30
0
 10
41.9495
 20
-24.9334
 30
0
 10
41.9495
 20
-24.9334
 30
0
  0
SPLINE
  5
B4
100
AcDbEntity
  8
EBENE_1
100
AcDbSpline
370
-1
 62
250
  6
BYLAYER
 70
8
 71
3
 72
56
 73
52
 40
0
 40
0
 40
0
 40
0
 40
0.0769230769230769
 40
0.0769230769230769
 40
0.0769230769230769
 40
0.0769230769230769
 40
0.153846153846154
 40
0.153846153846154
 40
0.153846153846154
 40
0.153846153846154
 40
0.230769230769231
 40
0.230769230769231
 40
0.230769230769231
 40
0.230769230769231
 40
0.307692307692308
 40
0.307692307692308
 40
0.307692307692308
 40
0.307692307692308
 40
0.384615384615385
 40
0.384615384615385
 40
0.384615384615385
 40
0.384615384615385
 40
0.461538461538462
 40
0.461538461538462
 40
0.461538461538462
 40
0.461538461538462
 40
0.538461538461538
 40
0.538461538461538
 40
0.538461538461538
 40
0.538461538461538
 40
0.615384615384615
 40
0.615384615384615
 40
0.615384615384615
 40
0.615384615384615
 40
0.692307692307692
 40
0.692307692307692
 40
0.692307692307692
 40
0.692307692307692
 40
0.769230769230769
 40
0.769230769230769
 40
0.769230769230769
 40
0.769230769230769
 40
0.846153846153846
 40
0.846153846153846
 40
0.846153846153846
 40
0.846153846153846
 40
0.923076923076923
 40
0.923076923076923
 40
0.923076923076923
 40
0.923076923076923
 40
1
 40
1
 40
1
 40
1
 10
31.6166
 20
-44.9283
 30
0
 10
31.6166
 20
-44.9283
 30
0
 10
19.3534
 20
-62.7646
 30
0
 10
19.3534
 20
-62.7646
 30
0
 10
19.3534
 20
-62.7646
 30
0
 10
19.3534
 20
-62.7646
 30
0
 10
19.3534
 20
-62.7189
 30
0
 10
19.3534
 20
-62.7189
 30
0
 10
19.3534
 20
-62.7189
 30
0
 10
17.7491
 20
-62.7626
 30
0
 10
17.1899
 20
-62.7475
 30
0
 10
15.6693
 20
-62.7089
 30
0
 10
15.6693
 20
-62.7089
 30
0
 10
15.6693
 20
-62.7089
 30
0
 10
15.6703
 20
-62.7048
 30
0
 10
15.6703
 20
-62.7048
 30
0
 10
15.6703
 20
-62.7048
 30
0
 10
15.6703
 20
-62.6593
 30
0
 10
15.6365
 20
-62.6224
 30
0
 10
15.5952
 20
-62.6221
 30
0
 10
15.5952
 20
-62.6221
 30
0
 10
15.5538
 20
-62.6221
 30
0
 10
15.5201
 20
-62.6589
 30
0
 10
15.5201
 20
-62.7044
 30
0
 10
15.5201
 20
-62.7044
 30
0
 10
15.5201
 20
-62.7501
 30
0
 10
15.5537
 20
-62.787
 30
0
 10
15.5952
 20
-62.787
 30
0
 10
15.5952
 20
-62.787
 30
0
 10
15.5952
 20
-62.787
 30
0
 10
15.6044
 20
-62.7851
 30
0
 10
15.6044
 20
-62.7851
 30
0
 10
15.6044
 20
-62.7851
 30
0
 10
15.6044
 20
-62.7851
 30
0
 10
15.6018
 20
-64.8067
 30
0
 10
15.6018
 20
-64.8067
 30
0
 10
15.6018
 20
-64.8067
 30
0
 10
15.5603
 20
-64.8067
 30
0
 10
15.5262
 20
-64.8428
 30
0
 10
15.5262
 20
-64.8889
 30
0
 10
15.5262
 20
-64.8889
 30
0
 10
15.5262
 20
-64.9343
 30
0
 10
15.5597
 20
-64.9716
 30
0
 10
15.6014
 20
-64.9719
 30
0
 10
15.6014
 20
-64.9719
 30
0
 10
15.6409
 20
-64.9716
 30
0
 10
15.6751
 20
-64.9375
 30
0
 10
15.6751
 20
-64.8938
 30
0
 10
15.6751
 20
-64.8938
 30
0
 10
16.286
 20
-64.8769
 30
0
 10
16.5061
 20
-64.9
 30
0
 10
16.8133
 20
-64.8996
 30
0
  0
SPLINE
  5
B5
100
AcDbEntity
  8
EBENE_1
100
AcDbSpline
370
-1
 62
250
  6
BYLAYER
 70
8
 71
3
 72
40
 73
36
 40
0
 40
0
 40
0
 40
0
 40
0.111111111111111
 40
0.111111111111111
 40
0.111111111111111
 40
0.111111111111111
 40
0.222222222222222
 40
0.222222222222222
 40
0.222222222222222
 40
0.222222222222222
 40
0.333333333333333
 40
0.333333333333333
 40
0.333333333333333
 40
0.333333333333333
 40
0.444444444444444
 40
0.444444444444444
 40
0.444444444444444
 40
0.444444444444444
 40
0.555555555555556
 40
0.555555555555556
 40
0.555555555555556
 40
0.555555555555556
 40
0.666666666666667
 40
0.666666666666667
 40
0.666666666666667
 40
0.666666666666667
 40
0.777777777777778
 40
0.777777777777778
 40
0.777777777777778
 40
0.777777777777778
 40
0.888888888888889
 40
0.888888888888889
 40
0.888888888888889
 40
0.888888888888889
 40
1
 40
1
 40
1
 40
1
 10
-27.8702
 20
-77.3532
 30
0
 10
-27.8702
 20
-77.3532
 30
0
 10
-27.8712
 20
-77.4225
 30
0
 10
-27.8712
 20
-77.4225
 30
0
 10
-27.8712
 20
-77.4225
 30
0
 10
-27.8712
 20
-77.4225
 30
0
 10
-27.8719
 20
-79.3924
 30
0
 10
-27.8719
 20
-79.3924
 30
0
 10
-27.8719
 20
-79.3924
 30
0
 10
-27.8719
 20
-79.3924
 30
0
 10
-28.7618
 20
-79.3924
 30
0
 10
-28.7618
 20
-79.3924
 30
0
 10
-28.7618
 20
-79.3924
 30
0
 10
-28.7618
 20
-79.3924
 30
0
 10
-28.7708
 20
-81.2516
 30
0
 10
-28.7708
 20
-81.2516
 30
0
 10
-28.7708
 20
-81.2516
 30
0
 10
-28.7708
 20
-82.0806
 30
0
 10
-28.1059
 20
-82.7756
 30
0
 10
-27.2604
 20
-82.7756
 30
0
 10
-27.2604
 20
-82.7756
 30
0
 10
-27.2604
 20
-82.7756
 30
0
 10
-26.3144
 20
-82.7756
 30
0
 10
-26.3144
 20
-82.7756
 30
0
 10
-26.3144
 20
-82.7756
 30
0
 10
-26.3144
 20
-82.7756
 30
0
 10
-26.3169
 20
-82.7756
 30
0
 10
-26.3169
 20
-82.7756
 30
0
 10
-26.3169
 20
-82.7756
 30
0
 10
-26.3169
 20
-82.7756
 30
0
 10
-4.4736
 20
-82.7914
 30
0
 10
-4.4736
 20
-82.7914
 30
0
 10
-4.4736
 20
-82.7914
 30
0
 10
-4.4736
 20
-82.7914
 30
0
 10
16.8134
 20
-64.8996
 30
0
 10
16.8134
 20
-64.8996
 30
0
  0
SPLINE
  5
B6
100
AcDbEntity
  8
EBENE_1
100
AcDbSpline
370
-1
 62
250
  6
BYLAYER
 70
8
 71
3
 72
40
 73
36
 40
0
 40
0
 40
0
 40
0
 40
0.111111111111111
 40
0.111111111111111
 40
0.111111111111111
 40
0.111111111111111
 40
0.222222222222222
 40
0.222222222222222
 40
0.222222222222222
 40
0.222222222222222
 40
0.333333333333333
 40
0.333333333333333
 40
0.333333333333333
 40
0.333333333333333
 40
0.444444444444444
 40
0.444444444444444
 40
0.444444444444444
 40
0.444444444444444
 40
0.555555555555556
 40
0.555555555555556
 40
0.555555555555556
 40
0.555555555555556
 40
0.666666666666667
 40
0.666666666666667
 40
0.666666666666667
 40
0.666666666666667
 40
0.777777777777778
 40
0.777777777777778
 40
0.777777777777778
 40
0.777777777777778
 40
0.888888888888889
 40
0.888888888888889
 40
0.888888888888889
 40
0.888888888888889
 40
1
 40
1
 40
1
 40
1
 10
-25.662
 20
-77.3491
 30
0
 10
-25.662
 20
-77.3491
 30
0
 10
-25.6688
 20
-79.4171
 30
0
 10
-25.6688
 20
-79.4171
 30
0
 10
-25.6688
 20
-79.4171
 30
0
 10
-25.6688
 20
-79.4171
 30
0
 10
-4.6317
 20
-79.4136
 30
0
 10
-4.6317
 20
-79.4136
 30
0
 10
-4.6317
 20
-79.4136
 30
0
 10
-4.6317
 20
-79.4136
 30
0
 10
-4.5782
 20
-77.3437
 30
0
 10
-4.5782
 20
-77.3437
 30
0
 10
-4.5782
 20
-77.3437
 30
0
 10
-4.5782
 20
-77.3437
 30
0
 10
13.1034
 20
-62.7646
 30
0
 10
13.1034
 20
-62.7646
 30
0
 10
13.1034
 20
-62.7646
 30
0
 10
13.1034
 20
-62.7646
 30
0
 10
24.3537
 20
-42.7646
 30
0
 10
24.3537
 20
-42.7646
 30
0
 10
24.3537
 20
-42.7646
 30
0
 10
24.3537
 20
-42.7646
 30
0
 10
33.1072
 20
-22.7529
 30
0
 10
33.1072
 20
-22.7529
 30
0
 10
33.1072
 20
-22.7529
 30
0
 10
33.1072
 20
-22.7529
 30
0
 10
33.1036
 20
-2.7645
 30
0
 10
33.1036
 20
-2.7645
 30
0
 10
33.1036
 20
-2.7645
 30
0
 10
33.1795
 20
-2.0911
 30
0
 10
33.2817
 20
-2.2184
 30
0
 10
33.5639
 20
-2.7645
 30
0
 10
33.5639
 20
-2.7645
 30
0
 10
33.5639
 20
-2.7645
 30
0
 10
43.0096
 20
-22.7278
 30
0
 10
43.0096
 20
-22.7278
 30
0
  0
SPLINE
  5
B7
100
AcDbEntity
  8
EBENE_1
100
AcDbSpline
370
-1
 62
250
  6
BYLAYER
 70
8
 71
3
 72
60
 73
56
 40
0
 40
0
 40
0
 40
0
 40
0.0714285714285714
 40
0.0714285714285714
 40
0.0714285714285714
 40
0.0714285714285714
 40
0.142857142857143
 40
0.142857142857143
 40
0.142857142857143
 40
0.142857142857143
 40
0.214285714285714
 40
0.214285714285714
 40
0.214285714285714
 40
0.214285714285714
 40
0.285714285714286
 40
0.285714285714286
 40
0.285714285714286
 40
0.285714285714286
 40
0.357142857142857
 40
0.357142857142857
 40
0.357142857142857
 40
0.357142857142857
 40
0.428571428571429
 40
0.428571428571429
 40
0.428571428571429
 40
0.428571428571429
 40
0.5
 40
0.5
 40
0.5
 40
0.5
 40
0.571428571428571
 40
0.571428571428571
 40
0.571428571428571
 40
0.571428571428571
 40
0.642857142857143
 40
0.642857142857143
 40
0.642857142857143
 40
0.642857142857143
 40
0.714285714285714
 40
0.714285714285714
 40
0.714285714285714
 40
0.714285714285714
 40
0.785714285714286
 40
0.785714285714286
 40
0.785714285714286
 40
0.785714285714286
 40
0.857142857142857
 40
0.857142857142857
 40
0.857142857142857
 40
0.857142857142857
 40
0.928571428571428
 40
0.928571428571428
 40
0.928571428571428
 40
0.928571428571428
 40
1
 40
1
 40
1
 40
1
 10
-30.5522
 20
86.5475
 30
0
 10
-30.5715
 20
85.6845
 30
0
 10
-30.5861
 20
83.9438
 30
0
 10
-30.5503
 20
82.644
 30
0
 10
-30.5503
 20
82.644
 30
0
 10
-30.5503
 20
82.644
 30
0
 10
-30.5547
 20
82.6444
 30
0
 10
-30.5547
 20
82.6444
 30
0
 10
-30.5547
 20
82.6444
 30
0
 10
-30.5547
 20
82.6444
 30
0
 10
-30.5547
 20
82.5497
 30
0
 10
-30.5547
 20
82.5497
 30
0
 10
-30.5547
 20
82.5497
 30
0
 10
-30.5116
 20
82.5472
 30
0
 10
-30.4772
 20
82.5152
 30
0
 10
-30.4772
 20
82.4755
 30
0
 10
-30.4772
 20
82.4755
 30
0
 10
-30.4772
 20
82.4342
 30
0
 10
-30.5143
 20
82.4004
 30
0
 10
-30.5598
 20
82.4008
 30
0
 10
-30.5598
 20
82.4008
 30
0
 10
-30.6053
 20
82.4012
 30
0
 10
-30.6422
 20
82.4345
 30
0
 10
-30.6422
 20
82.4757
 30
0
 10
-30.6422
 20
82.4757
 30
0
 10
-30.6422
 20
82.4757
 30
0
 10
-30.6422
 20
82.4783
 30
0
 10
-30.6422
 20
82.4783
 30
0
 10
-30.6422
 20
82.4783
 30
0
 10
-30.6422
 20
82.4783
 30
0
 10
-32.6634
 20
82.4811
 30
0
 10
-32.6634
 20
82.4811
 30
0
 10
-32.6634
 20
82.4811
 30
0
 10
-32.6677
 20
82.4439
 30
0
 10
-32.7017
 20
82.4144
 30
0
 10
-32.7437
 20
82.4142
 30
0
 10
-32.7437
 20
82.4142
 30
0
 10
-32.7895
 20
82.4143
 30
0
 10
-32.8271
 20
82.448
 30
0
 10
-32.8271
 20
82.4893
 30
0
 10
-32.8271
 20
82.4893
 30
0
 10
-32.8271
 20
82.5268
 30
0
 10
-32.7964
 20
82.5562
 30
0
 10
-32.7581
 20
82.562
 30
0
 10
-32.7581
 20
82.562
 30
0
 10
-32.7581
 20
82.562
 30
0
 10
-32.757
 20
82.6382
 30
0
 10
-32.757
 20
82.6382
 30
0
 10
-32.757
 20
82.6382
 30
0
 10
-32.757
 20
82.6382
 30
0
 10
-32.755
 20
82.6471
 30
0
 10
-32.755
 20
82.6471
 30
0
 10
-32.755
 20
82.6471
 30
0
 10
-32.7146
 20
84.2608
 30
0
 10
-32.713
 20
85.9697
 30
0
 10
-32.7574
 20
87.6063
 30
0
  0
SPLINE
  5
B8
100
AcDbEntity
  8
EBENE_1
100
AcDbSpline
370
-1
 62
250
  6
BYLAYER
 70
8
 71
3
 72
64
 73
60
 40
0
 40
0
 40
0
 40
0
 40
0.0666666666666667
 40
0.0666666666666667
 40
0.0666666666666667
 40
0.0666666666666667
 40
0.133333333333333
 40
0.133333333333333
 40
0.133333333333333
 40
0.133333333333333
 40
0.2
 40
0.2
 40
0.2
 40
0.2
 40
0.266666666666667
 40
0.266666666666667
 40
0.266666666666667
 40
0.266666666666667
 40
0.333333333333333
 40
0.333333333333333
 40
0.333333333333333
 40
0.333333333333333
 40
0.4
 40
0.4
 40
0.4
 40
0.4
 40
0.466666666666667
 40
0.466666666666667
 40
0.466666666666667
 40
0.466666666666667
 40
0.533333333333333
 40
0.533333333333333
 40
0.533333333333333
 40
0.533333333333333
 40
0.6
 40
0.6
 40
0.6
 40
0.6
 40
0.666666666666667
 40
0.666666666666667
 40
0.666666666666667
 40
0.666666666666667
 40
0.733333333333333
 40
0.733333333333333
 40
0.733333333333333
 40
0.733333333333333
 40
0.8
 40
0.8
 40
0.8
 40
0.8
 40
0.866666666666667
 40
0.866666666666667
 40
0.866666666666667
 40
0.866666666666667
 40
0.933333333333333
 40
0.933333333333333
 40
0.933333333333333
 40
0.933333333333333
 40
1
 40
1
 40
1
 40
1
 10
-10.5572
 20
76.2134
 30
0
 10
-10.5761
 20
75.3682
 30
0
 10
-10.601
 20
74.6366
 30
0
 10
-10.5659
 20
73.3578
 30
0
 10
-10.5659
 20
73.3578
 30
0
 10
-10.5659
 20
73.3578
 30
0
 10
-10.5703
 20
73.3582
 30
0
 10
-10.5703
 20
73.3582
 30
0
 10
-10.5703
 20
73.3582
 30
0
 10
-10.5703
 20
73.3582
 30
0
 10
-10.5703
 20
73.2634
 30
0
 10
-10.5703
 20
73.2634
 30
0
 10
-10.5703
 20
73.2634
 30
0
 10
-10.5273
 20
73.2609
 30
0
 10
-10.4929
 20
73.2288
 30
0
 10
-10.4929
 20
73.1893
 30
0
 10
-10.4929
 20
73.1893
 30
0
 10
-10.4929
 20
73.1479
 30
0
 10
-10.5301
 20
73.1142
 30
0
 10
-10.5754
 20
73.1145
 30
0
 10
-10.5754
 20
73.1145
 30
0
 10
-10.6213
 20
73.1149
 30
0
 10
-10.6582
 20
73.1597
 30
0
 10
-10.6582
 20
73.2009
 30
0
 10
-10.6582
 20
73.2009
 30
0
 10
-10.6582
 20
73.2009
 30
0
 10
-12.6794
 20
73.201
 30
0
 10
-12.6794
 20
73.201
 30
0
 10
-12.6794
 20
73.201
 30
0
 10
-12.684
 20
73.1634
 30
0
 10
-12.7177
 20
73.1281
 30
0
 10
-12.7597
 20
73.1279
 30
0
 10
-12.7597
 20
73.1279
 30
0
 10
-12.8058
 20
73.128
 30
0
 10
-12.8427
 20
73.1618
 30
0
 10
-12.8427
 20
73.2031
 30
0
 10
-12.8427
 20
73.2031
 30
0
 10
-12.8427
 20
73.2405
 30
0
 10
-12.8128
 20
73.2699
 30
0
 10
-12.7738
 20
73.2757
 30
0
 10
-12.7738
 20
73.2757
 30
0
 10
-12.7738
 20
73.2757
 30
0
 10
-12.7731
 20
73.352
 30
0
 10
-12.7731
 20
73.352
 30
0
 10
-12.7731
 20
73.352
 30
0
 10
-12.7731
 20
73.352
 30
0
 10
-12.7711
 20
73.3609
 30
0
 10
-12.7711
 20
73.3609
 30
0
 10
-12.7711
 20
73.3609
 30
0
 10
-12.7307
 20
74.9745
 30
0
 10
-12.7232
 20
76.0645
 30
0
 10
-12.768
 20
77.701
 30
0
 10
-12.768
 20
77.701
 30
0
 10
-12.768
 20
77.701
 30
0
 10
-12.721
 20
77.7011
 30
0
 10
-12.721
 20
77.7011
 30
0
 10
-12.721
 20
77.7011
 30
0
 10
-12.721
 20
77.7011
 30
0
 10
-30.5522
 20
86.5475
 30
0
 10
-30.5522
 20
86.5475
 30
0
  0
SPLINE
  5
B9
100
AcDbEntity
  8
EBENE_1
100
AcDbSpline
370
-1
 62
250
  6
BYLAYER
 70
8
 71
3
 72
56
 73
52
 40
0
 40
0
 40
0
 40
0
 40
0.0769230769230769
 40
0.0769230769230769
 40
0.0769230769230769
 40
0.0769230769230769
 40
0.153846153846154
 40
0.153846153846154
 40
0.153846153846154
 40
0.153846153846154
 40
0.230769230769231
 40
0.230769230769231
 40
0.230769230769231
 40
0.230769230769231
 40
0.307692307692308
 40
0.307692307692308
 40
0.307692307692308
 40
0.307692307692308
 40
0.384615384615385
 40
0.384615384615385
 40
0.384615384615385
 40
0.384615384615385
 40
0.461538461538462
 40
0.461538461538462
 40
0.461538461538462
 40
0.461538461538462
 40
0.538461538461538
 40
0.538461538461538
 40
0.538461538461538
 40
0.538461538461538
 40
0.615384615384615
 40
0.615384615384615
 40
0.615384615384615
 40
0.615384615384615
 40
0.692307692307692
 40
0.692307692307692
 40
0.692307692307692
 40
0.692307692307692
 40
0.769230769230769
 40
0.769230769230769
 40
0.769230769230769
 40
0.769230769230769
 40
0.846153846153846
 40
0.846153846153846
 40
0.846153846153846
 40
0.846153846153846
 40
0.923076923076923
 40
0.923076923076923
 40
0.923076923076923
 40
0.923076923076923
 40
1
 40
1
 40
1
 40
1
 10
-10.5572
 20
76.2134
 30
0
 10
-10.5572
 20
76.2134
 30
0
 10
7.279
 20
63.9509
 30
0
 10
7.279
 20
63.9509
 30
0
 10
7.279
 20
63.9509
 30
0
 10
7.279
 20
63.9509
 30
0
 10
7.2332
 20
63.9509
 30
0
 10
7.2332
 20
63.9509
 30
0
 10
7.2332
 20
63.9509
 30
0
 10
7.2771
 20
62.3464
 30
0
 10
7.2619
 20
61.7873
 30
0
 10
7.2233
 20
60.2667
 30
0
 10
7.2233
 20
60.2667
 30
0
 10
7.2233
 20
60.2667
 30
0
 10
7.219
 20
60.2678
 30
0
 10
7.219
 20
60.2678
 30
0
 10
7.219
 20
60.2678
 30
0
 10
7.1738
 20
60.2678
 30
0
 10
7.1365
 20
60.2341
 30
0
 10
7.1365
 20
60.1926
 30
0
 10
7.1365
 20
60.1926
 30
0
 10
7.1365
 20
60.1514
 30
0
 10
7.1733
 20
60.1178
 30
0
 10
7.2187
 20
60.1175
 30
0
 10
7.2187
 20
60.1175
 30
0
 10
7.2646
 20
60.1171
 30
0
 10
7.3014
 20
60.1513
 30
0
 10
7.3014
 20
60.1926
 30
0
 10
7.3014
 20
60.1926
 30
0
 10
7.3014
 20
60.1926
 30
0
 10
7.2993
 20
60.202
 30
0
 10
7.2993
 20
60.202
 30
0
 10
7.2993
 20
60.202
 30
0
 10
7.2993
 20
60.202
 30
0
 10
9.3209
 20
60.1992
 30
0
 10
9.3209
 20
60.1992
 30
0
 10
9.3209
 20
60.1992
 30
0
 10
9.3209
 20
60.1579
 30
0
 10
9.357
 20
60.124
 30
0
 10
9.4033
 20
60.1238
 30
0
 10
9.4033
 20
60.1238
 30
0
 10
9.4488
 20
60.1237
 30
0
 10
9.4863
 20
60.1572
 30
0
 10
9.4863
 20
60.1986
 30
0
 10
9.4863
 20
60.1986
 30
0
 10
9.4863
 20
60.2386
 30
0
 10
9.4519
 20
60.2702
 30
0
 10
9.4082
 20
60.2725
 30
0
 10
9.4082
 20
60.2725
 30
0
 10
9.3913
 20
60.8832
 30
0
 10
9.414
 20
61.1033
 30
0
 10
9.414
 20
61.4106
 30
0
  0
SPLINE
  5
BA
100
AcDbEntity
  8
EBENE_1
100
AcDbSpline
370
-1
 62
250
  6
BYLAYER
 70
8
 71
3
 72
80
 73
76
 40
0
 40
0
 40
0
 40
0
 40
0.0526315789473684
 40
0.0526315789473684
 40
0.0526315789473684
 40
0.0526315789473684
 40
0.105263157894737
 40
0.105263157894737
 40
0.105263157894737
 40
0.105263157894737
 40
0.157894736842105
 40
0.157894736842105
 40
0.157894736842105
 40
0.157894736842105
 40
0.210526315789474
 40
0.210526315789474
 40
0.210526315789474
 40
0.210526315789474
 40
0.263157894736842
 40
0.263157894736842
 40
0.263157894736842
 40
0.263157894736842
 40
0.31578947368421
 40
0.31578947368421
 40
0.31578947368421
 40
0.31578947368421
 40
0.368421052631579
 40
0.368421052631579
 40
0.368421052631579
 40
0.368421052631579
 40
0.421052631578947
 40
0.421052631578947
 40
0.421052631578947
 40
0.421052631578947
 40
0.473684210526316
 40
0.473684210526316
 40
0.473684210526316
 40
0.473684210526316
 40
0.526315789473684
 40
0.526315789473684
 40
0.526315789473684
 40
0.526315789473684
 40
0.578947368421053
 40
0.578947368421053
 40
0.578947368421053
 40
0.578947368421053
 40
0.631578947368421
 40
0.631578947368421
 40
0.631578947368421
 40
0.631578947368421
 40
0.68421052631579
 40
0.68421052631579
 40
0.68421052631579
 40
0.68421052631579
 40
0.736842105263158
 40
0.736842105263158
 40
0.736842105263158
 40
0.736842105263158
 40
0.789473684210527
 40
0.789473684210527
 40
0.789473684210527
 40
0.789473684210527
 40
0.842105263157895
 40
0.842105263157895
 40
0.842105263157895
 40
0.842105263157895
 40
0.894736842105263
 40
0.894736842105263
 40
0.894736842105263
 40
0.894736842105263
 40
0.947368421052632
 40
0.947368421052632
 40
0.947368421052632
 40
0.947368421052632
 40
1
 40
1
 40
1
 40
1
 10
27.2972
 20
28.2691
 30
0
 10
27.2972
 20
28.2691
 30
0
 10
27.2897
 20
18.2805
 30
0
 10
27.2897
 20
18.2805
 30
0
 10
27.2897
 20
18.2805
 30
0
 10
27.2897
 20
18.2805
 30
0
 10
27.2902
 20
18.283
 30
0
 10
27.2902
 20
18.283
 30
0
 10
27.2902
 20
18.283
 30
0
 10
27.2902
 20
18.283
 30
0
 10
27.2902
 20
17.3369
 30
0
 10
27.2902
 20
17.3369
 30
0
 10
27.2902
 20
17.3369
 30
0
 10
27.2902
 20
16.4916
 30
0
 10
26.5946
 20
15.8252
 30
0
 10
25.7665
 20
15.8266
 30
0
 10
25.7665
 20
15.8266
 30
0
 10
25.7665
 20
15.8266
 30
0
 10
23.9068
 20
15.8356
 30
0
 10
23.9068
 20
15.8356
 30
0
 10
23.9068
 20
15.8356
 30
0
 10
23.9068
 20
15.8356
 30
0
 10
23.9068
 20
16.7253
 30
0
 10
23.9068
 20
16.7253
 30
0
 10
23.9068
 20
16.7253
 30
0
 10
23.9068
 20
16.7253
 30
0
 10
23.9068
 20
16.7255
 30
0
 10
23.9068
 20
16.7255
 30
0
 10
23.9068
 20
16.7255
 30
0
 10
23.9068
 20
16.7255
 30
0
 10
21.9369
 20
16.7262
 30
0
 10
21.9369
 20
16.7262
 30
0
 10
21.9369
 20
16.7262
 30
0
 10
21.9369
 20
16.7262
 30
0
 10
21.8677
 20
16.7269
 30
0
 10
21.8677
 20
16.7269
 30
0
 10
21.8677
 20
16.7269
 30
0
 10
21.8677
 20
17.4459
 30
0
 10
21.86
 20
18.2292
 30
0
 10
21.86
 20
18.9354
 30
0
 10
21.86
 20
18.9354
 30
0
 10
21.86
 20
18.9354
 30
0
 10
23.9319
 20
18.9286
 30
0
 10
23.9319
 20
18.9286
 30
0
 10
23.9319
 20
18.9286
 30
0
 10
23.9319
 20
18.9286
 30
0
 10
23.9289
 20
39.9656
 30
0
 10
23.9289
 20
39.9656
 30
0
 10
23.9289
 20
39.9656
 30
0
 10
23.9289
 20
39.9656
 30
0
 10
21.8581
 20
40.0193
 30
0
 10
21.8581
 20
40.0193
 30
0
 10
21.8581
 20
40.0193
 30
0
 10
21.8581
 20
40.0193
 30
0
 10
7.279
 20
57.7008
 30
0
 10
7.279
 20
57.7008
 30
0
 10
7.279
 20
57.7008
 30
0
 10
7.279
 20
57.7008
 30
0
 10
-12.721
 20
68.9511
 30
0
 10
-12.721
 20
68.9511
 30
0
 10
-12.721
 20
68.9511
 30
0
 10
-12.721
 20
68.9511
 30
0
 10
-32.7327
 20
77.705
 30
0
 10
-32.7327
 20
77.705
 30
0
 10
-32.7327
 20
77.705
 30
0
 10
-32.7327
 20
77.705
 30
0
 10
-52.721
 20
77.7011
 30
0
 10
-52.721
 20
77.7011
 30
0
 10
-52.721
 20
77.7011
 30
0
 10
-53.3945
 20
77.7776
 30
0
 10
-53.2672
 20
77.8784
 30
0
 10
-52.7211
 20
78.1622
 30
0
 10
-52.7211
 20
78.1622
 30
0
 10
-52.7211
 20
78.1622
 30
0
 10
-32.7574
 20
87.6064
 30
0
 10
-32.7574
 20
87.6064
 30
0
  0
SPLINE
  5
BB
100
AcDbEntity
  8
EBENE_1
100
AcDbSpline
370
-1
 62
250
  6
BYLAYER
 70
8
 71
3
 72
12
 73
8
 40
0
 40
0
 40
0
 40
0
 40
0.5
 40
0.5
 40
0.5
 40
0.5
 40
1
 40
1
 40
1
 40
1
 10
9.414
 20
61.4106
 30
0
 10
9.414
 20
61.4106
 30
0
 10
27.306
 20
40.1238
 30
0
 10
27.306
 20
40.1238
 30
0
 10
27.306
 20
40.1238
 30
0
 10
27.306
 20
40.1238
 30
0
 10
27.2977
 20
29.1934
 30
0
 10
27.2977
 20
29.1934
 30
0
  0
SPLINE
  5
BC
100
AcDbEntity
  8
EBENE_1
100
AcDbSpline
370
-1
 62
250
  6
BYLAYER
 70
24
 71
3
 72
8
 73
4
 40
0
 40
0
 40
0
 40
0
 40
1
 40
1
 40
1
 40
1
 10
27.2972
 20
28.2691
 30
0
 10
27.2972
 20
28.2691
 30
0
 10
27.2977
 20
29.1934
 30
0
 10
27.2977
 20
29.1934
 30
0
  0
SPLINE
  5
BD
100
AcDbEntity
  8
EBENE_1
100
AcDbSpline
370
-1
 62
250
  6
BYLAYER
 70
8
 71
3
 72
60
 73
56
 40
0
 40
0
 40
0
 40
0
 40
0.0714285714285714
 40
0.0714285714285714
 40
0.0714285714285714
 40
0.0714285714285714
 40
0.142857142857143
 40
0.142857142857143
 40
0.142857142857143
 40
0.142857142857143
 40
0.214285714285714
 40
0.214285714285714
 40
0.214285714285714
 40
0.214285714285714
 40
0.285714285714286
 40
0.285714285714286
 40
0.285714285714286
 40
0.285714285714286
 40
0.357142857142857
 40
0.357142857142857
 40
0.357142857142857
 40
0.357142857142857
 40
0.428571428571429
 40
0.428571428571429
 40
0.428571428571429
 40
0.428571428571429
 40
0.5
 40
0.5
 40
0.5
 40
0.5
 40
0.571428571428571
 40
0.571428571428571
 40
0.571428571428571
 40
0.571428571428571
 40
0.642857142857143
 40
0.642857142857143
 40
0.642857142857143
 40
0.642857142857143
 40
0.714285714285714
 40
0.714285714285714
 40
0.714285714285714
 40
0.714285714285714
 40
0.785714285714286
 40
0.785714285714286
 40
0.785714285714286
 40
0.785714285714286
 40
0.857142857142857
 40
0.857142857142857
 40
0.857142857142857
 40
0.857142857142857
 40
0.928571428571428
 40
0.928571428571428
 40
0.928571428571428
 40
0.928571428571428
 40
1
 40
1
 40
1
 40
1
 10
-25.118
 20
96.8052
 30
0
 10
-25.1372
 20
95.9422
 30
0
 10
-25.1517
 20
94.2016
 30
0
 10
-25.1162
 20
92.9018
 30
0
 10
-25.1162
 20
92.9018
 30
0
 10
-25.1162
 20
92.9018
 30
0
 10
-25.1202
 20
92.9022
 30
0
 10
-25.1202
 20
92.9022
 30
0
 10
-25.1202
 20
92.9022
 30
0
 10
-25.1202
 20
92.9022
 30
0
 10
-25.1202
 20
92.8074
 30
0
 10
-25.1202
 20
92.8074
 30
0
 10
-25.1202
 20
92.8074
 30
0
 10
-25.0772
 20
92.805
 30
0
 10
-25.0429
 20
92.7729
 30
0
 10
-25.0429
 20
92.7333
 30
0
 10
-25.0429
 20
92.7333
 30
0
 10
-25.0429
 20
92.692
 30
0
 10
-25.0804
 20
92.6582
 30
0
 10
-25.1259
 20
92.6586
 30
0
 10
-25.1259
 20
92.6586
 30
0
 10
-25.1712
 20
92.659
 30
0
 10
-25.2078
 20
92.6923
 30
0
 10
-25.2078
 20
92.7335
 30
0
 10
-25.2078
 20
92.7335
 30
0
 10
-25.2078
 20
92.7335
 30
0
 10
-25.2078
 20
92.7361
 30
0
 10
-25.2078
 20
92.7361
 30
0
 10
-25.2078
 20
92.7361
 30
0
 10
-25.2078
 20
92.7361
 30
0
 10
-27.2289
 20
92.7389
 30
0
 10
-27.2289
 20
92.7389
 30
0
 10
-27.2289
 20
92.7389
 30
0
 10
-27.2339
 20
92.7016
 30
0
 10
-27.2677
 20
92.6722
 30
0
 10
-27.3098
 20
92.672
 30
0
 10
-27.3098
 20
92.672
 30
0
 10
-27.3554
 20
92.672
 30
0
 10
-27.3927
 20
92.7058
 30
0
 10
-27.3927
 20
92.7471
 30
0
 10
-27.3927
 20
92.7471
 30
0
 10
-27.3927
 20
92.7845
 30
0
 10
-27.3624
 20
92.8139
 30
0
 10
-27.3239
 20
92.8198
 30
0
 10
-27.3239
 20
92.8198
 30
0
 10
-27.3239
 20
92.8198
 30
0
 10
-27.3232
 20
92.8959
 30
0
 10
-27.3232
 20
92.8959
 30
0
 10
-27.3232
 20
92.8959
 30
0
 10
-27.3232
 20
92.8959
 30
0
 10
-27.321
 20
92.9049
 30
0
 10
-27.321
 20
92.9049
 30
0
 10
-27.321
 20
92.9049
 30
0
 10
-27.2803
 20
94.5186
 30
0
 10
-27.2791
 20
96.2275
 30
0
 10
-27.3236
 20
97.8641
 30
0
  0
SPLINE
  5
BE
100
AcDbEntity
  8
EBENE_1
100
AcDbSpline
370
-1
 62
250
  6
BYLAYER
 70
8
 71
3
 72
64
 73
60
 40
0
 40
0
 40
0
 40
0
 40
0.0666666666666667
 40
0.0666666666666667
 40
0.0666666666666667
 40
0.0666666666666667
 40
0.133333333333333
 40
0.133333333333333
 40
0.133333333333333
 40
0.133333333333333
 40
0.2
 40
0.2
 40
0.2
 40
0.2
 40
0.266666666666667
 40
0.266666666666667
 40
0.266666666666667
 40
0.266666666666667
 40
0.333333333333333
 40
0.333333333333333
 40
0.333333333333333
 40
0.333333333333333
 40
0.4
 40
0.4
 40
0.4
 40
0.4
 40
0.466666666666667
 40
0.466666666666667
 40
0.466666666666667
 40
0.466666666666667
 40
0.533333333333333
 40
0.533333333333333
 40
0.533333333333333
 40
0.533333333333333
 40
0.6
 40
0.6
 40
0.6
 40
0.6
 40
0.666666666666667
 40
0.666666666666667
 40
0.666666666666667
 40
0.666666666666667
 40
0.733333333333333
 40
0.733333333333333
 40
0.733333333333333
 40
0.733333333333333
 40
0.8
 40
0.8
 40
0.8
 40
0.8
 40
0.866666666666667
 40
0.866666666666667
 40
0.866666666666667
 40
0.866666666666667
 40
0.933333333333333
 40
0.933333333333333
 40
0.933333333333333
 40
0.933333333333333
 40
1
 40
1
 40
1
 40
1
 10
-5.1229
 20
86.4712
 30
0
 10
-5.142
 20
85.6262
 30
0
 10
-5.1667
 20
84.8943
 30
0
 10
-5.1316
 20
83.6155
 30
0
 10
-5.1316
 20
83.6155
 30
0
 10
-5.1316
 20
83.6155
 30
0
 10
-5.1361
 20
83.6159
 30
0
 10
-5.1361
 20
83.6159
 30
0
 10
-5.1361
 20
83.6159
 30
0
 10
-5.1361
 20
83.6159
 30
0
 10
-5.1361
 20
83.5211
 30
0
 10
-5.1361
 20
83.5211
 30
0
 10
-5.1361
 20
83.5211
 30
0
 10
-5.0928
 20
83.5188
 30
0
 10
-5.0585
 20
83.4867
 30
0
 10
-5.0585
 20
83.4471
 30
0
 10
-5.0585
 20
83.4471
 30
0
 10
-5.0585
 20
83.4057
 30
0
 10
-5.0957
 20
83.3719
 30
0
 10
-5.1413
 20
83.3723
 30
0
 10
-5.1413
 20
83.3723
 30
0
 10
-5.1871
 20
83.3727
 30
0
 10
-5.224
 20
83.4174
 30
0
 10
-5.224
 20
83.4588
 30
0
 10
-5.224
 20
83.4588
 30
0
 10
-5.224
 20
83.4588
 30
0
 10
-7.2452
 20
83.4588
 30
0
 10
-7.2452
 20
83.4588
 30
0
 10
-7.2452
 20
83.4588
 30
0
 10
-7.2496
 20
83.4212
 30
0
 10
-7.2833
 20
83.3859
 30
0
 10
-7.3255
 20
83.3857
 30
0
 10
-7.3255
 20
83.3857
 30
0
 10
-7.3715
 20
83.3858
 30
0
 10
-7.4084
 20
83.4195
 30
0
 10
-7.4084
 20
83.4608
 30
0
 10
-7.4084
 20
83.4608
 30
0
 10
-7.4084
 20
83.4982
 30
0
 10
-7.3784
 20
83.5277
 30
0
 10
-7.3396
 20
83.5335
 30
0
 10
-7.3396
 20
83.5335
 30
0
 10
-7.3396
 20
83.5335
 30
0
 10
-7.3389
 20
83.6097
 30
0
 10
-7.3389
 20
83.6097
 30
0
 10
-7.3389
 20
83.6097
 30
0
 10
-7.3389
 20
83.6097
 30
0
 10
-7.3368
 20
83.6187
 30
0
 10
-7.3368
 20
83.6187
 30
0
 10
-7.3368
 20
83.6187
 30
0
 10
-7.2965
 20
85.2324
 30
0
 10
-7.289
 20
86.3222
 30
0
 10
-7.3338
 20
87.9588
 30
0
 10
-7.3338
 20
87.9588
 30
0
 10
-7.3338
 20
87.9588
 30
0
 10
-7.2868
 20
87.9588
 30
0
 10
-7.2868
 20
87.9588
 30
0
 10
-7.2868
 20
87.9588
 30
0
 10
-7.2868
 20
87.9588
 30
0
 10
-25.118
 20
96.8052
 30
0
 10
-25.118
 20
96.8052
 30
0
  0
SPLINE
  5
BF
100
AcDbEntity
  8
EBENE_1
100
AcDbSpline
370
-1
 62
250
  6
BYLAYER
 70
8
 71
3
 72
56
 73
52
 40
0
 40
0
 40
0
 40
0
 40
0.0769230769230769
 40
0.0769230769230769
 40
0.0769230769230769
 40
0.0769230769230769
 40
0.153846153846154
 40
0.153846153846154
 40
0.153846153846154
 40
0.153846153846154
 40
0.230769230769231
 40
0.230769230769231
 40
0.230769230769231
 40
0.230769230769231
 40
0.307692307692308
 40
0.307692307692308
 40
0.307692307692308
 40
0.307692307692308
 40
0.384615384615385
 40
0.384615384615385
 40
0.384615384615385
 40
0.384615384615385
 40
0.461538461538462
 40
0.461538461538462
 40
0.461538461538462
 40
0.461538461538462
 40
0.538461538461538
 40
0.538461538461538
 40
0.538461538461538
 40
0.538461538461538
 40
0.615384615384615
 40
0.615384615384615
 40
0.615384615384615
 40
0.615384615384615
 40
0.692307692307692
 40
0.692307692307692
 40
0.692307692307692
 40
0.692307692307692
 40
0.769230769230769
 40
0.769230769230769
 40
0.769230769230769
 40
0.769230769230769
 40
0.846153846153846
 40
0.846153846153846
 40
0.846153846153846
 40
0.846153846153846
 40
0.923076923076923
 40
0.923076923076923
 40
0.923076923076923
 40
0.923076923076923
 40
1
 40
1
 40
1
 40
1
 10
-5.1229
 20
86.4712
 30
0
 10
-5.1229
 20
86.4712
 30
0
 10
12.7134
 20
74.2087
 30
0
 10
12.7134
 20
74.2087
 30
0
 10
12.7134
 20
74.2087
 30
0
 10
12.7134
 20
74.2087
 30
0
 10
12.6675
 20
74.2087
 30
0
 10
12.6675
 20
74.2087
 30
0
 10
12.6675
 20
74.2087
 30
0
 10
12.7113
 20
72.6041
 30
0
 10
12.6961
 20
72.0452
 30
0
 10
12.6574
 20
70.5244
 30
0
 10
12.6574
 20
70.5244
 30
0
 10
12.6574
 20
70.5244
 30
0
 10
12.6534
 20
70.5255
 30
0
 10
12.6534
 20
70.5255
 30
0
 10
12.6534
 20
70.5255
 30
0
 10
12.6079
 20
70.5256
 30
0
 10
12.5707
 20
70.4918
 30
0
 10
12.5707
 20
70.4505
 30
0
 10
12.5707
 20
70.4505
 30
0
 10
12.5707
 20
70.4091
 30
0
 10
12.6075
 20
70.3757
 30
0
 10
12.653
 20
70.3754
 30
0
 10
12.653
 20
70.3754
 30
0
 10
12.699
 20
70.375
 30
0
 10
12.7357
 20
70.4091
 30
0
 10
12.7357
 20
70.4505
 30
0
 10
12.7357
 20
70.4505
 30
0
 10
12.7357
 20
70.4505
 30
0
 10
12.7336
 20
70.4597
 30
0
 10
12.7336
 20
70.4597
 30
0
 10
12.7336
 20
70.4597
 30
0
 10
12.7336
 20
70.4597
 30
0
 10
14.7553
 20
70.4571
 30
0
 10
14.7553
 20
70.4571
 30
0
 10
14.7553
 20
70.4571
 30
0
 10
14.7553
 20
70.4156
 30
0
 10
14.7914
 20
70.3817
 30
0
 10
14.8376
 20
70.3815
 30
0
 10
14.8376
 20
70.3815
 30
0
 10
14.8832
 20
70.3814
 30
0
 10
14.9207
 20
70.4149
 30
0
 10
14.9207
 20
70.4565
 30
0
 10
14.9207
 20
70.4565
 30
0
 10
14.9207
 20
70.4962
 30
0
 10
14.8861
 20
70.5279
 30
0
 10
14.8424
 20
70.5304
 30
0
 10
14.8424
 20
70.5304
 30
0
 10
14.8255
 20
71.1413
 30
0
 10
14.8482
 20
71.3612
 30
0
 10
14.8482
 20
71.6687
 30
0
  0
SPLINE
  5
C0
100
AcDbEntity
  8
EBENE_1
100
AcDbSpline
370
-1
 62
250
  6
BYLAYER
 70
8
 71
3
 72
44
 73
40
 40
0
 40
0
 40
0
 40
0
 40
0.1
 40
0.1
 40
0.1
 40
0.1
 40
0.2
 40
0.2
 40
0.2
 40
0.2
 40
0.3
 40
0.3
 40
0.3
 40
0.3
 40
0.4
 40
0.4
 40
0.4
 40
0.4
 40
0.5
 40
0.5
 40
0.5
 40
0.5
 40
0.6
 40
0.6
 40
0.6
 40
0.6
 40
0.7
 40
0.7
 40
0.7
 40
0.7
 40
0.8
 40
0.8
 40
0.8
 40
0.8
 40
0.9
 40
0.9
 40
0.9
 40
0.9
 40
1
 40
1
 40
1
 40
1
 10
27.302
 20
26.9848
 30
0
 10
27.302
 20
26.9848
 30
0
 10
27.3711
 20
26.9839
 30
0
 10
27.3711
 20
26.9839
 30
0
 10
27.3711
 20
26.9839
 30
0
 10
27.3711
 20
26.9839
 30
0
 10
29.3412
 20
26.9832
 30
0
 10
29.3412
 20
26.9832
 30
0
 10
29.3412
 20
26.9832
 30
0
 10
29.3412
 20
26.9832
 30
0
 10
29.3412
 20
26.983
 30
0
 10
29.3412
 20
26.983
 30
0
 10
29.3412
 20
26.983
 30
0
 10
29.3412
 20
26.983
 30
0
 10
29.3412
 20
26.0933
 30
0
 10
29.3412
 20
26.0933
 30
0
 10
29.3412
 20
26.0933
 30
0
 10
29.3412
 20
26.0933
 30
0
 10
31.2004
 20
26.0845
 30
0
 10
31.2004
 20
26.0845
 30
0
 10
31.2004
 20
26.0845
 30
0
 10
32.0294
 20
26.0831
 30
0
 10
32.7243
 20
26.7493
 30
0
 10
32.7243
 20
27.5945
 30
0
 10
32.7243
 20
27.5945
 30
0
 10
32.7243
 20
27.5945
 30
0
 10
32.7244
 20
28.5408
 30
0
 10
32.7244
 20
28.5408
 30
0
 10
32.7244
 20
28.5408
 30
0
 10
32.7244
 20
28.5408
 30
0
 10
32.7244
 20
28.5385
 30
0
 10
32.7244
 20
28.5385
 30
0
 10
32.7244
 20
28.5385
 30
0
 10
32.7244
 20
28.5385
 30
0
 10
32.7403
 20
50.3818
 30
0
 10
32.7403
 20
50.3818
 30
0
 10
32.7403
 20
50.3818
 30
0
 10
32.7403
 20
50.3818
 30
0
 10
14.8482
 20
71.6687
 30
0
 10
14.8482
 20
71.6687
 30
0
  0
SPLINE
  5
C1
100
AcDbEntity
  8
EBENE_1
100
AcDbSpline
370
-1
 62
250
  6
BYLAYER
 70
8
 71
3
 72
40
 73
36
 40
0
 40
0
 40
0
 40
0
 40
0.111111111111111
 40
0.111111111111111
 40
0.111111111111111
 40
0.111111111111111
 40
0.222222222222222
 40
0.222222222222222
 40
0.222222222222222
 40
0.222222222222222
 40
0.333333333333333
 40
0.333333333333333
 40
0.333333333333333
 40
0.333333333333333
 40
0.444444444444444
 40
0.444444444444444
 40
0.444444444444444
 40
0.444444444444444
 40
0.555555555555556
 40
0.555555555555556
 40
0.555555555555556
 40
0.555555555555556
 40
0.666666666666667
 40
0.666666666666667
 40
0.666666666666667
 40
0.666666666666667
 40
0.777777777777778
 40
0.777777777777778
 40
0.777777777777778
 40
0.777777777777778
 40
0.888888888888889
 40
0.888888888888889
 40
0.888888888888889
 40
0.888888888888889
 40
1
 40
1
 40
1
 40
1
 10
27.2977
 20
29.1934
 30
0
 10
27.2977
 20
29.1934
 30
0
 10
29.3659
 20
29.1865
 30
0
 10
29.3659
 20
29.1865
 30
0
 10
29.3659
 20
29.1865
 30
0
 10
29.3659
 20
29.1865
 30
0
 10
29.3624
 20
50.2233
 30
0
 10
29.3624
 20
50.2233
 30
0
 10
29.3624
 20
50.2233
 30
0
 10
29.3624
 20
50.2233
 30
0
 10
27.2923
 20
50.277
 30
0
 10
27.2923
 20
50.277
 30
0
 10
27.2923
 20
50.277
 30
0
 10
27.2923
 20
50.277
 30
0
 10
12.7134
 20
67.9587
 30
0
 10
12.7134
 20
67.9587
 30
0
 10
12.7134
 20
67.9587
 30
0
 10
12.7134
 20
67.9587
 30
0
 10
-7.2868
 20
79.2088
 30
0
 10
-7.2868
 20
79.2088
 30
0
 10
-7.2868
 20
79.2088
 30
0
 10
-7.2868
 20
79.2088
 30
0
 10
-27.2983
 20
87.963
 30
0
 10
-27.2983
 20
87.963
 30
0
 10
-27.2983
 20
87.963
 30
0
 10
-27.2983
 20
87.963
 30
0
 10
-47.2867
 20
87.9588
 30
0
 10
-47.2867
 20
87.9588
 30
0
 10
-47.2867
 20
87.9588
 30
0
 10
-47.9604
 20
88.0353
 30
0
 10
-47.8328
 20
88.1362
 30
0
 10
-47.2867
 20
88.42
 30
0
 10
-47.2867
 20
88.42
 30
0
 10
-47.2867
 20
88.42
 30
0
 10
-27.3235
 20
97.8641
 30
0
 10
-27.3235
 20
97.8641
 30
0
  0
ELLIPSE
  5
C2
100
AcDbEntity
  8
EBENE_1
100
AcDbEllipse
370
-1
 62
250
  6
BYLAYER
 10
-52.4528
 20
2.2441
 30
0
 11
0
 21
64.9985
 31
0
 40
0.999969230059155
 41
0
 42
6.28318530717959
  0
ENDSEC
  0
SECTION
  2
OBJECTS
  0
DICTIONARY
  5
11B
100
AcDbDictionary
  3
ACAD_GROUP
350
11C
  3
ACAD_MATERIAL
350
11D
  3
ACAD_WIPEOUT_VARS
350
11E
  3
ACAD_MLINESTYLE
350
11F
  3
ACAD_IMAGE_VARS
350
120
  3
AcDbVariableDictionary
350
121
  3
ACAD_LAYOUT
350
122
  0
DICTIONARY
  5
11C
330
11B
100
AcDbDictionary
  0
DICTIONARY
  5
11D
330
11B
100
AcDbDictionary
  0
WIPEOUTVARIABLES
  5
11E
330
11B
100
AcDbWipeoutVariables
 70
1
  0
DICTIONARY
  5
11F
330
11B
100
AcDbDictionary
  3
STANDARD
350
18
  0
MLINESTYLE
  5
18
330
11F
100
AcDbMlineStyle
  2
STANDARD
 70
0
  3

 62
256
 51
90
 52
90
 71
2
 49
0.5
 62
256
  6
BYLAYER
 49
-0.5
 62
256
  6
BYLAYER
  0
DICTIONARY
  5
122
100
AcDbDictionary
281
1
  3
Model
350
FA
  0
LAYOUT
  5
FA
102
{ACAD_REACTORS
330
122
102
}
330
122
100
AcDbPlotSettings
  1

  2
none_device
  4

  6

 40
0
 41
0
 42
0
 43
0
 44
0
 45
0
 46
0
 47
0
 48
0
 49
0
 70
1712
 72
1
 73
0
 74
5
 75
16
 76
0
 77
0
 78
100
140
0
141
0
142
1
143
1
147
1
148
0
149
0
100
AcDbLayout
  1
Model
 70
1
 71
1
 10
-150
 20
-100
 11
150
 21
100
 12
0
 22
0
 32
0
 14
-150
 24
-100
 34
0
 15
150
 25
100
 35
0
146
0
 13
0
 23
0
 33
0
 16
1
 26
0
 36
0
 17
0
 27
1
 37
0
 76
0
330
1F
  0
RASTERVARIABLES
  5
120
330
11B
100
AcDbRasterVariables
 90
0
 70
1
 71
0
 72
0
  0
DICTIONARY
  5
121
100
AcDbDictionary
281
1
  0
DICTIONARY
  5
123
100
AcDbDictionary
280
1
  3
XINFO
360
124
  0
XRECORD
  5
124
102
{ACAD_REACTORS
330
123
102
}
330
123
100
AcDbXrecord
280
0
310
6300000001000E00
311
DE780FB1CA9DD688
  0
ENDSEC
  0
EOF
