  0
SECTION
  2
HEADER
999
AutoConvert v5.0, Generic Software, Inc.
  9
$EXTMIN
 10
0.000000
 20
0.000000
  9
$EXTMAX
 10
21.096659
 20
14.748046
  9
$LIMMIN
 10
0.000000
 20
0.000000
  9
$LIMMAX
 10
21.096659
 20
14.748046
  9
$LUNITS
 70
  2
  9
$LUPREC
 70
  3
  9
$ATTMODE
 70
  2
  9
$ATTREQ
 70
  1
  9
$AUNITS
 70
  0
  9
$AUPREC
 70
  3
  9
$BLIPMODE
 70
  1
  9
$CHAMFERA
 40
0.500000
  9
$CHAMFERB
 40
0.500000
  9
$COORDS
 70
  1
  9
$CLAYER
  8
3
  9
$DIMASZ
 40
1.000000
  9
$DIMEXE
 40
0.500000
  9
$DIMEXO
 40
0.500000
  9
$DIMPOST
  1
"
  9
$DIMSE1
 70
  0
  9
$DIMSE2
 70
  0
  9
$DRAGMODE
 70
  1
  9
$FILLMODE
 70
  1
  9
$ORTHOMODE
 70
  0
  9
$PDMODE
 70
  2
  9
$QTEXTMODE
 70
  0
  9
$TEXTSIZE
 40
1.000000
  9
$GRIDMODE
 70
  0
  9
$SNAPMODE
 70
  0
  9
$SNAPUNIT
 10
0.125000
 20
0.125000
  9
$GRIDUNIT
 10
0.125000
 20
0.125000
  9
$SNAPBASE
 10
16.741655
 20
2.169544
  0
ENDSEC
  0
SECTION
  2
TABLES
  0
TABLE
  2
LTYPE
 70
 30
  0
LTYPE
  2
CONTINUOUS
 70
 64
  3
SOLID LINE
 72
 65
 73
  0
 40
0.000000
  0
ENDTAB
  0
TABLE
  2
LAYER
 70
255
  0
LAYER
  2
0
 62
  3
  6
CONTINUOUS
 70
 64
  0
LAYER
  2
3
 62
  3
  6
CONTINUOUS
 70
 64
  0
ENDTAB
  0
TABLE
  2
STYLE
 70
100
  0
ENDTAB
  0
ENDSEC
  0
SECTION
  2
BLOCKS
  0
ENDSEC
  0
SECTION
  2
ENTITIES
  0
LINE
  8
0
 62
3
  6
CONTINUOUS
 10
0.994517
 20
0.738180
 30
0.000000
 11
1.076526
 21
0.738179
 31
0.000000
  0
LINE
  8
0
 62
3
  6
CONTINUOUS
 10
1.131412
 20
0.766845
 30
0.000000
 11
1.182035
 21
0.832080
 31
0.000000
  0
LINE
  8
0
 62
3
  6
CONTINUOUS
 10
1.236902
 20
0.860745
 30
0.000000
 11
1.261382
 21
0.860753
 31
0.000000
  0
LINE
  8
0
 62
3
  6
CONTINUOUS
 10
1.317601
 20
0.830353
 30
0.000000
 11
1.363097
 21
0.768581
 31
0.000000
  0
LINE
  8
0
 62
3
  6
CONTINUOUS
 10
1.419294
 20
0.738180
 30
0.000000
 11
1.500768
 21
0.738180
 31
0.000000
  0
LINE
  8
0
 62
3
  6
CONTINUOUS
 10
1.575768
 20
0.648180
 30
0.000000
 11
1.575768
 21
0.286988
 31
0.000000
  0
LINE
  8
0
 62
3
  6
CONTINUOUS
 10
1.545768
 20
0.250988
 30
0.000000
 11
1.313643
 21
0.250988
 31
0.000000
  0
LINE
  8
0
 62
3
  6
CONTINUOUS
 10
1.313643
 20
0.250988
 30
0.000000
 11
1.313643
 21
0.472890
 31
0.000000
  0
LINE
  8
0
 62
3
  6
CONTINUOUS
 10
1.313643
 20
0.472890
 30
0.000000
 11
1.188644
 21
0.472890
 31
0.000000
  0
LINE
  8
0
 62
3
  6
CONTINUOUS
 10
1.188644
 20
0.472890
 30
0.000000
 11
1.188644
 21
0.250988
 31
0.000000
  0
LINE
  8
0
 62
3
  6
CONTINUOUS
 10
1.188644
 20
0.250988
 30
0.000000
 11
0.949518
 21
0.250987
 31
0.000000
  0
LINE
  8
0
 62
3
  6
CONTINUOUS
 10
0.919518
 20
0.286988
 30
0.000000
 11
0.919517
 21
0.648180
 31
0.000000
  0
LINE
  8
0
 62
3
  6
CONTINUOUS
 10
1.830917
 20
0.289754
 30
0.000000
 11
1.830917
 21
0.691079
 31
0.000000
  0
LINE
  8
0
 62
3
  6
CONTINUOUS
 10
1.930917
 20
0.791079
 30
0.000000
 11
2.040261
 21
0.791079
 31
0.000000
  0
LINE
  8
0
 62
3
  6
CONTINUOUS
 10
2.113443
 20
0.822930
 30
0.000000
 11
2.180940
 21
0.895412
 31
0.000000
  0
LINE
  8
0
 62
3
  6
CONTINUOUS
 10
2.254096
 20
0.927262
 30
0.000000
 11
2.286738
 21
0.927271
 31
0.000000
  0
LINE
  8
0
 62
3
  6
CONTINUOUS
 10
2.361695
 20
0.893493
 30
0.000000
 11
2.422354
 21
0.824857
 31
0.000000
  0
LINE
  8
0
 62
3
  6
CONTINUOUS
 10
2.497285
 20
0.791079
 30
0.000000
 11
2.605917
 21
0.791078
 31
0.000000
  0
LINE
  8
0
 62
3
  6
CONTINUOUS
 10
2.705917
 20
0.691079
 30
0.000000
 11
2.705917
 21
0.289754
 31
0.000000
  0
LINE
  8
0
 62
3
  6
CONTINUOUS
 10
2.665917
 20
0.249754
 30
0.000000
 11
2.330917
 21
0.249754
 31
0.000000
  0
LINE
  8
0
 62
3
  6
CONTINUOUS
 10
2.330917
 20
0.249754
 30
0.000000
 11
2.330917
 21
0.482605
 31
0.000000
  0
LINE
  8
0
 62
3
  6
CONTINUOUS
 10
2.330917
 20
0.482605
 30
0.000000
 11
2.205917
 21
0.482605
 31
0.000000
  0
LINE
  8
0
 62
3
  6
CONTINUOUS
 10
2.205917
 20
0.482605
 30
0.000000
 11
2.205917
 21
0.249754
 31
0.000000
  0
LINE
  8
0
 62
3
  6
CONTINUOUS
 10
2.205917
 20
0.249754
 30
0.000000
 11
1.870917
 21
0.249754
 31
0.000000
  0
LINE
  8
0
 62
3
  6
CONTINUOUS
 10
3.389424
 20
0.208468
 30
0.000000
 11
3.054423
 21
0.208467
 31
0.000000
  0
LINE
  8
0
 62
3
  6
CONTINUOUS
 10
3.014423
 20
0.248467
 30
0.000000
 11
3.014424
 21
0.649792
 31
0.000000
  0
LINE
  8
0
 62
3
  6
CONTINUOUS
 10
3.114424
 20
0.749792
 30
0.000000
 11
3.223767
 21
0.749792
 31
0.000000
  0
LINE
  8
0
 62
3
  6
CONTINUOUS
 10
3.296950
 20
0.781642
 30
0.000000
 11
3.364447
 21
0.854125
 31
0.000000
  0
LINE
  8
0
 62
3
  6
CONTINUOUS
 10
3.437603
 20
0.885975
 30
0.000000
 11
3.470244
 21
0.885985
 31
0.000000
  0
LINE
  8
0
 62
3
  6
CONTINUOUS
 10
3.545203
 20
0.852207
 30
0.000000
 11
3.605861
 21
0.783570
 31
0.000000
  0
LINE
  8
0
 62
3
  6
CONTINUOUS
 10
3.680793
 20
0.749792
 30
0.000000
 11
3.789424
 21
0.749792
 31
0.000000
  0
LINE
  8
0
 62
3
  6
CONTINUOUS
 10
3.889423
 20
0.649792
 30
0.000000
 11
3.889424
 21
0.248467
 31
0.000000
  0
LINE
  8
0
 62
3
  6
CONTINUOUS
 10
3.849423
 20
0.208467
 30
0.000000
 11
3.514424
 21
0.208468
 31
0.000000
  0
LINE
  8
0
 62
3
  6
CONTINUOUS
 10
3.514424
 20
0.208468
 30
0.000000
 11
3.514424
 21
0.441319
 31
0.000000
  0
LINE
  8
0
 62
3
  6
CONTINUOUS
 10
3.514424
 20
0.441319
 30
0.000000
 11
3.389424
 21
0.441319
 31
0.000000
  0
LINE
  8
0
 62
3
  6
CONTINUOUS
 10
3.389424
 20
0.441319
 30
0.000000
 11
3.389424
 21
0.208468
 31
0.000000
  0
LINE
  8
0
 62
3
  6
CONTINUOUS
 10
4.480454
 20
0.843573
 30
0.000000
 11
4.547954
 21
0.916056
 31
0.000000
  0
LINE
  8
0
 62
3
  6
CONTINUOUS
 10
4.621110
 20
0.947906
 30
0.000000
 11
4.653751
 21
0.947915
 31
0.000000
  0
LINE
  8
0
 62
3
  6
CONTINUOUS
 10
4.728708
 20
0.914137
 30
0.000000
 11
4.789367
 21
0.845500
 31
0.000000
  0
LINE
  8
0
 62
3
  6
CONTINUOUS
 10
4.864299
 20
0.811722
 30
0.000000
 11
4.972930
 21
0.811723
 31
0.000000
  0
LINE
  8
0
 62
3
  6
CONTINUOUS
 10
5.072928
 20
0.711722
 30
0.000000
 11
5.072930
 21
0.310397
 31
0.000000
  0
LINE
  8
0
 62
3
  6
CONTINUOUS
 10
5.032930
 20
0.270397
 30
0.000000
 11
4.697930
 21
0.270397
 31
0.000000
  0
LINE
  8
0
 62
3
  6
CONTINUOUS
 10
4.697930
 20
0.270397
 30
0.000000
 11
4.697930
 21
0.503248
 31
0.000000
  0
LINE
  8
0
 62
3
  6
CONTINUOUS
 10
4.697930
 20
0.503248
 30
0.000000
 11
4.572930
 21
0.503248
 31
0.000000
  0
LINE
  8
0
 62
3
  6
CONTINUOUS
 10
4.572930
 20
0.503248
 30
0.000000
 11
4.572930
 21
0.270397
 31
0.000000
  0
LINE
  8
0
 62
3
  6
CONTINUOUS
 10
4.572930
 20
0.270397
 30
0.000000
 11
4.237930
 21
0.270398
 31
0.000000
  0
LINE
  8
0
 62
3
  6
CONTINUOUS
 10
4.197930
 20
0.310397
 30
0.000000
 11
4.197929
 21
0.711722
 31
0.000000
  0
LINE
  8
0
 62
3
  6
CONTINUOUS
 10
4.297929
 20
0.811722
 30
0.000000
 11
4.407274
 21
0.811723
 31
0.000000
  0
LINE
  8
0
 62
3
  6
CONTINUOUS
 10
4.335654
 20
1.258413
 30
0.000000
 11
3.812830
 21
1.551833
 31
0.000000
  0
LINE
  8
0
 62
3
  6
CONTINUOUS
 10
3.812830
 20
1.551833
 30
0.000000
 11
3.871514
 21
1.662201
 31
0.000000
  0
LINE
  8
0
 62
3
  6
CONTINUOUS
 10
3.871514
 20
1.662201
 30
0.000000
 11
4.388395
 21
1.374184
 31
0.000000
  0
LINE
  8
0
 62
3
  6
CONTINUOUS
 10
4.388395
 20
1.374184
 30
0.000000
 11
4.399995
 21
1.386621
 31
0.000000
  0
LINE
  8
0
 62
3
  6
CONTINUOUS
 10
4.399995
 20
1.386621
 30
0.000000
 11
4.409833
 21
1.403414
 31
0.000000
  0
LINE
  8
0
 62
3
  6
CONTINUOUS
 10
4.409833
 20
1.403414
 30
0.000000
 11
4.418004
 21
1.423621
 31
0.000000
  0
LINE
  8
0
 62
3
  6
CONTINUOUS
 10
4.418004
 20
1.423621
 30
0.000000
 11
4.424603
 21
1.446305
 31
0.000000
  0
LINE
  8
0
 62
3
  6
CONTINUOUS
 10
4.424603
 20
1.446305
 30
0.000000
 11
4.429723
 21
1.470526
 31
0.000000
  0
LINE
  8
0
 62
3
  6
CONTINUOUS
 10
4.429723
 20
1.470526
 30
0.000000
 11
4.433458
 21
1.495346
 31
0.000000
  0
LINE
  8
0
 62
3
  6
CONTINUOUS
 10
4.433458
 20
1.495346
 30
0.000000
 11
4.435902
 21
1.519824
 31
0.000000
  0
LINE
  8
0
 62
3
  6
CONTINUOUS
 10
4.435902
 20
1.519824
 30
0.000000
 11
4.437150
 21
1.543022
 31
0.000000
  0
LINE
  8
0
 62
3
  6
CONTINUOUS
 10
4.437150
 20
1.543022
 30
0.000000
 11
4.437296
 21
1.564001
 31
0.000000
  0
LINE
  8
0
 62
3
  6
CONTINUOUS
 10
4.437296
 20
1.564001
 30
0.000000
 11
4.436434
 21
1.581821
 31
0.000000
  0
LINE
  8
0
 62
3
  6
CONTINUOUS
 10
4.436434
 20
1.581821
 30
0.000000
 11
4.433933
 21
1.600165
 31
0.000000
  0
LINE
  8
0
 62
3
  6
CONTINUOUS
 10
4.433933
 20
1.600165
 30
0.000000
 11
4.429386
 21
1.621041
 31
0.000000
  0
LINE
  8
0
 62
3
  6
CONTINUOUS
 10
4.242515
 20
1.839118
 30
0.000000
 11
4.001506
 21
1.944529
 31
0.000000
  0
LINE
  8
0
 62
3
  6
CONTINUOUS
 10
4.001506
 20
1.944529
 30
0.000000
 11
3.734331
 21
2.050698
 31
0.000000
  0
LINE
  8
0
 62
3
  6
CONTINUOUS
 10
3.734331
 20
2.050698
 30
0.000000
 11
3.734331
 21
1.844089
 31
0.000000
  0
LINE
  8
0
 62
3
  6
CONTINUOUS
 10
3.734331
 20
1.844089
 30
0.000000
 11
3.609331
 21
1.844089
 31
0.000000
  0
LINE
  8
0
 62
3
  6
CONTINUOUS
 10
3.609331
 20
1.844089
 30
0.000000
 11
3.609331
 21
2.085926
 31
0.000000
  0
LINE
  8
0
 62
3
  6
CONTINUOUS
 10
3.609331
 20
2.085926
 30
0.000000
 11
3.357222
 21
2.181027
 31
0.000000
  0
LINE
  8
0
 62
3
  6
CONTINUOUS
 10
3.357222
 20
2.181027
 30
0.000000
 11
3.406265
 21
2.011472
 31
0.000000
  0
LINE
  8
0
 62
3
  6
CONTINUOUS
 10
3.406265
 20
2.011472
 30
0.000000
 11
3.284469
 21
1.983353
 31
0.000000
  0
LINE
  8
0
 62
3
  6
CONTINUOUS
 10
3.284469
 20
1.983353
 30
0.000000
 11
3.222250
 21
2.209979
 31
0.000000
  0
LINE
  8
0
 62
3
  6
CONTINUOUS
 10
3.222250
 20
2.209979
 30
0.000000
 11
3.059122
 21
2.257944
 31
0.000000
  0
LINE
  8
0
 62
3
  6
CONTINUOUS
 10
3.059122
 20
2.257944
 30
0.000000
 11
2.784332
 21
2.284559
 31
0.000000
  0
LINE
  8
0
 62
3
  6
CONTINUOUS
 10
2.784332
 20
2.284559
 30
0.000000
 11
2.422388
 21
2.274401
 31
0.000000
  0
LINE
  8
0
 62
3
  6
CONTINUOUS
 10
2.422388
 20
2.274401
 30
0.000000
 11
2.518821
 21
2.102202
 31
0.000000
  0
LINE
  8
0
 62
3
  6
CONTINUOUS
 10
2.518821
 20
2.102202
 30
0.000000
 11
2.418992
 21
2.026975
 31
0.000000
  0
LINE
  8
0
 62
3
  6
CONTINUOUS
 10
2.418992
 20
2.026975
 30
0.000000
 11
2.284828
 21
2.249244
 31
0.000000
  0
LINE
  8
0
 62
3
  6
CONTINUOUS
 10
2.284828
 20
2.249244
 30
0.000000
 11
2.157163
 21
2.231329
 31
0.000000
  0
LINE
  8
0
 62
3
  6
CONTINUOUS
 10
2.157163
 20
2.231329
 30
0.000000
 11
1.914044
 21
2.174618
 31
0.000000
  0
LINE
  8
0
 62
3
  6
CONTINUOUS
 10
1.914044
 20
2.174618
 30
0.000000
 11
2.022151
 21
2.050530
 31
0.000000
  0
LINE
  8
0
 62
3
  6
CONTINUOUS
 10
2.022151
 20
2.050530
 30
0.000000
 11
1.941803
 21
1.954775
 31
0.000000
  0
LINE
  8
0
 62
3
  6
CONTINUOUS
 10
1.941803
 20
1.954775
 30
0.000000
 11
1.788548
 21
2.116745
 31
0.000000
  0
LINE
  8
0
 62
3
  6
CONTINUOUS
 10
1.788548
 20
2.116745
 30
0.000000
 11
1.633751
 21
2.063644
 31
0.000000
  0
LINE
  8
0
 62
3
  6
CONTINUOUS
 10
1.633751
 20
2.063644
 30
0.000000
 11
1.457352
 21
1.959910
 31
0.000000
  0
LINE
  8
0
 62
3
  6
CONTINUOUS
 10
1.457352
 20
1.959910
 30
0.000000
 11
1.609808
 21
1.889624
 31
0.000000
  0
LINE
  8
0
 62
3
  6
CONTINUOUS
 10
1.609808
 20
1.889624
 30
0.000000
 11
1.560966
 21
1.774562
 31
0.000000
  0
LINE
  8
0
 62
3
  6
CONTINUOUS
 10
1.560966
 20
1.774562
 30
0.000000
 11
1.335017
 21
1.876043
 31
0.000000
  0
LINE
  8
0
 62
3
  6
CONTINUOUS
 10
1.335017
 20
1.876043
 30
0.000000
 11
1.231773
 21
1.813260
 31
0.000000
  0
LINE
  8
0
 62
3
  6
CONTINUOUS
 10
1.231773
 20
1.813260
 30
0.000000
 11
1.057230
 21
1.671738
 31
0.000000
  0
LINE
  8
0
 62
3
  6
CONTINUOUS
 10
1.057230
 20
1.671738
 30
0.000000
 11
0.910359
 21
1.473059
 31
0.000000
  0
LINE
  8
0
 62
3
  6
CONTINUOUS
 10
0.910359
 20
1.473059
 30
0.000000
 11
2.887206
 21
1.741765
 31
0.000000
  0
LINE
  8
0
 62
3
  6
CONTINUOUS
 10
3.688843
 20
1.182358
 30
0.000000
 11
3.863231
 21
1.088889
 31
0.000000
  0
LINE
  8
0
 62
3
  6
CONTINUOUS
 10
3.863231
 20
1.088889
 30
0.000000
 11
3.929867
 21
1.068628
 31
0.000000
  0
LINE
  8
0
 62
3
  6
CONTINUOUS
 10
5.472414
 20
1.702060
 30
0.000000
 11
5.472415
 21
1.360934
 31
0.000000
  0
LINE
  8
0
 62
3
  6
CONTINUOUS
 10
5.448414
 20
1.326934
 30
0.000000
 11
5.273943
 21
1.326934
 31
0.000000
  0
LINE
  8
0
 62
3
  6
CONTINUOUS
 10
5.273943
 20
1.326934
 30
0.000000
 11
5.273943
 21
1.567909
 31
0.000000
  0
LINE
  8
0
 62
3
  6
CONTINUOUS
 10
5.273943
 20
1.567909
 30
0.000000
 11
5.148943
 21
1.567909
 31
0.000000
  0
LINE
  8
0
 62
3
  6
CONTINUOUS
 10
5.148943
 20
1.567909
 30
0.000000
 11
5.148943
 21
1.326934
 31
0.000000
  0
LINE
  8
0
 62
3
  6
CONTINUOUS
 10
5.148943
 20
1.326934
 30
0.000000
 11
4.971416
 21
1.326934
 31
0.000000
  0
LINE
  8
0
 62
3
  6
CONTINUOUS
 10
4.947414
 20
1.360934
 30
0.000000
 11
4.947416
 21
1.702060
 31
0.000000
  0
LINE
  8
0
 62
3
  6
CONTINUOUS
 10
5.007416
 20
1.787061
 30
0.000000
 11
5.073021
 21
1.787060
 31
0.000000
  0
LINE
  8
0
 62
3
  6
CONTINUOUS
 10
5.116929
 20
1.814134
 30
0.000000
 11
5.157428
 21
1.875743
 31
0.000000
  0
LINE
  8
0
 62
3
  6
CONTINUOUS
 10
5.201321
 20
1.902817
 30
0.000000
 11
5.220907
 21
1.902824
 31
0.000000
  0
LINE
  8
0
 62
3
  6
CONTINUOUS
 10
5.265881
 20
1.874113
 30
0.000000
 11
5.302277
 21
1.815771
 31
0.000000
  0
LINE
  8
0
 62
3
  6
CONTINUOUS
 10
5.347234
 20
1.787058
 30
0.000000
 11
5.412414
 21
1.787060
 31
0.000000
  0
LINE
  8
0
 62
3
  6
CONTINUOUS
 10
5.883178
 20
1.858565
 30
0.000000
 11
6.052098
 21
2.027062
 31
0.000000
  0
LINE
  8
0
 62
3
  6
CONTINUOUS
 10
6.052098
 20
2.027062
 30
0.000000
 11
6.213323
 21
2.100066
 31
0.000000
  0
LINE
  8
0
 62
3
  6
CONTINUOUS
 10
6.213323
 20
2.100066
 30
0.000000
 11
6.335854
 21
2.126613
 31
0.000000
  0
LINE
  8
0
 62
3
  6
CONTINUOUS
 10
5.875601
 20
2.003972
 30
0.000000
 11
5.878969
 21
2.023394
 31
0.000000
  0
LINE
  8
0
 62
3
  6
CONTINUOUS
 10
5.878969
 20
2.023394
 30
0.000000
 11
5.882794
 21
2.041576
 31
0.000000
  0
LINE
  8
0
 62
3
  6
CONTINUOUS
 10
5.882794
 20
2.041576
 30
0.000000
 11
5.887067
 21
2.057943
 31
0.000000
  0
LINE
  8
0
 62
3
  6
CONTINUOUS
 10
5.887067
 20
2.057943
 30
0.000000
 11
5.891779
 21
2.071923
 31
0.000000
  0
LINE
  8
0
 62
3
  6
CONTINUOUS
 10
5.891779
 20
2.071923
 30
0.000000
 11
5.897640
 21
2.085173
 31
0.000000
  0
LINE
  8
0
 62
3
  6
CONTINUOUS
 10
5.897640
 20
2.085173
 30
0.000000
 11
5.905331
 21
2.099924
 31
0.000000
  0
LINE
  8
0
 62
3
  6
CONTINUOUS
 10
5.905331
 20
2.099924
 30
0.000000
 11
5.914507
 21
2.115725
 31
0.000000
  0
LINE
  8
0
 62
3
  6
CONTINUOUS
 10
5.914507
 20
2.115725
 30
0.000000
 11
5.924827
 21
2.132125
 31
0.000000
  0
LINE
  8
0
 62
3
  6
CONTINUOUS
 10
5.924827
 20
2.132125
 30
0.000000
 11
5.935949
 21
2.148675
 31
0.000000
  0
LINE
  8
0
 62
3
  6
CONTINUOUS
 10
5.935949
 20
2.148675
 30
0.000000
 11
5.947530
 21
2.164922
 31
0.000000
  0
LINE
  8
0
 62
3
  6
CONTINUOUS
 10
5.947530
 20
2.164922
 30
0.000000
 11
5.959227
 21
2.180418
 31
0.000000
  0
LINE
  8
0
 62
3
  6
CONTINUOUS
 10
5.959227
 20
2.180418
 30
0.000000
 11
5.970697
 21
2.194711
 31
0.000000
  0
LINE
  8
0
 62
3
  6
CONTINUOUS
 10
5.970697
 20
2.194711
 30
0.000000
 11
5.981599
 21
2.207351
 31
0.000000
  0
LINE
  8
0
 62
3
  6
CONTINUOUS
 10
5.981599
 20
2.207351
 30
0.000000
 11
5.991589
 21
2.217887
 31
0.000000
  0
LINE
  8
0
 62
3
  6
CONTINUOUS
 10
5.991589
 20
2.217887
 30
0.000000
 11
5.999084
 21
2.224825
 31
0.000000
  0
LINE
  8
0
 62
3
  6
CONTINUOUS
 10
5.999084
 20
2.224825
 30
0.000000
 11
6.008084
 21
2.232347
 31
0.000000
  0
LINE
  8
0
 62
3
  6
CONTINUOUS
 10
6.008084
 20
2.232347
 30
0.000000
 11
6.018262
 21
2.240233
 31
0.000000
  0
LINE
  8
0
 62
3
  6
CONTINUOUS
 10
6.018262
 20
2.240233
 30
0.000000
 11
6.029290
 21
2.248264
 31
0.000000
  0
LINE
  8
0
 62
3
  6
CONTINUOUS
 10
6.029290
 20
2.248264
 30
0.000000
 11
6.040842
 21
2.256221
 31
0.000000
  0
LINE
  8
0
 62
3
  6
CONTINUOUS
 10
6.040842
 20
2.256221
 30
0.000000
 11
6.052590
 21
2.263885
 31
0.000000
  0
LINE
  8
0
 62
3
  6
CONTINUOUS
 10
6.052590
 20
2.263885
 30
0.000000
 11
6.064208
 21
2.271036
 31
0.000000
  0
LINE
  8
0
 62
3
  6
CONTINUOUS
 10
6.064208
 20
2.271036
 30
0.000000
 11
6.075369
 21
2.277455
 31
0.000000
  0
LINE
  8
0
 62
3
  6
CONTINUOUS
 10
6.075369
 20
2.277455
 30
0.000000
 11
6.085746
 21
2.282924
 31
0.000000
  0
LINE
  8
0
 62
3
  6
CONTINUOUS
 10
6.085746
 20
2.282924
 30
0.000000
 11
6.095010
 21
2.287222
 31
0.000000
  0
LINE
  8
0
 62
3
  6
CONTINUOUS
 10
6.095010
 20
2.287222
 30
0.000000
 11
6.159948
 21
2.332487
 31
0.000000
  0
LINE
  8
0
 62
3
  6
CONTINUOUS
 10
6.159948
 20
2.332487
 30
0.000000
 11
6.157764
 21
2.337502
 31
0.000000
  0
LINE
  8
0
 62
3
  6
CONTINUOUS
 10
6.157764
 20
2.337502
 30
0.000000
 11
6.156132
 21
2.343603
 31
0.000000
  0
LINE
  8
0
 62
3
  6
CONTINUOUS
 10
6.156132
 20
2.343603
 30
0.000000
 11
6.155026
 21
2.350524
 31
0.000000
  0
LINE
  8
0
 62
3
  6
CONTINUOUS
 10
6.155026
 20
2.350524
 30
0.000000
 11
6.154421
 21
2.357998
 31
0.000000
  0
LINE
  8
0
 62
3
  6
CONTINUOUS
 10
6.154421
 20
2.357998
 30
0.000000
 11
6.154293
 21
2.365760
 31
0.000000
  0
LINE
  8
0
 62
3
  6
CONTINUOUS
 10
6.154293
 20
2.365760
 30
0.000000
 11
6.154618
 21
2.373542
 31
0.000000
  0
LINE
  8
0
 62
3
  6
CONTINUOUS
 10
6.154618
 20
2.373542
 30
0.000000
 11
6.155371
 21
2.381078
 31
0.000000
  0
LINE
  8
0
 62
3
  6
CONTINUOUS
 10
6.155371
 20
2.381078
 30
0.000000
 11
6.156526
 21
2.388102
 31
0.000000
  0
LINE
  8
0
 62
3
  6
CONTINUOUS
 10
6.156526
 20
2.388102
 30
0.000000
 11
6.158060
 21
2.394348
 31
0.000000
  0
LINE
  8
0
 62
3
  6
CONTINUOUS
 10
6.158060
 20
2.394348
 30
0.000000
 11
6.159948
 21
2.399549
 31
0.000000
  0
LINE
  8
0
 62
3
  6
CONTINUOUS
 10
6.159948
 20
2.399549
 30
0.000000
 11
6.164731
 21
2.407915
 31
0.000000
  0
LINE
  8
0
 62
3
  6
CONTINUOUS
 10
6.164731
 20
2.407915
 30
0.000000
 11
6.171508
 21
2.416606
 31
0.000000
  0
LINE
  8
0
 62
3
  6
CONTINUOUS
 10
6.171508
 20
2.416606
 30
0.000000
 11
6.179872
 21
2.425463
 31
0.000000
  0
LINE
  8
0
 62
3
  6
CONTINUOUS
 10
6.179872
 20
2.425463
 30
0.000000
 11
6.189418
 21
2.434329
 31
0.000000
  0
LINE
  8
0
 62
3
  6
CONTINUOUS
 10
6.189418
 20
2.434329
 30
0.000000
 11
6.199741
 21
2.443045
 31
0.000000
  0
LINE
  8
0
 62
3
  6
CONTINUOUS
 10
6.199741
 20
2.443045
 30
0.000000
 11
6.210435
 21
2.451450
 31
0.000000
  0
LINE
  8
0
 62
3
  6
CONTINUOUS
 10
6.210435
 20
2.451450
 30
0.000000
 11
6.221095
 21
2.459388
 31
0.000000
  0
LINE
  8
0
 62
3
  6
CONTINUOUS
 10
6.221095
 20
2.459388
 30
0.000000
 11
6.231314
 21
2.466699
 31
0.000000
  0
LINE
  8
0
 62
3
  6
CONTINUOUS
 10
6.231314
 20
2.466699
 30
0.000000
 11
6.240687
 21
2.473224
 31
0.000000
  0
LINE
  8
0
 62
3
  6
CONTINUOUS
 10
6.240687
 20
2.473224
 30
0.000000
 11
6.248809
 21
2.478804
 31
0.000000
  0
LINE
  8
0
 62
3
  6
CONTINUOUS
 10
6.248809
 20
2.478804
 30
0.000000
 11
6.265252
 21
2.489627
 31
0.000000
  0
LINE
  8
0
 62
3
  6
CONTINUOUS
 10
6.265252
 20
2.489627
 30
0.000000
 11
6.284493
 21
2.501479
 31
0.000000
  0
LINE
  8
0
 62
3
  6
CONTINUOUS
 10
6.284493
 20
2.501479
 30
0.000000
 11
6.305891
 21
2.513988
 31
0.000000
  0
LINE
  8
0
 62
3
  6
CONTINUOUS
 10
6.305891
 20
2.513988
 30
0.000000
 11
6.328803
 21
2.526779
 31
0.000000
  0
LINE
  8
0
 62
3
  6
CONTINUOUS
 10
6.328803
 20
2.526779
 30
0.000000
 11
6.352585
 21
2.539480
 31
0.000000
  0
LINE
  8
0
 62
3
  6
CONTINUOUS
 10
6.352585
 20
2.539480
 30
0.000000
 11
6.376597
 21
2.551715
 31
0.000000
  0
LINE
  8
0
 62
3
  6
CONTINUOUS
 10
6.376597
 20
2.551715
 30
0.000000
 11
6.400195
 21
2.563113
 31
0.000000
  0
LINE
  8
0
 62
3
  6
CONTINUOUS
 10
6.400195
 20
2.563113
 30
0.000000
 11
6.422735
 21
2.573299
 31
0.000000
  0
LINE
  8
0
 62
3
  6
CONTINUOUS
 10
6.422735
 20
2.573299
 30
0.000000
 11
6.443577
 21
2.581900
 31
0.000000
  0
LINE
  8
0
 62
3
  6
CONTINUOUS
 10
6.443577
 20
2.581900
 30
0.000000
 11
6.462077
 21
2.588542
 31
0.000000
  0
LINE
  8
0
 62
3
  6
CONTINUOUS
 10
6.462077
 20
2.588542
 30
0.000000
 11
6.490868
 21
2.596653
 31
0.000000
  0
LINE
  8
0
 62
3
  6
CONTINUOUS
 10
6.490868
 20
2.596653
 30
0.000000
 11
6.524321
 21
2.604123
 31
0.000000
  0
LINE
  8
0
 62
3
  6
CONTINUOUS
 10
6.524321
 20
2.604123
 30
0.000000
 11
6.561299
 21
2.610972
 31
0.000000
  0
LINE
  8
0
 62
3
  6
CONTINUOUS
 10
6.561299
 20
2.610972
 30
0.000000
 11
6.600668
 21
2.617224
 31
0.000000
  0
LINE
  8
0
 62
3
  6
CONTINUOUS
 10
6.600668
 20
2.617224
 30
0.000000
 11
6.641290
 21
2.622900
 31
0.000000
  0
LINE
  8
0
 62
3
  6
CONTINUOUS
 10
6.641290
 20
2.622900
 30
0.000000
 11
6.682029
 21
2.628022
 31
0.000000
  0
LINE
  8
0
 62
3
  6
CONTINUOUS
 10
6.682029
 20
2.628022
 30
0.000000
 11
6.721751
 21
2.632612
 31
0.000000
  0
LINE
  8
0
 62
3
  6
CONTINUOUS
 10
6.721751
 20
2.632612
 30
0.000000
 11
6.759318
 21
2.636692
 31
0.000000
  0
LINE
  8
0
 62
3
  6
CONTINUOUS
 10
6.759318
 20
2.636692
 30
0.000000
 11
6.793595
 21
2.640284
 31
0.000000
  0
LINE
  8
0
 62
3
  6
CONTINUOUS
 10
6.793595
 20
2.640284
 30
0.000000
 11
6.823447
 21
2.643411
 31
0.000000
  0
LINE
  8
0
 62
3
  6
CONTINUOUS
 10
6.823447
 20
2.643411
 30
0.000000
 11
6.855909
 21
2.646410
 31
0.000000
  0
LINE
  8
0
 62
3
  6
CONTINUOUS
 10
6.855909
 20
2.646410
 30
0.000000
 11
6.893181
 21
2.649134
 31
0.000000
  0
LINE
  8
0
 62
3
  6
CONTINUOUS
 10
6.893181
 20
2.649134
 30
0.000000
 11
6.934062
 21
2.651639
 31
0.000000
  0
LINE
  8
0
 62
3
  6
CONTINUOUS
 10
6.934062
 20
2.651639
 30
0.000000
 11
6.977350
 21
2.653982
 31
0.000000
  0
LINE
  8
0
 62
3
  6
CONTINUOUS
 10
6.977350
 20
2.653982
 30
0.000000
 11
7.021844
 21
2.656218
 31
0.000000
  0
LINE
  8
0
 62
3
  6
CONTINUOUS
 10
7.021844
 20
2.656218
 30
0.000000
 11
7.066342
 21
2.658406
 31
0.000000
  0
LINE
  8
0
 62
3
  6
CONTINUOUS
 10
7.066342
 20
2.658406
 30
0.000000
 11
7.109645
 21
2.660601
 31
0.000000
  0
LINE
  8
0
 62
3
  6
CONTINUOUS
 10
7.109645
 20
2.660601
 30
0.000000
 11
7.150549
 21
2.662860
 31
0.000000
  0
LINE
  8
0
 62
3
  6
CONTINUOUS
 10
7.150549
 20
2.662860
 30
0.000000
 11
7.187855
 21
2.665240
 31
0.000000
  0
LINE
  8
0
 62
3
  6
CONTINUOUS
 10
7.187855
 20
2.665240
 30
0.000000
 11
7.220361
 21
2.667797
 31
0.000000
  0
LINE
  8
0
 62
3
  6
CONTINUOUS
 10
7.220361
 20
2.667797
 30
0.000000
 11
7.250101
 21
2.670426
 31
0.000000
  0
LINE
  8
0
 62
3
  6
CONTINUOUS
 10
7.250101
 20
2.670426
 30
0.000000
 11
7.284217
 21
2.673435
 31
0.000000
  0
LINE
  8
0
 62
3
  6
CONTINUOUS
 10
7.284217
 20
2.673435
 30
0.000000
 11
7.321602
 21
2.676818
 31
0.000000
  0
LINE
  8
0
 62
3
  6
CONTINUOUS
 10
7.321602
 20
2.676818
 30
0.000000
 11
7.361147
 21
2.680568
 31
0.000000
  0
LINE
  8
0
 62
3
  6
CONTINUOUS
 10
7.361147
 20
2.680568
 30
0.000000
 11
7.401745
 21
2.684681
 31
0.000000
  0
LINE
  8
0
 62
3
  6
CONTINUOUS
 10
7.401745
 20
2.684681
 30
0.000000
 11
7.442286
 21
2.689149
 31
0.000000
  0
LINE
  8
0
 62
3
  6
CONTINUOUS
 10
7.442286
 20
2.689149
 30
0.000000
 11
7.481664
 21
2.693969
 31
0.000000
  0
LINE
  8
0
 62
3
  6
CONTINUOUS
 10
7.481664
 20
2.693969
 30
0.000000
 11
7.518769
 21
2.699133
 31
0.000000
  0
LINE
  8
0
 62
3
  6
CONTINUOUS
 10
7.518769
 20
2.699133
 30
0.000000
 11
7.552494
 21
2.704636
 31
0.000000
  0
LINE
  8
0
 62
3
  6
CONTINUOUS
 10
7.552494
 20
2.704636
 30
0.000000
 11
7.581731
 21
2.710473
 31
0.000000
  0
LINE
  8
0
 62
3
  6
CONTINUOUS
 10
7.581731
 20
2.710473
 30
0.000000
 11
7.614910
 21
2.719224
 31
0.000000
  0
LINE
  8
0
 62
3
  6
CONTINUOUS
 10
7.614910
 20
2.719224
 30
0.000000
 11
7.652420
 21
2.731128
 31
0.000000
  0
LINE
  8
0
 62
3
  6
CONTINUOUS
 10
7.652420
 20
2.731128
 30
0.000000
 11
7.693181
 21
2.745392
 31
0.000000
  0
LINE
  8
0
 62
3
  6
CONTINUOUS
 10
7.693181
 20
2.745392
 30
0.000000
 11
7.736109
 21
2.761222
 31
0.000000
  0
LINE
  8
0
 62
3
  6
CONTINUOUS
 10
7.736109
 20
2.761222
 30
0.000000
 11
7.780124
 21
2.777822
 31
0.000000
  0
LINE
  8
0
 62
3
  6
CONTINUOUS
 10
7.780124
 20
2.777822
 30
0.000000
 11
7.824144
 21
2.794399
 31
0.000000
  0
LINE
  8
0
 62
3
  6
CONTINUOUS
 10
7.824144
 20
2.794399
 30
0.000000
 11
7.867088
 21
2.810159
 31
0.000000
  0
LINE
  8
0
 62
3
  6
CONTINUOUS
 10
7.867088
 20
2.810159
 30
0.000000
 11
7.907874
 21
2.824308
 31
0.000000
  0
LINE
  8
0
 62
3
  6
CONTINUOUS
 10
7.907874
 20
2.824308
 30
0.000000
 11
7.945420
 21
2.836052
 31
0.000000
  0
LINE
  8
0
 62
3
  6
CONTINUOUS
 10
7.945420
 20
2.836052
 30
0.000000
 11
7.978645
 21
2.844596
 31
0.000000
  0
LINE
  8
0
 62
3
  6
CONTINUOUS
 10
7.978645
 20
2.844596
 30
0.000000
 11
8.002605
 21
2.849314
 31
0.000000
  0
LINE
  8
0
 62
3
  6
CONTINUOUS
 10
8.002605
 20
2.849314
 30
0.000000
 11
8.030237
 21
2.853908
 31
0.000000
  0
LINE
  8
0
 62
3
  6
CONTINUOUS
 10
8.030237
 20
2.853908
 30
0.000000
 11
8.060635
 21
2.858287
 31
0.000000
  0
LINE
  8
0
 62
3
  6
CONTINUOUS
 10
8.060635
 20
2.858287
 30
0.000000
 11
8.092895
 21
2.862358
 31
0.000000
  0
LINE
  8
0
 62
3
  6
CONTINUOUS
 10
8.092895
 20
2.862358
 30
0.000000
 11
8.126111
 21
2.866026
 31
0.000000
  0
LINE
  8
0
 62
3
  6
CONTINUOUS
 10
8.126111
 20
2.866026
 30
0.000000
 11
8.159377
 21
2.869200
 31
0.000000
  0
LINE
  8
0
 62
3
  6
CONTINUOUS
 10
8.159377
 20
2.869200
 30
0.000000
 11
8.191790
 21
2.871784
 31
0.000000
  0
LINE
  8
0
 62
3
  6
CONTINUOUS
 10
8.191790
 20
2.871784
 30
0.000000
 11
8.222444
 21
2.873688
 31
0.000000
  0
LINE
  8
0
 62
3
  6
CONTINUOUS
 10
8.222444
 20
2.873688
 30
0.000000
 11
8.250432
 21
2.874817
 31
0.000000
  0
LINE
  8
0
 62
3
  6
CONTINUOUS
 10
8.250432
 20
2.874817
 30
0.000000
 11
8.274850
 21
2.875079
 31
0.000000
  0
LINE
  8
0
 62
3
  6
CONTINUOUS
 10
8.274850
 20
2.875079
 30
0.000000
 11
8.273920
 21
2.871754
 31
0.000000
  0
LINE
  8
0
 62
3
  6
CONTINUOUS
 10
8.273920
 20
2.871754
 30
0.000000
 11
8.271305
 21
2.862581
 31
0.000000
  0
LINE
  8
0
 62
3
  6
CONTINUOUS
 10
8.271305
 20
2.862581
 30
0.000000
 11
8.267274
 21
2.848762
 31
0.000000
  0
LINE
  8
0
 62
3
  6
CONTINUOUS
 10
8.267274
 20
2.848762
 30
0.000000
 11
8.262093
 21
2.831499
 31
0.000000
  0
LINE
  8
0
 62
3
  6
CONTINUOUS
 10
8.262093
 20
2.831499
 30
0.000000
 11
8.256029
 21
2.811995
 31
0.000000
  0
LINE
  8
0
 62
3
  6
CONTINUOUS
 10
8.256029
 20
2.811995
 30
0.000000
 11
8.249347
 21
2.791451
 31
0.000000
  0
LINE
  8
0
 62
3
  6
CONTINUOUS
 10
8.249347
 20
2.791451
 30
0.000000
 11
8.242316
 21
2.771070
 31
0.000000
  0
LINE
  8
0
 62
3
  6
CONTINUOUS
 10
8.242316
 20
2.771070
 30
0.000000
 11
8.235201
 21
2.752054
 31
0.000000
  0
LINE
  8
0
 62
3
  6
CONTINUOUS
 10
8.235201
 20
2.752054
 30
0.000000
 11
8.228270
 21
2.735606
 31
0.000000
  0
LINE
  8
0
 62
3
  6
CONTINUOUS
 10
8.228270
 20
2.735606
 30
0.000000
 11
8.221790
 21
2.722926
 31
0.000000
  0
LINE
  8
0
 62
3
  6
CONTINUOUS
 10
8.221790
 20
2.722926
 30
0.000000
 11
8.212528
 21
2.709698
 31
0.000000
  0
LINE
  8
0
 62
3
  6
CONTINUOUS
 10
8.212528
 20
2.709698
 30
0.000000
 11
8.200371
 21
2.695639
 31
0.000000
  0
LINE
  8
0
 62
3
  6
CONTINUOUS
 10
8.200371
 20
2.695639
 30
0.000000
 11
8.186073
 21
2.680942
 31
0.000000
  0
LINE
  8
0
 62
3
  6
CONTINUOUS
 10
8.186073
 20
2.680942
 30
0.000000
 11
8.170384
 21
2.665799
 31
0.000000
  0
LINE
  8
0
 62
3
  6
CONTINUOUS
 10
8.170384
 20
2.665799
 30
0.000000
 11
8.154057
 21
2.650403
 31
0.000000
  0
LINE
  8
0
 62
3
  6
CONTINUOUS
 10
8.154057
 20
2.650403
 30
0.000000
 11
8.137845
 21
2.634946
 31
0.000000
  0
LINE
  8
0
 62
3
  6
CONTINUOUS
 10
8.137845
 20
2.634946
 30
0.000000
 11
8.122499
 21
2.619620
 31
0.000000
  0
LINE
  8
0
 62
3
  6
CONTINUOUS
 10
8.122499
 20
2.619620
 30
0.000000
 11
8.108772
 21
2.604617
 31
0.000000
  0
LINE
  8
0
 62
3
  6
CONTINUOUS
 10
8.108772
 20
2.604617
 30
0.000000
 11
8.097415
 21
2.590129
 31
0.000000
  0
LINE
  8
0
 62
3
  6
CONTINUOUS
 10
8.097415
 20
2.590129
 30
0.000000
 11
8.089182
 21
2.576350
 31
0.000000
  0
LINE
  8
0
 62
3
  6
CONTINUOUS
 10
8.089182
 20
2.576350
 30
0.000000
 11
8.087086
 21
2.571648
 31
0.000000
  0
LINE
  8
0
 62
3
  6
CONTINUOUS
 10
8.087086
 20
2.571648
 30
0.000000
 11
8.084878
 21
2.566008
 31
0.000000
  0
LINE
  8
0
 62
3
  6
CONTINUOUS
 10
8.084878
 20
2.566008
 30
0.000000
 11
8.082694
 21
2.559669
 31
0.000000
  0
LINE
  8
0
 62
3
  6
CONTINUOUS
 10
8.082694
 20
2.559669
 30
0.000000
 11
8.080668
 21
2.552867
 31
0.000000
  0
LINE
  8
0
 62
3
  6
CONTINUOUS
 10
8.080668
 20
2.552867
 30
0.000000
 11
8.078934
 21
2.545842
 31
0.000000
  0
LINE
  8
0
 62
3
  6
CONTINUOUS
 10
8.078934
 20
2.545842
 30
0.000000
 11
8.077627
 21
2.538832
 31
0.000000
  0
LINE
  8
0
 62
3
  6
CONTINUOUS
 10
8.077627
 20
2.538832
 30
0.000000
 11
8.076882
 21
2.532074
 31
0.000000
  0
LINE
  8
0
 62
3
  6
CONTINUOUS
 10
8.076882
 20
2.532074
 30
0.000000
 11
8.076832
 21
2.525807
 31
0.000000
  0
LINE
  8
0
 62
3
  6
CONTINUOUS
 10
8.076832
 20
2.525807
 30
0.000000
 11
8.077613
 21
2.520269
 31
0.000000
  0
LINE
  8
0
 62
3
  6
CONTINUOUS
 10
8.077613
 20
2.520269
 30
0.000000
 11
8.079359
 21
2.515697
 31
0.000000
  0
LINE
  8
0
 62
3
  6
CONTINUOUS
 10
8.079359
 20
2.515697
 30
0.000000
 11
8.091926
 21
2.502505
 31
0.000000
  0
LINE
  8
0
 62
3
  6
CONTINUOUS
 10
8.091926
 20
2.502505
 30
0.000000
 11
8.111236
 21
2.492685
 31
0.000000
  0
LINE
  8
0
 62
3
  6
CONTINUOUS
 10
8.111236
 20
2.492685
 30
0.000000
 11
8.135514
 21
2.485356
 31
0.000000
  0
LINE
  8
0
 62
3
  6
CONTINUOUS
 10
8.135514
 20
2.485356
 30
0.000000
 11
8.162984
 21
2.479636
 31
0.000000
  0
LINE
  8
0
 62
3
  6
CONTINUOUS
 10
8.162984
 20
2.479636
 30
0.000000
 11
8.191873
 21
2.474645
 31
0.000000
  0
LINE
  8
0
 62
3
  6
CONTINUOUS
 10
8.191873
 20
2.474645
 30
0.000000
 11
8.220404
 21
2.469501
 31
0.000000
  0
LINE
  8
0
 62
3
  6
CONTINUOUS
 10
8.220404
 20
2.469501
 30
0.000000
 11
8.246803
 21
2.463323
 31
0.000000
  0
LINE
  8
0
 62
3
  6
CONTINUOUS
 10
8.246803
 20
2.463323
 30
0.000000
 11
8.269296
 21
2.455230
 31
0.000000
  0
LINE
  8
0
 62
3
  6
CONTINUOUS
 10
8.269296
 20
2.455230
 30
0.000000
 11
8.286107
 21
2.444340
 31
0.000000
  0
LINE
  8
0
 62
3
  6
CONTINUOUS
 10
8.286107
 20
2.444340
 30
0.000000
 11
8.295461
 21
2.429773
 31
0.000000
  0
LINE
  8
0
 62
3
  6
CONTINUOUS
 10
8.295461
 20
2.429773
 30
0.000000
 11
8.296471
 21
2.416688
 31
0.000000
  0
LINE
  8
0
 62
3
  6
CONTINUOUS
 10
8.296471
 20
2.416688
 30
0.000000
 11
8.292647
 21
2.402412
 31
0.000000
  0
LINE
  8
0
 62
3
  6
CONTINUOUS
 10
8.292647
 20
2.402412
 30
0.000000
 11
8.284900
 21
2.387303
 31
0.000000
  0
LINE
  8
0
 62
3
  6
CONTINUOUS
 10
8.284900
 20
2.387303
 30
0.000000
 11
8.274139
 21
2.371719
 31
0.000000
  0
LINE
  8
0
 62
3
  6
CONTINUOUS
 10
8.274139
 20
2.371719
 30
0.000000
 11
8.261275
 21
2.356016
 31
0.000000
  0
LINE
  8
0
 62
3
  6
CONTINUOUS
 10
8.261275
 20
2.356016
 30
0.000000
 11
8.247216
 21
2.340553
 31
0.000000
  0
LINE
  8
0
 62
3
  6
CONTINUOUS
 10
8.247216
 20
2.340553
 30
0.000000
 11
8.232873
 21
2.325688
 31
0.000000
  0
LINE
  8
0
 62
3
  6
CONTINUOUS
 10
8.232873
 20
2.325688
 30
0.000000
 11
8.219155
 21
2.311777
 31
0.000000
  0
LINE
  8
0
 62
3
  6
CONTINUOUS
 10
8.219155
 20
2.311777
 30
0.000000
 11
8.206972
 21
2.299179
 31
0.000000
  0
LINE
  8
0
 62
3
  6
CONTINUOUS
 10
8.206972
 20
2.299179
 30
0.000000
 11
8.197233
 21
2.288251
 31
0.000000
  0
LINE
  8
0
 62
3
  6
CONTINUOUS
 10
8.197233
 20
2.288251
 30
0.000000
 11
8.194882
 21
2.285685
 31
0.000000
  0
LINE
  8
0
 62
3
  6
CONTINUOUS
 10
8.194882
 20
2.285685
 30
0.000000
 11
8.191993
 21
2.282910
 31
0.000000
  0
LINE
  8
0
 62
3
  6
CONTINUOUS
 10
8.191993
 20
2.282910
 30
0.000000
 11
8.188757
 21
2.279965
 31
0.000000
  0
LINE
  8
0
 62
3
  6
CONTINUOUS
 10
8.188757
 20
2.279965
 30
0.000000
 11
8.164455
 21
2.257925
 31
0.000000
  0
LINE
  8
0
 62
3
  6
CONTINUOUS
 10
8.164455
 20
2.257925
 30
0.000000
 11
7.465434
 21
2.257925
 31
0.000000
  0
LINE
  8
0
 62
3
  6
CONTINUOUS
 10
7.465434
 20
2.257925
 30
0.000000
 11
7.465434
 21
2.131566
 31
0.000000
  0
LINE
  8
0
 62
3
  6
CONTINUOUS
 10
7.465434
 20
2.131566
 30
0.000000
 11
8.160923
 21
2.131566
 31
0.000000
  0
LINE
  8
0
 62
3
  6
CONTINUOUS
 10
8.160923
 20
2.131566
 30
0.000000
 11
8.195303
 21
2.045411
 31
0.000000
  0
LINE
  8
0
 62
3
  6
CONTINUOUS
 10
8.152063
 20
1.921532
 30
0.000000
 11
8.022497
 21
1.847456
 31
0.000000
  0
LINE
  8
0
 62
3
  6
CONTINUOUS
 10
8.022083
 20
1.812974
 30
0.000000
 11
8.094208
 21
1.769408
 31
0.000000
  0
LINE
  8
0
 62
3
  6
CONTINUOUS
 10
8.128702
 20
1.734507
 30
0.000000
 11
8.166314
 21
1.670559
 31
0.000000
  0
LINE
  8
0
 62
3
  6
CONTINUOUS
 10
8.178740
 20
1.636393
 30
0.000000
 11
8.192321
 21
1.555368
 31
0.000000
  0
LINE
  8
0
 62
3
  6
CONTINUOUS
 10
8.192321
 20
1.555368
 30
0.000000
 11
8.181200
 21
1.552991
 31
0.000000
  0
LINE
  8
0
 62
3
  6
CONTINUOUS
 10
8.181200
 20
1.552991
 30
0.000000
 11
8.168293
 21
1.551117
 31
0.000000
  0
LINE
  8
0
 62
3
  6
CONTINUOUS
 10
8.168293
 20
1.551117
 30
0.000000
 11
8.154039
 21
1.549713
 31
0.000000
  0
LINE
  8
0
 62
3
  6
CONTINUOUS
 10
8.154039
 20
1.549713
 30
0.000000
 11
8.138878
 21
1.548745
 31
0.000000
  0
LINE
  8
0
 62
3
  6
CONTINUOUS
 10
8.138878
 20
1.548745
 30
0.000000
 11
8.123248
 21
1.548180
 31
0.000000
  0
LINE
  8
0
 62
3
  6
CONTINUOUS
 10
8.123248
 20
1.548180
 30
0.000000
 11
8.107591
 21
1.547985
 31
0.000000
  0
LINE
  8
0
 62
3
  6
CONTINUOUS
 10
8.107591
 20
1.547985
 30
0.000000
 11
8.092344
 21
1.548126
 31
0.000000
  0
LINE
  8
0
 62
3
  6
CONTINUOUS
 10
8.092344
 20
1.548126
 30
0.000000
 11
8.077947
 21
1.548571
 31
0.000000
  0
LINE
  8
0
 62
3
  6
CONTINUOUS
 10
8.077947
 20
1.548571
 30
0.000000
 11
8.064839
 21
1.549285
 31
0.000000
  0
LINE
  8
0
 62
3
  6
CONTINUOUS
 10
8.064839
 20
1.549285
 30
0.000000
 11
8.053461
 21
1.550236
 31
0.000000
  0
LINE
  8
0
 62
3
  6
CONTINUOUS
 10
8.053461
 20
1.550236
 30
0.000000
 11
8.007409
 21
1.556573
 31
0.000000
  0
LINE
  8
0
 62
3
  6
CONTINUOUS
 10
8.007409
 20
1.556573
 30
0.000000
 11
7.955065
 21
1.566452
 31
0.000000
  0
LINE
  8
0
 62
3
  6
CONTINUOUS
 10
7.955065
 20
1.566452
 30
0.000000
 11
7.898029
 21
1.579142
 31
0.000000
  0
LINE
  8
0
 62
3
  6
CONTINUOUS
 10
7.898029
 20
1.579142
 30
0.000000
 11
7.837903
 21
1.593915
 31
0.000000
  0
LINE
  8
0
 62
3
  6
CONTINUOUS
 10
7.837903
 20
1.593915
 30
0.000000
 11
7.776287
 21
1.610039
 31
0.000000
  0
LINE
  8
0
 62
3
  6
CONTINUOUS
 10
7.776287
 20
1.610039
 30
0.000000
 11
7.714782
 21
1.626784
 31
0.000000
  0
LINE
  8
0
 62
3
  6
CONTINUOUS
 10
7.714782
 20
1.626784
 30
0.000000
 11
7.654988
 21
1.643422
 31
0.000000
  0
LINE
  8
0
 62
3
  6
CONTINUOUS
 10
7.654988
 20
1.643422
 30
0.000000
 11
7.598505
 21
1.659222
 31
0.000000
  0
LINE
  8
0
 62
3
  6
CONTINUOUS
 10
7.598505
 20
1.659222
 30
0.000000
 11
7.546935
 21
1.673454
 31
0.000000
  0
LINE
  8
0
 62
3
  6
CONTINUOUS
 10
7.546935
 20
1.673454
 30
0.000000
 11
7.501877
 21
1.685388
 31
0.000000
  0
LINE
  8
0
 62
3
  6
CONTINUOUS
 10
7.501877
 20
1.685388
 30
0.000000
 11
7.418582
 21
1.708198
 31
0.000000
  0
LINE
  8
0
 62
3
  6
CONTINUOUS
 10
7.418582
 20
1.708198
 30
0.000000
 11
7.323491
 21
1.736454
 31
0.000000
  0
LINE
  8
0
 62
3
  6
CONTINUOUS
 10
7.323491
 20
1.736454
 30
0.000000
 11
7.219497
 21
1.768464
 31
0.000000
  0
LINE
  8
0
 62
3
  6
CONTINUOUS
 10
7.219497
 20
1.768464
 30
0.000000
 11
7.109495
 21
1.802540
 31
0.000000
  0
LINE
  8
0
 62
3
  6
CONTINUOUS
 10
7.109495
 20
1.802540
 30
0.000000
 11
6.996379
 21
1.836989
 31
0.000000
  0
LINE
  8
0
 62
3
  6
CONTINUOUS
 10
6.996379
 20
1.836989
 30
0.000000
 11
6.883043
 21
1.870123
 31
0.000000
  0
LINE
  8
0
 62
3
  6
CONTINUOUS
 10
6.883043
 20
1.870123
 30
0.000000
 11
6.772382
 21
1.900250
 31
0.000000
  0
LINE
  8
0
 62
3
  6
CONTINUOUS
 10
6.772382
 20
1.900250
 30
0.000000
 11
6.667290
 21
1.925681
 31
0.000000
  0
LINE
  8
0
 62
3
  6
CONTINUOUS
 10
6.667290
 20
1.925681
 30
0.000000
 11
6.570661
 21
1.944725
 31
0.000000
  0
LINE
  8
0
 62
3
  6
CONTINUOUS
 10
6.570661
 20
1.944725
 30
0.000000
 11
6.485388
 21
1.955692
 31
0.000000
  0
LINE
  8
0
 62
3
  6
CONTINUOUS
 10
6.485388
 20
1.955692
 30
0.000000
 11
6.453870
 21
1.957020
 31
0.000000
  0
LINE
  8
0
 62
3
  6
CONTINUOUS
 10
6.453870
 20
1.957020
 30
0.000000
 11
6.417710
 21
1.956514
 31
0.000000
  0
LINE
  8
0
 62
3
  6
CONTINUOUS
 10
6.417710
 20
1.956514
 30
0.000000
 11
6.378080
 21
1.954437
 31
0.000000
  0
LINE
  8
0
 62
3
  6
CONTINUOUS
 10
6.378080
 20
1.954437
 30
0.000000
 11
6.336151
 21
1.951049
 31
0.000000
  0
LINE
  8
0
 62
3
  6
CONTINUOUS
 10
6.336151
 20
1.951049
 30
0.000000
 11
6.293095
 21
1.946613
 31
0.000000
  0
LINE
  8
0
 62
3
  6
CONTINUOUS
 10
6.293095
 20
1.946613
 30
0.000000
 11
6.250082
 21
1.941389
 31
0.000000
  0
LINE
  8
0
 62
3
  6
CONTINUOUS
 10
6.250082
 20
1.941389
 30
0.000000
 11
6.208286
 21
1.935639
 31
0.000000
  0
LINE
  8
0
 62
3
  6
CONTINUOUS
 10
6.208286
 20
1.935639
 30
0.000000
 11
6.168877
 21
1.929625
 31
0.000000
  0
LINE
  8
0
 62
3
  6
CONTINUOUS
 10
6.168877
 20
1.929625
 30
0.000000
 11
6.133027
 21
1.923608
 31
0.000000
  0
LINE
  8
0
 62
3
  6
CONTINUOUS
 10
6.133027
 20
1.923608
 30
0.000000
 11
6.101906
 21
1.917849
 31
0.000000
  0
LINE
  8
0
 62
3
  6
CONTINUOUS
 10
6.101906
 20
1.917849
 30
0.000000
 11
6.082892
 21
1.913412
 31
0.000000
  0
LINE
  8
0
 62
3
  6
CONTINUOUS
 10
6.082892
 20
1.913412
 30
0.000000
 11
6.061349
 21
1.907254
 31
0.000000
  0
LINE
  8
0
 62
3
  6
CONTINUOUS
 10
6.061349
 20
1.907254
 30
0.000000
 11
6.037906
 21
1.899828
 31
0.000000
  0
LINE
  8
0
 62
3
  6
CONTINUOUS
 10
6.037906
 20
1.899828
 30
0.000000
 11
6.013192
 21
1.891586
 31
0.000000
  0
LINE
  8
0
 62
3
  6
CONTINUOUS
 10
6.013192
 20
1.891586
 30
0.000000
 11
5.987834
 21
1.882978
 31
0.000000
  0
LINE
  8
0
 62
3
  6
CONTINUOUS
 10
5.987834
 20
1.882978
 30
0.000000
 11
5.962461
 21
1.874457
 31
0.000000
  0
LINE
  8
0
 62
3
  6
CONTINUOUS
 10
5.962461
 20
1.874457
 30
0.000000
 11
5.937703
 21
1.866475
 31
0.000000
  0
LINE
  8
0
 62
3
  6
CONTINUOUS
 10
5.937703
 20
1.866475
 30
0.000000
 11
5.871318
 21
1.846735
 31
0.000000
  0
LINE
  8
0
 62
3
  6
CONTINUOUS
 10
5.871318
 20
1.846735
 30
0.000000
 11
5.871543
 21
1.857689
 31
0.000000
  0
LINE
  8
0
 62
3
  6
CONTINUOUS
 10
5.871543
 20
1.857689
 30
0.000000
 11
5.871140
 21
1.862108
 31
0.000000
  0
LINE
  8
0
 62
3
  6
CONTINUOUS
 10
5.871140
 20
1.862108
 30
0.000000
 11
5.870381
 21
1.866819
 31
0.000000
  0
LINE
  8
0
 62
3
  6
CONTINUOUS
 10
5.870381
 20
1.866819
 30
0.000000
 11
5.869393
 21
1.871684
 31
0.000000
  0
LINE
  8
0
 62
3
  6
CONTINUOUS
 10
5.869393
 20
1.871684
 30
0.000000
 11
5.868305
 21
1.876566
 31
0.000000
  0
LINE
  8
0
 62
3
  6
CONTINUOUS
 10
5.868305
 20
1.876566
 30
0.000000
 11
5.867245
 21
1.881328
 31
0.000000
  0
LINE
  8
0
 62
3
  6
CONTINUOUS
 10
5.867245
 20
1.881328
 30
0.000000
 11
5.866341
 21
1.885833
 31
0.000000
  0
LINE
  8
0
 62
3
  6
CONTINUOUS
 10
5.866341
 20
1.885833
 30
0.000000
 11
5.865721
 21
1.889943
 31
0.000000
  0
LINE
  8
0
 62
3
  6
CONTINUOUS
 10
5.865721
 20
1.889943
 30
0.000000
 11
5.865513
 21
1.893522
 31
0.000000
  0
LINE
  8
0
 62
3
  6
CONTINUOUS
 10
5.865513
 20
1.893522
 30
0.000000
 11
5.865944
 21
1.908337
 31
0.000000
  0
LINE
  8
0
 62
3
  6
CONTINUOUS
 10
5.865944
 20
1.908337
 30
0.000000
 11
5.866887
 21
1.925355
 31
0.000000
  0
LINE
  8
0
 62
3
  6
CONTINUOUS
 10
5.866887
 20
1.925355
 30
0.000000
 11
5.868333
 21
1.944001
 31
0.000000
  0
LINE
  8
0
 62
3
  6
CONTINUOUS
 10
5.868333
 20
1.944001
 30
0.000000
 11
5.870274
 21
1.963702
 31
0.000000
  0
LINE
  8
0
 62
3
  6
CONTINUOUS
 10
5.870274
 20
1.963702
 30
0.000000
 11
5.872700
 21
1.983883
 31
0.000000
  0
LINE
  8
0
 62
3
  6
CONTINUOUS
 10
5.872700
 20
1.983883
 30
0.000000
 11
5.875601
 21
2.003972
 31
0.000000
  0
LINE
  8
0
 62
3
  6
CONTINUOUS
 10
5.010626
 20
3.140210
 30
0.000000
 11
5.133157
 21
3.113663
 31
0.000000
  0
LINE
  8
0
 62
3
  6
CONTINUOUS
 10
5.133157
 20
3.113663
 30
0.000000
 11
5.294382
 21
3.040659
 31
0.000000
  0
LINE
  8
0
 62
3
  6
CONTINUOUS
 10
5.294382
 20
3.040659
 30
0.000000
 11
5.470254
 21
2.867573
 31
0.000000
  0
LINE
  8
0
 62
3
  6
CONTINUOUS
 10
3.881046
 20
3.271522
 30
0.000000
 11
3.174772
 21
3.271522
 31
0.000000
  0
LINE
  8
0
 62
3
  6
CONTINUOUS
 10
3.174772
 20
3.271522
 30
0.000000
 11
3.172318
 21
3.277679
 31
0.000000
  0
LINE
  8
0
 62
3
  6
CONTINUOUS
 10
3.172318
 20
3.277679
 30
0.000000
 11
3.170256
 21
3.280878
 31
0.000000
  0
LINE
  8
0
 62
3
  6
CONTINUOUS
 10
3.170256
 20
3.280878
 30
0.000000
 11
3.167571
 21
3.284106
 31
0.000000
  0
LINE
  8
0
 62
3
  6
CONTINUOUS
 10
3.167571
 20
3.284106
 30
0.000000
 11
3.164459
 21
3.287322
 31
0.000000
  0
LINE
  8
0
 62
3
  6
CONTINUOUS
 10
3.164459
 20
3.287322
 30
0.000000
 11
3.161112
 21
3.290488
 31
0.000000
  0
LINE
  8
0
 62
3
  6
CONTINUOUS
 10
3.161112
 20
3.290488
 30
0.000000
 11
3.157723
 21
3.293562
 31
0.000000
  0
LINE
  8
0
 62
3
  6
CONTINUOUS
 10
3.157723
 20
3.293562
 30
0.000000
 11
3.154488
 21
3.296507
 31
0.000000
  0
LINE
  8
0
 62
3
  6
CONTINUOUS
 10
3.154488
 20
3.296507
 30
0.000000
 11
3.151598
 21
3.299282
 31
0.000000
  0
LINE
  8
0
 62
3
  6
CONTINUOUS
 10
3.151598
 20
3.299282
 30
0.000000
 11
3.149247
 21
3.301848
 31
0.000000
  0
LINE
  8
0
 62
3
  6
CONTINUOUS
 10
3.149247
 20
3.301848
 30
0.000000
 11
3.139509
 21
3.312776
 31
0.000000
  0
LINE
  8
0
 62
3
  6
CONTINUOUS
 10
3.139509
 20
3.312776
 30
0.000000
 11
3.127325
 21
3.325374
 31
0.000000
  0
LINE
  8
0
 62
3
  6
CONTINUOUS
 10
3.127325
 20
3.325374
 30
0.000000
 11
3.113607
 21
3.339285
 31
0.000000
  0
LINE
  8
0
 62
3
  6
CONTINUOUS
 10
3.113607
 20
3.339285
 30
0.000000
 11
3.099264
 21
3.354150
 31
0.000000
  0
LINE
  8
0
 62
3
  6
CONTINUOUS
 10
3.099264
 20
3.354150
 30
0.000000
 11
3.085205
 21
3.369613
 31
0.000000
  0
LINE
  8
0
 62
3
  6
CONTINUOUS
 10
3.085205
 20
3.369613
 30
0.000000
 11
3.072341
 21
3.385316
 31
0.000000
  0
LINE
  8
0
 62
3
  6
CONTINUOUS
 10
3.072341
 20
3.385316
 30
0.000000
 11
3.061580
 21
3.400900
 31
0.000000
  0
LINE
  8
0
 62
3
  6
CONTINUOUS
 10
3.061580
 20
3.400900
 30
0.000000
 11
3.053833
 21
3.416009
 31
0.000000
  0
LINE
  8
0
 62
3
  6
CONTINUOUS
 10
3.053833
 20
3.416009
 30
0.000000
 11
3.050010
 21
3.430285
 31
0.000000
  0
LINE
  8
0
 62
3
  6
CONTINUOUS
 10
3.050010
 20
3.430285
 30
0.000000
 11
3.051019
 21
3.443370
 31
0.000000
  0
LINE
  8
0
 62
3
  6
CONTINUOUS
 10
3.051019
 20
3.443370
 30
0.000000
 11
3.060374
 21
3.457937
 31
0.000000
  0
LINE
  8
0
 62
3
  6
CONTINUOUS
 10
3.060374
 20
3.457937
 30
0.000000
 11
3.077184
 21
3.468827
 31
0.000000
  0
LINE
  8
0
 62
3
  6
CONTINUOUS
 10
3.077184
 20
3.468827
 30
0.000000
 11
3.099677
 21
3.476920
 31
0.000000
  0
LINE
  8
0
 62
3
  6
CONTINUOUS
 10
3.099677
 20
3.476920
 30
0.000000
 11
3.126076
 21
3.483098
 31
0.000000
  0
LINE
  8
0
 62
3
  6
CONTINUOUS
 10
3.126076
 20
3.483098
 30
0.000000
 11
3.154608
 21
3.488242
 31
0.000000
  0
LINE
  8
0
 62
3
  6
CONTINUOUS
 10
3.154608
 20
3.488242
 30
0.000000
 11
3.183496
 21
3.493233
 31
0.000000
  0
LINE
  8
0
 62
3
  6
CONTINUOUS
 10
3.183496
 20
3.493233
 30
0.000000
 11
3.210966
 21
3.498953
 31
0.000000
  0
LINE
  8
0
 62
3
  6
CONTINUOUS
 10
3.210966
 20
3.498953
 30
0.000000
 11
3.235244
 21
3.506282
 31
0.000000
  0
LINE
  8
0
 62
3
  6
CONTINUOUS
 10
3.235244
 20
3.506282
 30
0.000000
 11
3.254554
 21
3.516102
 31
0.000000
  0
LINE
  8
0
 62
3
  6
CONTINUOUS
 10
3.254554
 20
3.516102
 30
0.000000
 11
3.267121
 21
3.529294
 31
0.000000
  0
LINE
  8
0
 62
3
  6
CONTINUOUS
 10
3.267121
 20
3.529294
 30
0.000000
 11
3.268867
 21
3.533866
 31
0.000000
  0
LINE
  8
0
 62
3
  6
CONTINUOUS
 10
3.268867
 20
3.533866
 30
0.000000
 11
3.269648
 21
3.539404
 31
0.000000
  0
LINE
  8
0
 62
3
  6
CONTINUOUS
 10
3.269648
 20
3.539404
 30
0.000000
 11
3.269599
 21
3.545671
 31
0.000000
  0
LINE
  8
0
 62
3
  6
CONTINUOUS
 10
3.269599
 20
3.545671
 30
0.000000
 11
3.268853
 21
3.552429
 31
0.000000
  0
LINE
  8
0
 62
3
  6
CONTINUOUS
 10
3.268853
 20
3.552429
 30
0.000000
 11
3.267546
 21
3.559439
 31
0.000000
  0
LINE
  8
0
 62
3
  6
CONTINUOUS
 10
3.267546
 20
3.559439
 30
0.000000
 11
3.265813
 21
3.566464
 31
0.000000
  0
LINE
  8
0
 62
3
  6
CONTINUOUS
 10
3.265813
 20
3.566464
 30
0.000000
 11
3.263786
 21
3.573266
 31
0.000000
  0
LINE
  8
0
 62
3
  6
CONTINUOUS
 10
3.263786
 20
3.573266
 30
0.000000
 11
3.261602
 21
3.579605
 31
0.000000
  0
LINE
  8
0
 62
3
  6
CONTINUOUS
 10
3.261602
 20
3.579605
 30
0.000000
 11
3.259395
 21
3.585245
 31
0.000000
  0
LINE
  8
0
 62
3
  6
CONTINUOUS
 10
3.259395
 20
3.585245
 30
0.000000
 11
3.257298
 21
3.589947
 31
0.000000
  0
LINE
  8
0
 62
3
  6
CONTINUOUS
 10
3.257298
 20
3.589947
 30
0.000000
 11
3.249065
 21
3.603726
 31
0.000000
  0
LINE
  8
0
 62
3
  6
CONTINUOUS
 10
3.249065
 20
3.603726
 30
0.000000
 11
3.237708
 21
3.618214
 31
0.000000
  0
LINE
  8
0
 62
3
  6
CONTINUOUS
 10
3.237708
 20
3.618214
 30
0.000000
 11
3.223981
 21
3.633217
 31
0.000000
  0
LINE
  8
0
 62
3
  6
CONTINUOUS
 10
3.223981
 20
3.633217
 30
0.000000
 11
3.208635
 21
3.648543
 31
0.000000
  0
LINE
  8
0
 62
3
  6
CONTINUOUS
 10
3.208635
 20
3.648543
 30
0.000000
 11
3.192423
 21
3.664000
 31
0.000000
  0
LINE
  8
0
 62
3
  6
CONTINUOUS
 10
3.192423
 20
3.664000
 30
0.000000
 11
3.176096
 21
3.679396
 31
0.000000
  0
LINE
  8
0
 62
3
  6
CONTINUOUS
 10
3.176096
 20
3.679396
 30
0.000000
 11
3.160408
 21
3.694539
 31
0.000000
  0
LINE
  8
0
 62
3
  6
CONTINUOUS
 10
3.160408
 20
3.694539
 30
0.000000
 11
3.146109
 21
3.709236
 31
0.000000
  0
LINE
  8
0
 62
3
  6
CONTINUOUS
 10
3.146109
 20
3.709236
 30
0.000000
 11
3.133952
 21
3.723295
 31
0.000000
  0
LINE
  8
0
 62
3
  6
CONTINUOUS
 10
3.133952
 20
3.723295
 30
0.000000
 11
3.124690
 21
3.736523
 31
0.000000
  0
LINE
  8
0
 62
3
  6
CONTINUOUS
 10
3.124690
 20
3.736523
 30
0.000000
 11
3.118210
 21
3.749203
 31
0.000000
  0
LINE
  8
0
 62
3
  6
CONTINUOUS
 10
3.118210
 20
3.749203
 30
0.000000
 11
3.111279
 21
3.765651
 31
0.000000
  0
LINE
  8
0
 62
3
  6
CONTINUOUS
 10
3.111279
 20
3.765651
 30
0.000000
 11
3.104165
 21
3.784667
 31
0.000000
  0
LINE
  8
0
 62
3
  6
CONTINUOUS
 10
3.104165
 20
3.784667
 30
0.000000
 11
3.097133
 21
3.805048
 31
0.000000
  0
LINE
  8
0
 62
3
  6
CONTINUOUS
 10
3.097133
 20
3.805048
 30
0.000000
 11
3.090452
 21
3.825592
 31
0.000000
  0
LINE
  8
0
 62
3
  6
CONTINUOUS
 10
3.090452
 20
3.825592
 30
0.000000
 11
3.084387
 21
3.845096
 31
0.000000
  0
LINE
  8
0
 62
3
  6
CONTINUOUS
 10
3.084387
 20
3.845096
 30
0.000000
 11
3.079206
 21
3.862359
 31
0.000000
  0
LINE
  8
0
 62
3
  6
CONTINUOUS
 10
3.079206
 20
3.862359
 30
0.000000
 11
3.075175
 21
3.876178
 31
0.000000
  0
LINE
  8
0
 62
3
  6
CONTINUOUS
 10
3.075175
 20
3.876178
 30
0.000000
 11
3.072561
 21
3.885351
 31
0.000000
  0
LINE
  8
0
 62
3
  6
CONTINUOUS
 10
3.072561
 20
3.885351
 30
0.000000
 11
3.071630
 21
3.888676
 31
0.000000
  0
LINE
  8
0
 62
3
  6
CONTINUOUS
 10
3.071630
 20
3.888676
 30
0.000000
 11
3.096049
 21
3.888414
 31
0.000000
  0
LINE
  8
0
 62
3
  6
CONTINUOUS
 10
3.096049
 20
3.888414
 30
0.000000
 11
3.124037
 21
3.887285
 31
0.000000
  0
LINE
  8
0
 62
3
  6
CONTINUOUS
 10
3.124037
 20
3.887285
 30
0.000000
 11
3.154690
 21
3.885381
 31
0.000000
  0
LINE
  8
0
 62
3
  6
CONTINUOUS
 10
3.154690
 20
3.885381
 30
0.000000
 11
3.187103
 21
3.882797
 31
0.000000
  0
LINE
  8
0
 62
3
  6
CONTINUOUS
 10
3.187103
 20
3.882797
 30
0.000000
 11
3.220369
 21
3.879623
 31
0.000000
  0
LINE
  8
0
 62
3
  6
CONTINUOUS
 10
3.220369
 20
3.879623
 30
0.000000
 11
3.253585
 21
3.875955
 31
0.000000
  0
LINE
  8
0
 62
3
  6
CONTINUOUS
 10
3.253585
 20
3.875955
 30
0.000000
 11
3.285845
 21
3.871884
 31
0.000000
  0
LINE
  8
0
 62
3
  6
CONTINUOUS
 10
3.285845
 20
3.871884
 30
0.000000
 11
3.316243
 21
3.867505
 31
0.000000
  0
LINE
  8
0
 62
3
  6
CONTINUOUS
 10
3.316243
 20
3.867505
 30
0.000000
 11
3.343875
 21
3.862911
 31
0.000000
  0
LINE
  8
0
 62
3
  6
CONTINUOUS
 10
3.343875
 20
3.862911
 30
0.000000
 11
3.367835
 21
3.858193
 31
0.000000
  0
LINE
  8
0
 62
3
  6
CONTINUOUS
 10
3.367835
 20
3.858193
 30
0.000000
 11
3.401060
 21
3.849649
 31
0.000000
  0
LINE
  8
0
 62
3
  6
CONTINUOUS
 10
3.401060
 20
3.849649
 30
0.000000
 11
3.438606
 21
3.837905
 31
0.000000
  0
LINE
  8
0
 62
3
  6
CONTINUOUS
 10
3.438606
 20
3.837905
 30
0.000000
 11
3.479392
 21
3.823756
 31
0.000000
  0
LINE
  8
0
 62
3
  6
CONTINUOUS
 10
3.479392
 20
3.823756
 30
0.000000
 11
3.522336
 21
3.807996
 31
0.000000
  0
LINE
  8
0
 62
3
  6
CONTINUOUS
 10
3.522336
 20
3.807996
 30
0.000000
 11
3.566356
 21
3.791419
 31
0.000000
  0
LINE
  8
0
 62
3
  6
CONTINUOUS
 10
3.566356
 20
3.791419
 30
0.000000
 11
3.610371
 21
3.774819
 31
0.000000
  0
LINE
  8
0
 62
3
  6
CONTINUOUS
 10
3.610371
 20
3.774819
 30
0.000000
 11
3.653299
 21
3.758989
 31
0.000000
  0
LINE
  8
0
 62
3
  6
CONTINUOUS
 10
3.653299
 20
3.758989
 30
0.000000
 11
3.694060
 21
3.744725
 31
0.000000
  0
LINE
  8
0
 62
3
  6
CONTINUOUS
 10
3.694060
 20
3.744725
 30
0.000000
 11
3.731570
 21
3.732821
 31
0.000000
  0
LINE
  8
0
 62
3
  6
CONTINUOUS
 10
3.731570
 20
3.732821
 30
0.000000
 11
3.764749
 21
3.724070
 31
0.000000
  0
LINE
  8
0
 62
3
  6
CONTINUOUS
 10
3.764749
 20
3.724070
 30
0.000000
 11
3.793986
 21
3.718233
 31
0.000000
  0
LINE
  8
0
 62
3
  6
CONTINUOUS
 10
3.793986
 20
3.718233
 30
0.000000
 11
3.827711
 21
3.712730
 31
0.000000
  0
LINE
  8
0
 62
3
  6
CONTINUOUS
 10
3.827711
 20
3.712730
 30
0.000000
 11
3.864816
 21
3.707566
 31
0.000000
  0
LINE
  8
0
 62
3
  6
CONTINUOUS
 10
3.864816
 20
3.707566
 30
0.000000
 11
3.904194
 21
3.702746
 31
0.000000
  0
LINE
  8
0
 62
3
  6
CONTINUOUS
 10
3.904194
 20
3.702746
 30
0.000000
 11
3.944736
 21
3.698278
 31
0.000000
  0
LINE
  8
0
 62
3
  6
CONTINUOUS
 10
3.944736
 20
3.698278
 30
0.000000
 11
3.985333
 21
3.694165
 31
0.000000
  0
LINE
  8
0
 62
3
  6
CONTINUOUS
 10
3.985333
 20
3.694165
 30
0.000000
 11
4.024878
 21
3.690415
 31
0.000000
  0
LINE
  8
0
 62
3
  6
CONTINUOUS
 10
4.024878
 20
3.690415
 30
0.000000
 11
4.062263
 21
3.687032
 31
0.000000
  0
LINE
  8
0
 62
3
  6
CONTINUOUS
 10
4.062263
 20
3.687032
 30
0.000000
 11
4.096379
 21
3.684023
 31
0.000000
  0
LINE
  8
0
 62
3
  6
CONTINUOUS
 10
4.096379
 20
3.684023
 30
0.000000
 11
4.126119
 21
3.681394
 31
0.000000
  0
LINE
  8
0
 62
3
  6
CONTINUOUS
 10
4.126119
 20
3.681394
 30
0.000000
 11
4.158625
 21
3.678837
 31
0.000000
  0
LINE
  8
0
 62
3
  6
CONTINUOUS
 10
4.158625
 20
3.678837
 30
0.000000
 11
4.195931
 21
3.676457
 31
0.000000
  0
LINE
  8
0
 62
3
  6
CONTINUOUS
 10
4.195931
 20
3.676457
 30
0.000000
 11
4.236835
 21
3.674198
 31
0.000000
  0
LINE
  8
0
 62
3
  6
CONTINUOUS
 10
4.236835
 20
3.674198
 30
0.000000
 11
4.280138
 21
3.672003
 31
0.000000
  0
LINE
  8
0
 62
3
  6
CONTINUOUS
 10
4.280138
 20
3.672003
 30
0.000000
 11
4.324636
 21
3.669815
 31
0.000000
  0
LINE
  8
0
 62
3
  6
CONTINUOUS
 10
4.324636
 20
3.669815
 30
0.000000
 11
4.369130
 21
3.667579
 31
0.000000
  0
LINE
  8
0
 62
3
  6
CONTINUOUS
 10
4.369130
 20
3.667579
 30
0.000000
 11
4.412418
 21
3.665236
 31
0.000000
  0
LINE
  8
0
 62
3
  6
CONTINUOUS
 10
4.412418
 20
3.665236
 30
0.000000
 11
4.453299
 21
3.662731
 31
0.000000
  0
LINE
  8
0
 62
3
  6
CONTINUOUS
 10
4.453299
 20
3.662731
 30
0.000000
 11
4.490571
 21
3.660007
 31
0.000000
  0
LINE
  8
0
 62
3
  6
CONTINUOUS
 10
4.490571
 20
3.660007
 30
0.000000
 11
4.523034
 21
3.657008
 31
0.000000
  0
LINE
  8
0
 62
3
  6
CONTINUOUS
 10
4.523034
 20
3.657008
 30
0.000000
 11
4.552885
 21
3.653881
 31
0.000000
  0
LINE
  8
0
 62
3
  6
CONTINUOUS
 10
4.552885
 20
3.653881
 30
0.000000
 11
4.587162
 21
3.650289
 31
0.000000
  0
LINE
  8
0
 62
3
  6
CONTINUOUS
 10
4.587162
 20
3.650289
 30
0.000000
 11
4.624729
 21
3.646209
 31
0.000000
  0
LINE
  8
0
 62
3
  6
CONTINUOUS
 10
4.624729
 20
3.646209
 30
0.000000
 11
4.664451
 21
3.641619
 31
0.000000
  0
LINE
  8
0
 62
3
  6
CONTINUOUS
 10
4.664451
 20
3.641619
 30
0.000000
 11
4.705191
 21
3.636497
 31
0.000000
  0
LINE
  8
0
 62
3
  6
CONTINUOUS
 10
4.705191
 20
3.636497
 30
0.000000
 11
4.745813
 21
3.630821
 31
0.000000
  0
LINE
  8
0
 62
3
  6
CONTINUOUS
 10
4.745813
 20
3.630821
 30
0.000000
 11
4.785181
 21
3.624569
 31
0.000000
  0
LINE
  8
0
 62
3
  6
CONTINUOUS
 10
4.785181
 20
3.624569
 30
0.000000
 11
4.822159
 21
3.617720
 31
0.000000
  0
LINE
  8
0
 62
3
  6
CONTINUOUS
 10
4.822159
 20
3.617720
 30
0.000000
 11
4.855612
 21
3.610250
 31
0.000000
  0
LINE
  8
0
 62
3
  6
CONTINUOUS
 10
4.855612
 20
3.610250
 30
0.000000
 11
4.884403
 21
3.602139
 31
0.000000
  0
LINE
  8
0
 62
3
  6
CONTINUOUS
 10
4.884403
 20
3.602139
 30
0.000000
 11
4.902903
 21
3.595497
 31
0.000000
  0
LINE
  8
0
 62
3
  6
CONTINUOUS
 10
4.902903
 20
3.595497
 30
0.000000
 11
4.923745
 21
3.586896
 31
0.000000
  0
LINE
  8
0
 62
3
  6
CONTINUOUS
 10
4.923745
 20
3.586896
 30
0.000000
 11
4.946286
 21
3.576710
 31
0.000000
  0
LINE
  8
0
 62
3
  6
CONTINUOUS
 10
4.946286
 20
3.576710
 30
0.000000
 11
4.969883
 21
3.565312
 31
0.000000
  0
LINE
  8
0
 62
3
  6
CONTINUOUS
 10
4.969883
 20
3.565312
 30
0.000000
 11
4.993895
 21
3.553076
 31
0.000000
  0
LINE
  8
0
 62
3
  6
CONTINUOUS
 10
4.993895
 20
3.553076
 30
0.000000
 11
5.017678
 21
3.540376
 31
0.000000
  0
LINE
  8
0
 62
3
  6
CONTINUOUS
 10
5.017678
 20
3.540376
 30
0.000000
 11
5.040589
 21
3.527585
 31
0.000000
  0
LINE
  8
0
 62
3
  6
CONTINUOUS
 10
5.040589
 20
3.527585
 30
0.000000
 11
5.061987
 21
3.515076
 31
0.000000
  0
LINE
  8
0
 62
3
  6
CONTINUOUS
 10
5.061987
 20
3.515076
 30
0.000000
 11
5.081228
 21
3.503224
 31
0.000000
  0
LINE
  8
0
 62
3
  6
CONTINUOUS
 10
5.081228
 20
3.503224
 30
0.000000
 11
5.097671
 21
3.492401
 31
0.000000
  0
LINE
  8
0
 62
3
  6
CONTINUOUS
 10
5.097671
 20
3.492401
 30
0.000000
 11
5.105793
 21
3.486821
 31
0.000000
  0
LINE
  8
0
 62
3
  6
CONTINUOUS
 10
5.105793
 20
3.486821
 30
0.000000
 11
5.115167
 21
3.480296
 31
0.000000
  0
LINE
  8
0
 62
3
  6
CONTINUOUS
 10
5.115167
 20
3.480296
 30
0.000000
 11
5.125386
 21
3.472985
 31
0.000000
  0
LINE
  8
0
 62
3
  6
CONTINUOUS
 10
5.125386
 20
3.472985
 30
0.000000
 11
5.181749
 21
3.421512
 31
0.000000
  0
LINE
  8
0
 62
3
  6
CONTINUOUS
 10
5.181749
 20
3.421512
 30
0.000000
 11
5.186532
 21
3.413146
 31
0.000000
  0
LINE
  8
0
 62
3
  6
CONTINUOUS
 10
5.186532
 20
3.413146
 30
0.000000
 11
5.188420
 21
3.407945
 31
0.000000
  0
LINE
  8
0
 62
3
  6
CONTINUOUS
 10
5.188420
 20
3.407945
 30
0.000000
 11
5.189954
 21
3.401699
 31
0.000000
  0
LINE
  8
0
 62
3
  6
CONTINUOUS
 10
5.189954
 20
3.401699
 30
0.000000
 11
5.191110
 21
3.394675
 31
0.000000
  0
LINE
  8
0
 62
3
  6
CONTINUOUS
 10
5.191110
 20
3.394675
 30
0.000000
 11
5.191862
 21
3.387139
 31
0.000000
  0
LINE
  8
0
 62
3
  6
CONTINUOUS
 10
5.191862
 20
3.387139
 30
0.000000
 11
5.192187
 21
3.379357
 31
0.000000
  0
LINE
  8
0
 62
3
  6
CONTINUOUS
 10
5.192187
 20
3.379357
 30
0.000000
 11
5.192059
 21
3.371595
 31
0.000000
  0
LINE
  8
0
 62
3
  6
CONTINUOUS
 10
5.192059
 20
3.371595
 30
0.000000
 11
5.191454
 21
3.364121
 31
0.000000
  0
LINE
  8
0
 62
3
  6
CONTINUOUS
 10
5.191454
 20
3.364121
 30
0.000000
 11
5.190348
 21
3.357200
 31
0.000000
  0
LINE
  8
0
 62
3
  6
CONTINUOUS
 10
5.190348
 20
3.357200
 30
0.000000
 11
5.188716
 21
3.351099
 31
0.000000
  0
LINE
  8
0
 62
3
  6
CONTINUOUS
 10
5.188716
 20
3.351099
 30
0.000000
 11
5.186532
 21
3.346084
 31
0.000000
  0
LINE
  8
0
 62
3
  6
CONTINUOUS
 10
5.186532
 20
3.346084
 30
0.000000
 11
5.251470
 21
3.300819
 31
0.000000
  0
LINE
  8
0
 62
3
  6
CONTINUOUS
 10
5.251470
 20
3.300819
 30
0.000000
 11
5.260734
 21
3.296521
 31
0.000000
  0
LINE
  8
0
 62
3
  6
CONTINUOUS
 10
5.260734
 20
3.296521
 30
0.000000
 11
5.271111
 21
3.291052
 31
0.000000
  0
LINE
  8
0
 62
3
  6
CONTINUOUS
 10
5.271111
 20
3.291052
 30
0.000000
 11
5.282272
 21
3.284633
 31
0.000000
  0
LINE
  8
0
 62
3
  6
CONTINUOUS
 10
5.282272
 20
3.284633
 30
0.000000
 11
5.293890
 21
3.277482
 31
0.000000
  0
LINE
  8
0
 62
3
  6
CONTINUOUS
 10
5.293890
 20
3.277482
 30
0.000000
 11
5.305638
 21
3.269818
 31
0.000000
  0
LINE
  8
0
 62
3
  6
CONTINUOUS
 10
5.305638
 20
3.269818
 30
0.000000
 11
5.317190
 21
3.261861
 31
0.000000
  0
LINE
  8
0
 62
3
  6
CONTINUOUS
 10
5.317190
 20
3.261861
 30
0.000000
 11
5.328219
 21
3.253829
 31
0.000000
  0
LINE
  8
0
 62
3
  6
CONTINUOUS
 10
5.328219
 20
3.253829
 30
0.000000
 11
5.338396
 21
3.245943
 31
0.000000
  0
LINE
  8
0
 62
3
  6
CONTINUOUS
 10
5.338396
 20
3.245943
 30
0.000000
 11
5.347396
 21
3.238422
 31
0.000000
  0
LINE
  8
0
 62
3
  6
CONTINUOUS
 10
5.347396
 20
3.238422
 30
0.000000
 11
5.354891
 21
3.231484
 31
0.000000
  0
LINE
  8
0
 62
3
  6
CONTINUOUS
 10
5.354891
 20
3.231484
 30
0.000000
 11
5.364881
 21
3.220948
 31
0.000000
  0
LINE
  8
0
 62
3
  6
CONTINUOUS
 10
5.364881
 20
3.220948
 30
0.000000
 11
5.375783
 21
3.208308
 31
0.000000
  0
LINE
  8
0
 62
3
  6
CONTINUOUS
 10
5.375783
 20
3.208308
 30
0.000000
 11
5.387253
 21
3.194015
 31
0.000000
  0
LINE
  8
0
 62
3
  6
CONTINUOUS
 10
5.387253
 20
3.194015
 30
0.000000
 11
5.398950
 21
3.178519
 31
0.000000
  0
LINE
  8
0
 62
3
  6
CONTINUOUS
 10
5.398950
 20
3.178519
 30
0.000000
 11
5.410531
 21
3.162272
 31
0.000000
  0
LINE
  8
0
 62
3
  6
CONTINUOUS
 10
5.410531
 20
3.162272
 30
0.000000
 11
5.421653
 21
3.145722
 31
0.000000
  0
LINE
  8
0
 62
3
  6
CONTINUOUS
 10
5.421653
 20
3.145722
 30
0.000000
 11
5.431973
 21
3.129322
 31
0.000000
  0
LINE
  8
0
 62
3
  6
CONTINUOUS
 10
5.431973
 20
3.129322
 30
0.000000
 11
5.441150
 21
3.113521
 31
0.000000
  0
LINE
  8
0
 62
3
  6
CONTINUOUS
 10
5.441150
 20
3.113521
 30
0.000000
 11
5.448840
 21
3.098770
 31
0.000000
  0
LINE
  8
0
 62
3
  6
CONTINUOUS
 10
5.448840
 20
3.098770
 30
0.000000
 11
5.454701
 21
3.085520
 31
0.000000
  0
LINE
  8
0
 62
3
  6
CONTINUOUS
 10
5.454701
 20
3.085520
 30
0.000000
 11
5.459413
 21
3.071540
 31
0.000000
  0
LINE
  8
0
 62
3
  6
CONTINUOUS
 10
5.459413
 20
3.071540
 30
0.000000
 11
5.463686
 21
3.055173
 31
0.000000
  0
LINE
  8
0
 62
3
  6
CONTINUOUS
 10
5.463686
 20
3.055173
 30
0.000000
 11
5.467511
 21
3.036991
 31
0.000000
  0
LINE
  8
0
 62
3
  6
CONTINUOUS
 10
5.467511
 20
3.036991
 30
0.000000
 11
5.470879
 21
3.017569
 31
0.000000
  0
LINE
  8
0
 62
3
  6
CONTINUOUS
 10
5.470879
 20
3.017569
 30
0.000000
 11
5.473780
 21
2.997480
 31
0.000000
  0
LINE
  8
0
 62
3
  6
CONTINUOUS
 10
5.473780
 20
2.997480
 30
0.000000
 11
5.476206
 21
2.977299
 31
0.000000
  0
LINE
  8
0
 62
3
  6
CONTINUOUS
 10
5.476206
 20
2.977299
 30
0.000000
 11
5.478147
 21
2.957598
 31
0.000000
  0
LINE
  8
0
 62
3
  6
CONTINUOUS
 10
5.478147
 20
2.957598
 30
0.000000
 11
5.479593
 21
2.938952
 31
0.000000
  0
LINE
  8
0
 62
3
  6
CONTINUOUS
 10
5.479593
 20
2.938952
 30
0.000000
 11
5.480536
 21
2.921934
 31
0.000000
  0
LINE
  8
0
 62
3
  6
CONTINUOUS
 10
5.480536
 20
2.921934
 30
0.000000
 11
5.480967
 21
2.907119
 31
0.000000
  0
LINE
  8
0
 62
3
  6
CONTINUOUS
 10
5.480967
 20
2.907119
 30
0.000000
 11
5.480759
 21
2.903540
 31
0.000000
  0
LINE
  8
0
 62
3
  6
CONTINUOUS
 10
5.480759
 20
2.903540
 30
0.000000
 11
5.480139
 21
2.899430
 31
0.000000
  0
LINE
  8
0
 62
3
  6
CONTINUOUS
 10
5.480139
 20
2.899430
 30
0.000000
 11
5.479235
 21
2.894925
 31
0.000000
  0
LINE
  8
0
 62
3
  6
CONTINUOUS
 10
5.479235
 20
2.894925
 30
0.000000
 11
5.478175
 21
2.890163
 31
0.000000
  0
LINE
  8
0
 62
3
  6
CONTINUOUS
 10
5.478175
 20
2.890163
 30
0.000000
 11
5.477087
 21
2.885281
 31
0.000000
  0
LINE
  8
0
 62
3
  6
CONTINUOUS
 10
5.477087
 20
2.885281
 30
0.000000
 11
5.476099
 21
2.880416
 31
0.000000
  0
LINE
  8
0
 62
3
  6
CONTINUOUS
 10
5.476099
 20
2.880416
 30
0.000000
 11
5.475340
 21
2.875705
 31
0.000000
  0
LINE
  8
0
 62
3
  6
CONTINUOUS
 10
5.475340
 20
2.875705
 30
0.000000
 11
5.474241
 21
2.863649
 31
0.000000
  0
LINE
  8
0
 62
3
  6
CONTINUOUS
 10
5.474241
 20
2.863649
 30
0.000000
 11
5.453940
 21
2.867528
 31
0.000000
  0
LINE
  8
0
 62
3
  6
CONTINUOUS
 10
5.453940
 20
2.867528
 30
0.000000
 11
5.432294
 21
2.873079
 31
0.000000
  0
LINE
  8
0
 62
3
  6
CONTINUOUS
 10
5.432294
 20
2.873079
 30
0.000000
 11
5.408778
 21
2.880072
 31
0.000000
  0
LINE
  8
0
 62
3
  6
CONTINUOUS
 10
5.408778
 20
2.880072
 30
0.000000
 11
5.384019
 21
2.888054
 31
0.000000
  0
LINE
  8
0
 62
3
  6
CONTINUOUS
 10
5.384019
 20
2.888054
 30
0.000000
 11
5.358646
 21
2.896575
 31
0.000000
  0
LINE
  8
0
 62
3
  6
CONTINUOUS
 10
5.358646
 20
2.896575
 30
0.000000
 11
5.333289
 21
2.905183
 31
0.000000
  0
LINE
  8
0
 62
3
  6
CONTINUOUS
 10
5.333289
 20
2.905183
 30
0.000000
 11
5.308574
 21
2.913425
 31
0.000000
  0
LINE
  8
0
 62
3
  6
CONTINUOUS
 10
5.308574
 20
2.913425
 30
0.000000
 11
5.285131
 21
2.920851
 31
0.000000
  0
LINE
  8
0
 62
3
  6
CONTINUOUS
 10
5.285131
 20
2.920851
 30
0.000000
 11
5.263588
 21
2.927009
 31
0.000000
  0
LINE
  8
0
 62
3
  6
CONTINUOUS
 10
5.263588
 20
2.927009
 30
0.000000
 11
5.244574
 21
2.931446
 31
0.000000
  0
LINE
  8
0
 62
3
  6
CONTINUOUS
 10
5.244574
 20
2.931446
 30
0.000000
 11
5.213454
 21
2.937205
 31
0.000000
  0
LINE
  8
0
 62
3
  6
CONTINUOUS
 10
5.213454
 20
2.937205
 30
0.000000
 11
5.177603
 21
2.943222
 31
0.000000
  0
LINE
  8
0
 62
3
  6
CONTINUOUS
 10
5.177603
 20
2.943222
 30
0.000000
 11
5.138194
 21
2.949236
 31
0.000000
  0
LINE
  8
0
 62
3
  6
CONTINUOUS
 10
5.138194
 20
2.949236
 30
0.000000
 11
5.096398
 21
2.954986
 31
0.000000
  0
LINE
  8
0
 62
3
  6
CONTINUOUS
 10
5.096398
 20
2.954986
 30
0.000000
 11
5.053386
 21
2.960210
 31
0.000000
  0
LINE
  8
0
 62
3
  6
CONTINUOUS
 10
5.053386
 20
2.960210
 30
0.000000
 11
5.010329
 21
2.964646
 31
0.000000
  0
LINE
  8
0
 62
3
  6
CONTINUOUS
 10
5.010329
 20
2.964646
 30
0.000000
 11
4.968400
 21
2.968034
 31
0.000000
  0
LINE
  8
0
 62
3
  6
CONTINUOUS
 10
4.968400
 20
2.968034
 30
0.000000
 11
4.928770
 21
2.970111
 31
0.000000
  0
LINE
  8
0
 62
3
  6
CONTINUOUS
 10
4.928770
 20
2.970111
 30
0.000000
 11
4.892610
 21
2.970617
 31
0.000000
  0
LINE
  8
0
 62
3
  6
CONTINUOUS
 10
4.892610
 20
2.970617
 30
0.000000
 11
4.861092
 21
2.969289
 31
0.000000
  0
LINE
  8
0
 62
3
  6
CONTINUOUS
 10
4.861092
 20
2.969289
 30
0.000000
 11
4.775820
 21
2.958322
 31
0.000000
  0
LINE
  8
0
 62
3
  6
CONTINUOUS
 10
4.775820
 20
2.958322
 30
0.000000
 11
4.679191
 21
2.939278
 31
0.000000
  0
LINE
  8
0
 62
3
  6
CONTINUOUS
 10
4.679191
 20
2.939278
 30
0.000000
 11
4.574098
 21
2.913847
 31
0.000000
  0
LINE
  8
0
 62
3
  6
CONTINUOUS
 10
4.574098
 20
2.913847
 30
0.000000
 11
4.463437
 21
2.883720
 31
0.000000
  0
LINE
  8
0
 62
3
  6
CONTINUOUS
 10
4.463437
 20
2.883720
 30
0.000000
 11
4.350101
 21
2.850586
 31
0.000000
  0
LINE
  8
0
 62
3
  6
CONTINUOUS
 10
4.350101
 20
2.850586
 30
0.000000
 11
4.236985
 21
2.816137
 31
0.000000
  0
LINE
  8
0
 62
3
  6
CONTINUOUS
 10
4.236985
 20
2.816137
 30
0.000000
 11
4.126983
 21
2.782061
 31
0.000000
  0
LINE
  8
0
 62
3
  6
CONTINUOUS
 10
4.126983
 20
2.782061
 30
0.000000
 11
4.022989
 21
2.750051
 31
0.000000
  0
LINE
  8
0
 62
3
  6
CONTINUOUS
 10
4.022989
 20
2.750051
 30
0.000000
 11
3.927898
 21
2.721795
 31
0.000000
  0
LINE
  8
0
 62
3
  6
CONTINUOUS
 10
3.927898
 20
2.721795
 30
0.000000
 11
3.844603
 21
2.698985
 31
0.000000
  0
LINE
  8
0
 62
3
  6
CONTINUOUS
 10
3.844603
 20
2.698985
 30
0.000000
 11
3.799546
 21
2.687051
 31
0.000000
  0
LINE
  8
0
 62
3
  6
CONTINUOUS
 10
3.799546
 20
2.687051
 30
0.000000
 11
3.747975
 21
2.672819
 31
0.000000
  0
LINE
  8
0
 62
3
  6
CONTINUOUS
 10
3.747975
 20
2.672819
 30
0.000000
 11
3.691493
 21
2.657019
 31
0.000000
  0
LINE
  8
0
 62
3
  6
CONTINUOUS
 10
3.691493
 20
2.657019
 30
0.000000
 11
3.631698
 21
2.640381
 31
0.000000
  0
LINE
  8
0
 62
3
  6
CONTINUOUS
 10
3.631698
 20
2.640381
 30
0.000000
 11
3.570193
 21
2.623636
 31
0.000000
  0
LINE
  8
0
 62
3
  6
CONTINUOUS
 10
3.570193
 20
2.623636
 30
0.000000
 11
3.508577
 21
2.607512
 31
0.000000
  0
LINE
  8
0
 62
3
  6
CONTINUOUS
 10
3.508577
 20
2.607512
 30
0.000000
 11
3.448451
 21
2.592739
 31
0.000000
  0
LINE
  8
0
 62
3
  6
CONTINUOUS
 10
3.448451
 20
2.592739
 30
0.000000
 11
3.391416
 21
2.580049
 31
0.000000
  0
LINE
  8
0
 62
3
  6
CONTINUOUS
 10
3.391416
 20
2.580049
 30
0.000000
 11
3.339072
 21
2.570170
 31
0.000000
  0
LINE
  8
0
 62
3
  6
CONTINUOUS
 10
3.339072
 20
2.570170
 30
0.000000
 11
3.293020
 21
2.563833
 31
0.000000
  0
LINE
  8
0
 62
3
  6
CONTINUOUS
 10
3.293020
 20
2.563833
 30
0.000000
 11
3.281641
 21
2.562882
 31
0.000000
  0
LINE
  8
0
 62
3
  6
CONTINUOUS
 10
3.281641
 20
2.562882
 30
0.000000
 11
3.268534
 21
2.562168
 31
0.000000
  0
LINE
  8
0
 62
3
  6
CONTINUOUS
 10
3.268534
 20
2.562168
 30
0.000000
 11
3.254136
 21
2.561723
 31
0.000000
  0
LINE
  8
0
 62
3
  6
CONTINUOUS
 10
3.254136
 20
2.561723
 30
0.000000
 11
3.238889
 21
2.561582
 31
0.000000
  0
LINE
  8
0
 62
3
  6
CONTINUOUS
 10
3.238889
 20
2.561582
 30
0.000000
 11
3.223231
 21
2.561777
 31
0.000000
  0
LINE
  8
0
 62
3
  6
CONTINUOUS
 10
3.223231
 20
2.561777
 30
0.000000
 11
3.207602
 21
2.562342
 31
0.000000
  0
LINE
  8
0
 62
3
  6
CONTINUOUS
 10
3.207602
 20
2.562342
 30
0.000000
 11
3.192441
 21
2.563310
 31
0.000000
  0
LINE
  8
0
 62
3
  6
CONTINUOUS
 10
3.192441
 20
2.563310
 30
0.000000
 11
3.178187
 21
2.564714
 31
0.000000
  0
LINE
  8
0
 62
3
  6
CONTINUOUS
 10
3.178187
 20
2.564714
 30
0.000000
 11
3.165280
 21
2.566588
 31
0.000000
  0
LINE
  8
0
 62
3
  6
CONTINUOUS
 10
3.165280
 20
2.566588
 30
0.000000
 11
3.154159
 21
2.568965
 31
0.000000
  0
LINE
  8
0
 62
3
  6
CONTINUOUS
 10
3.154159
 20
2.568965
 30
0.000000
 11
3.167740
 21
2.649990
 31
0.000000
  0
LINE
  8
0
 62
3
  6
CONTINUOUS
 10
3.180167
 20
2.684154
 30
0.000000
 11
3.217779
 21
2.748104
 31
0.000000
  0
LINE
  8
0
 62
3
  6
CONTINUOUS
 10
3.252272
 20
2.783004
 30
0.000000
 11
3.324397
 21
2.826571
 31
0.000000
  0
LINE
  8
0
 62
3
  6
CONTINUOUS
 10
3.323983
 20
2.861053
 30
0.000000
 11
3.194417
 21
2.935129
 31
0.000000
  0
LINE
  8
0
 62
3
  6
CONTINUOUS
 10
3.151174
 20
3.059008
 30
0.000000
 11
3.185557
 21
3.145163
 31
0.000000
  0
LINE
  8
0
 62
3
  6
CONTINUOUS
 10
3.185557
 20
3.145163
 30
0.000000
 11
3.881046
 21
3.145163
 31
0.000000
  0
LINE
  8
0
 62
3
  6
CONTINUOUS
 10
3.881046
 20
3.145163
 30
0.000000
 11
3.881046
 21
3.271522
 31
0.000000
  0
LINE
  8
0
 62
3
  6
CONTINUOUS
 10
1.566535
 20
2.885466
 30
0.000000
 11
1.573109
 21
2.890064
 31
0.000000
  0
LINE
  8
0
 62
3
  6
CONTINUOUS
 10
1.913303
 20
5.580709
 30
0.000000
 11
2.187067
 21
5.561927
 31
0.000000
  0
LINE
  8
0
 62
3
  6
CONTINUOUS
 10
2.187067
 20
5.561927
 30
0.000000
 11
2.469956
 21
5.505581
 31
0.000000
  0
LINE
  8
0
 62
3
  6
CONTINUOUS
 10
2.469956
 20
5.505581
 30
0.000000
 11
2.752845
 21
5.421061
 31
0.000000
  0
LINE
  8
0
 62
3
  6
CONTINUOUS
 10
2.752845
 20
5.421061
 30
0.000000
 11
3.044860
 21
5.298977
 31
0.000000
  0
LINE
  8
0
 62
3
  6
CONTINUOUS
 10
3.044860
 20
5.298977
 30
0.000000
 11
3.309499
 21
5.195675
 31
0.000000
  0
LINE
  8
0
 62
3
  6
CONTINUOUS
 10
3.309499
 20
5.195675
 30
0.000000
 11
3.574138
 21
5.026634
 31
0.000000
  0
LINE
  8
0
 62
3
  6
CONTINUOUS
 10
3.574138
 20
5.026634
 30
0.000000
 11
3.756647
 21
4.876377
 31
0.000000
  0
LINE
  8
0
 62
3
  6
CONTINUOUS
 10
3.756647
 20
4.876377
 30
0.000000
 11
3.802274
 21
4.791858
 31
0.000000
  0
LINE
  8
0
 62
3
  6
CONTINUOUS
 10
3.802274
 20
4.791858
 30
0.000000
 11
3.802274
 21
4.686772
 31
0.000000
  0
LINE
  8
0
 62
3
  6
CONTINUOUS
 10
3.802274
 20
4.686772
 30
0.000000
 11
2.274268
 21
4.847370
 31
0.000000
  0
LINE
  8
0
 62
3
  6
CONTINUOUS
 10
2.274268
 20
4.847370
 30
0.000000
 11
2.261202
 21
4.723055
 31
0.000000
  0
LINE
  8
0
 62
3
  6
CONTINUOUS
 10
2.261202
 20
4.723055
 30
0.000000
 11
3.835756
 21
4.557564
 31
0.000000
  0
LINE
  8
0
 62
3
  6
CONTINUOUS
 10
3.835756
 20
4.557564
 30
0.000000
 11
3.831033
 21
4.549925
 31
0.000000
  0
LINE
  8
0
 62
3
  6
CONTINUOUS
 10
3.652239
 20
4.394314
 30
0.000000
 11
3.574138
 21
4.359867
 31
0.000000
  0
LINE
  8
0
 62
3
  6
CONTINUOUS
 10
3.574138
 20
4.359867
 30
0.000000
 11
3.107691
 21
4.297643
 31
0.000000
  0
LINE
  8
0
 62
3
  6
CONTINUOUS
 10
3.054799
 20
4.294131
 30
0.000000
 11
2.994719
 21
4.294130
 31
0.000000
  0
LINE
  8
0
 62
3
  6
CONTINUOUS
 10
2.894735
 20
4.195998
 30
0.000000
 11
2.893100
 21
4.108397
 31
0.000000
  0
LINE
  8
0
 62
3
  6
CONTINUOUS
 10
2.856493
 20
4.032913
 30
0.000000
 11
2.291561
 21
3.570035
 31
0.000000
  0
LINE
  8
0
 62
3
  6
CONTINUOUS
 10
2.271392
 20
3.437728
 30
0.000000
 11
2.433666
 21
3.191023
 31
0.000000
  0
LINE
  8
0
 62
3
  6
CONTINUOUS
 10
2.429073
 20
3.074694
 30
0.000000
 11
2.369576
 21
2.998159
 31
0.000000
  0
LINE
  8
0
 62
3
  6
CONTINUOUS
 10
2.369576
 20
2.998159
 30
0.000000
 11
2.362367
 21
2.972195
 31
0.000000
  0
LINE
  8
0
 62
3
  6
CONTINUOUS
 10
2.266012
 20
2.898947
 30
0.000000
 11
2.152503
 21
2.898947
 31
0.000000
  0
LINE
  8
0
 62
3
  6
CONTINUOUS
 10
2.152503
 20
2.898947
 30
0.000000
 11
2.152503
 21
3.285034
 31
0.000000
  0
LINE
  8
0
 62
3
  6
CONTINUOUS
 10
2.152503
 20
3.285034
 30
0.000000
 11
2.027503
 21
3.285034
 31
0.000000
  0
LINE
  8
0
 62
3
  6
CONTINUOUS
 10
2.027503
 20
3.285034
 30
0.000000
 11
2.027503
 21
2.890064
 31
0.000000
  0
LINE
  8
0
 62
3
  6
CONTINUOUS
 10
2.027503
 20
2.890064
 30
0.000000
 11
1.530464
 21
2.890064
 31
0.000000
  0
LINE
  8
0
 62
3
  6
CONTINUOUS
 10
1.530464
 20
2.890064
 30
0.000000
 11
1.857281
 21
3.216881
 31
0.000000
  0
LINE
  8
0
 62
3
  6
CONTINUOUS
 10
1.857281
 20
3.216881
 30
0.000000
 11
1.768893
 21
3.305270
 31
0.000000
  0
LINE
  8
0
 62
3
  6
CONTINUOUS
 10
1.768893
 20
3.305270
 30
0.000000
 11
1.344766
 21
2.881142
 31
0.000000
  0
LINE
  8
0
 62
3
  6
CONTINUOUS
 10
1.344766
 20
2.881142
 30
0.000000
 11
1.092011
 21
2.829119
 31
0.000000
  0
LINE
  8
0
 62
3
  6
CONTINUOUS
 10
1.092011
 20
2.829119
 30
0.000000
 11
0.955129
 21
2.772773
 31
0.000000
  0
LINE
  8
0
 62
3
  6
CONTINUOUS
 10
0.955129
 20
2.772773
 30
0.000000
 11
0.818619
 21
2.728871
 31
0.000000
  0
LINE
  8
0
 62
3
  6
CONTINUOUS
 10
0.793061
 20
2.743190
 30
0.000000
 11
0.786793
 21
2.768988
 31
0.000000
  0
LINE
  8
0
 62
3
  6
CONTINUOUS
 10
0.833293
 20
2.950889
 30
0.000000
 11
0.861520
 21
2.981874
 31
0.000000
  0
LINE
  8
0
 62
3
  6
CONTINUOUS
 10
0.931767
 20
3.031517
 30
0.000000
 11
1.238586
 21
3.160689
 31
0.000000
  0
LINE
  8
0
 62
3
  6
CONTINUOUS
 10
1.296796
 20
3.198201
 30
0.000000
 11
1.914611
 21
3.769706
 31
0.000000
  0
LINE
  8
0
 62
3
  6
CONTINUOUS
 10
1.894410
 20
4.040076
 30
0.000000
 11
1.673621
 21
4.082517
 31
0.000000
  0
LINE
  8
0
 62
3
  6
CONTINUOUS
 10
1.497552
 20
4.146101
 30
0.000000
 11
1.482194
 21
4.154554
 31
0.000000
  0
LINE
  8
0
 62
3
  6
CONTINUOUS
 10
1.089193
 20
4.219902
 30
0.000000
 11
0.764272
 21
4.162906
 31
0.000000
  0
LINE
  8
0
 62
3
  6
CONTINUOUS
 10
0.669552
 20
4.153949
 30
0.000000
 11
0.478048
 21
4.151091
 31
0.000000
  0
LINE
  8
0
 62
3
  6
CONTINUOUS
 10
0.131553
 20
4.341194
 30
0.000000
 11
0.566369
 21
4.592235
 31
0.000000
  0
LINE
  8
0
 62
3
  6
CONTINUOUS
 10
0.566369
 20
4.592235
 30
0.000000
 11
0.503869
 21
4.700488
 31
0.000000
  0
LINE
  8
0
 62
3
  6
CONTINUOUS
 10
0.503869
 20
4.700488
 30
0.000000
 11
0.070696
 21
4.450396
 31
0.000000
  0
LINE
  8
0
 62
3
  6
CONTINUOUS
 10
0.070696
 20
4.450396
 30
0.000000
 11
0.029788
 21
4.550379
 31
0.000000
  0
LINE
  8
0
 62
3
  6
CONTINUOUS
 10
0.149253
 20
5.013500
 30
0.000000
 11
0.221973
 21
5.072010
 31
0.000000
  0
LINE
  8
0
 62
3
  6
CONTINUOUS
 10
0.221973
 20
5.072010
 30
0.000000
 11
0.510872
 21
5.240881
 31
0.000000
  0
LINE
  8
0
 62
3
  6
CONTINUOUS
 10
0.630605
 20
5.300509
 30
0.000000
 11
1.001869
 21
5.455340
 31
0.000000
  0
LINE
  8
0
 62
3
  6
CONTINUOUS
 10
1.088586
 20
5.486893
 30
0.000000
 11
1.326826
 21
5.561320
 31
0.000000
  0
LINE
  8
0
 62
3
  6
CONTINUOUS
 10
1.384929
 20
5.570414
 30
0.000000
 11
1.502657
 21
5.571318
 31
0.000000
  0
LINE
  8
0
 62
3
  6
CONTINUOUS
 10
1.502657
 20
5.571318
 30
0.000000
 11
1.502657
 21
5.176893
 31
0.000000
  0
LINE
  8
0
 62
3
  6
CONTINUOUS
 10
1.502657
 20
5.176893
 30
0.000000
 11
1.627657
 21
5.176893
 31
0.000000
  0
LINE
  8
0
 62
3
  6
CONTINUOUS
 10
1.627657
 20
5.176893
 30
0.000000
 11
1.627657
 21
5.580709
 31
0.000000
  0
LINE
  8
0
 62
3
  6
CONTINUOUS
 10
1.627657
 20
5.580709
 30
0.000000
 11
1.913303
 21
5.580709
 31
0.000000
  0
LINE
  8
0
 62
3
  6
CONTINUOUS
 10
2.088591
 20
8.259602
 30
0.000000
 11
2.088591
 21
8.669355
 31
0.000000
  0
LINE
  8
0
 62
3
  6
CONTINUOUS
 10
2.138592
 20
8.719354
 30
0.000000
 11
2.213593
 21
8.719354
 31
0.000000
  0
LINE
  8
0
 62
3
  6
CONTINUOUS
 10
2.213593
 20
8.719354
 30
0.000000
 11
2.213593
 21
8.469354
 31
0.000000
  0
LINE
  8
0
 62
3
  6
CONTINUOUS
 10
2.213593
 20
8.469354
 30
0.000000
 11
2.338593
 21
8.469354
 31
0.000000
  0
LINE
  8
0
 62
3
  6
CONTINUOUS
 10
2.338593
 20
8.469354
 30
0.000000
 11
2.338593
 21
8.719354
 31
0.000000
  0
LINE
  8
0
 62
3
  6
CONTINUOUS
 10
2.338593
 20
8.719354
 30
0.000000
 11
2.413591
 21
8.719355
 31
0.000000
  0
LINE
  8
0
 62
3
  6
CONTINUOUS
 10
2.463593
 20
8.669355
 30
0.000000
 11
2.463589
 21
7.567571
 31
0.000000
  0
LINE
  8
0
 62
3
  6
CONTINUOUS
 10
2.388592
 20
7.492571
 30
0.000000
 11
2.384945
 21
7.492571
 31
0.000000
  0
LINE
  8
0
 62
3
  6
CONTINUOUS
 10
2.317863
 20
7.534029
 30
0.000000
 11
2.162491
 21
7.844769
 31
0.000000
  0
LINE
  8
0
 62
3
  6
CONTINUOUS
 10
1.963593
 20
8.669355
 30
0.000000
 11
1.963591
 21
7.669355
 31
0.000000
  0
LINE
  8
0
 62
3
  6
CONTINUOUS
 10
1.888592
 20
7.594354
 30
0.000000
 11
1.884943
 21
7.594354
 31
0.000000
  0
LINE
  8
0
 62
3
  6
CONTINUOUS
 10
1.817863
 20
7.635815
 30
0.000000
 11
1.662493
 21
7.946554
 31
0.000000
  0
LINE
  8
0
 62
3
  6
CONTINUOUS
 10
1.588593
 20
8.259601
 30
0.000000
 11
1.588591
 21
8.669355
 31
0.000000
  0
LINE
  8
0
 62
3
  6
CONTINUOUS
 10
1.638592
 20
8.719352
 30
0.000000
 11
1.713593
 21
8.719354
 31
0.000000
  0
LINE
  8
0
 62
3
  6
CONTINUOUS
 10
1.713593
 20
8.719354
 30
0.000000
 11
1.713593
 21
8.469354
 31
0.000000
  0
LINE
  8
0
 62
3
  6
CONTINUOUS
 10
1.713593
 20
8.469354
 30
0.000000
 11
1.838593
 21
8.469354
 31
0.000000
  0
LINE
  8
0
 62
3
  6
CONTINUOUS
 10
1.838593
 20
8.469354
 30
0.000000
 11
1.838593
 21
8.719354
 31
0.000000
  0
LINE
  8
0
 62
3
  6
CONTINUOUS
 10
1.838593
 20
8.719354
 30
0.000000
 11
1.913591
 21
8.719352
 31
0.000000
  0
LINE
  8
0
 62
3
  6
CONTINUOUS
 10
2.762092
 20
8.719352
 30
0.000000
 11
2.838593
 21
8.719354
 31
0.000000
  0
LINE
  8
0
 62
3
  6
CONTINUOUS
 10
2.838593
 20
8.719354
 30
0.000000
 11
2.838593
 21
8.469354
 31
0.000000
  0
LINE
  8
0
 62
3
  6
CONTINUOUS
 10
2.838593
 20
8.469354
 30
0.000000
 11
2.966092
 21
8.469354
 31
0.000000
  0
LINE
  8
0
 62
3
  6
CONTINUOUS
 10
2.966092
 20
8.469354
 30
0.000000
 11
2.966092
 21
8.719354
 31
0.000000
  0
LINE
  8
0
 62
3
  6
CONTINUOUS
 10
2.966092
 20
8.719354
 30
0.000000
 11
3.042591
 21
8.719354
 31
0.000000
  0
LINE
  8
0
 62
3
  6
CONTINUOUS
 10
3.093593
 20
8.669355
 30
0.000000
 11
3.093593
 21
7.490228
 31
0.000000
  0
LINE
  8
0
 62
3
  6
CONTINUOUS
 10
3.017092
 20
7.415227
 30
0.000000
 11
3.013371
 21
7.415228
 31
0.000000
  0
LINE
  8
0
 62
3
  6
CONTINUOUS
 10
2.944947
 20
7.456688
 30
0.000000
 11
2.786468
 21
7.767426
 31
0.000000
  0
LINE
  8
0
 62
3
  6
CONTINUOUS
 10
2.711090
 20
8.080477
 30
0.000000
 11
2.711092
 21
8.669355
 31
0.000000
  0
LINE
  8
0
 62
3
  6
CONTINUOUS
 10
3.726242
 20
8.669355
 30
0.000000
 11
3.726245
 21
7.417816
 31
0.000000
  0
LINE
  8
0
 62
3
  6
CONTINUOUS
 10
3.647448
 20
7.342817
 30
0.000000
 11
3.643616
 21
7.342817
 31
0.000000
  0
LINE
  8
0
 62
3
  6
CONTINUOUS
 10
3.573139
 20
7.384274
 30
0.000000
 11
3.409908
 21
7.695013
 31
0.000000
  0
LINE
  8
0
 62
3
  6
CONTINUOUS
 10
3.332269
 20
8.259602
 30
0.000000
 11
3.332268
 21
8.669355
 31
0.000000
  0
LINE
  8
0
 62
3
  6
CONTINUOUS
 10
3.384796
 20
8.719354
 30
0.000000
 11
3.463593
 21
8.719354
 31
0.000000
  0
LINE
  8
0
 62
3
  6
CONTINUOUS
 10
3.463593
 20
8.719354
 30
0.000000
 11
3.463593
 21
8.469354
 31
0.000000
  0
LINE
  8
0
 62
3
  6
CONTINUOUS
 10
3.463593
 20
8.469354
 30
0.000000
 11
3.594917
 21
8.469354
 31
0.000000
  0
LINE
  8
0
 62
3
  6
CONTINUOUS
 10
3.594917
 20
8.469354
 30
0.000000
 11
3.594917
 21
8.719354
 31
0.000000
  0
LINE
  8
0
 62
3
  6
CONTINUOUS
 10
3.594917
 20
8.719354
 30
0.000000
 11
3.673712
 21
8.719356
 31
0.000000
  0
LINE
  8
0
 62
3
  6
CONTINUOUS
 10
4.351241
 20
8.669355
 30
0.000000
 11
4.351242
 21
7.349214
 31
0.000000
  0
LINE
  8
0
 62
3
  6
CONTINUOUS
 10
4.272448
 20
7.274215
 30
0.000000
 11
4.268614
 21
7.274214
 31
0.000000
  0
LINE
  8
0
 62
3
  6
CONTINUOUS
 10
4.198137
 20
7.315672
 30
0.000000
 11
4.034907
 21
7.626415
 31
0.000000
  0
LINE
  8
0
 62
3
  6
CONTINUOUS
 10
3.957268
 20
8.259604
 30
0.000000
 11
3.957264
 21
8.669355
 31
0.000000
  0
LINE
  8
0
 62
3
  6
CONTINUOUS
 10
4.009797
 20
8.719354
 30
0.000000
 11
4.088593
 21
8.719354
 31
0.000000
  0
LINE
  8
0
 62
3
  6
CONTINUOUS
 10
4.088593
 20
8.719354
 30
0.000000
 11
4.088593
 21
8.469354
 31
0.000000
  0
LINE
  8
0
 62
3
  6
CONTINUOUS
 10
4.088593
 20
8.469354
 30
0.000000
 11
4.213593
 21
8.469354
 31
0.000000
  0
LINE
  8
0
 62
3
  6
CONTINUOUS
 10
4.213593
 20
8.469354
 30
0.000000
 11
4.213593
 21
8.719354
 31
0.000000
  0
LINE
  8
0
 62
3
  6
CONTINUOUS
 10
4.213593
 20
8.719354
 30
0.000000
 11
4.298710
 21
8.719356
 31
0.000000
  0
LINE
  8
0
 62
3
  6
CONTINUOUS
 10
4.913089
 20
8.669355
 30
0.000000
 11
4.913088
 21
7.261557
 31
0.000000
  0
LINE
  8
0
 62
3
  6
CONTINUOUS
 10
4.831928
 20
7.186556
 30
0.000000
 11
4.827981
 21
7.186556
 31
0.000000
  0
LINE
  8
0
 62
3
  6
CONTINUOUS
 10
4.755390
 20
7.228016
 30
0.000000
 11
4.587261
 21
7.538757
 31
0.000000
  0
LINE
  8
0
 62
3
  6
CONTINUOUS
 10
4.507292
 20
8.259603
 30
0.000000
 11
4.507296
 21
8.669356
 31
0.000000
  0
LINE
  8
0
 62
3
  6
CONTINUOUS
 10
4.561399
 20
8.719354
 30
0.000000
 11
4.642557
 21
8.719354
 31
0.000000
  0
LINE
  8
0
 62
3
  6
CONTINUOUS
 10
4.642557
 20
8.719354
 30
0.000000
 11
4.642557
 21
8.469354
 31
0.000000
  0
LINE
  8
0
 62
3
  6
CONTINUOUS
 10
4.642557
 20
8.469354
 30
0.000000
 11
4.777824
 21
8.469354
 31
0.000000
  0
LINE
  8
0
 62
3
  6
CONTINUOUS
 10
4.777824
 20
8.469354
 30
0.000000
 11
4.777824
 21
8.719354
 31
0.000000
  0
LINE
  8
0
 62
3
  6
CONTINUOUS
 10
4.777824
 20
8.719354
 30
0.000000
 11
4.858980
 21
8.719354
 31
0.000000
  0
LINE
  8
0
 62
3
  6
CONTINUOUS
 10
5.463593
 20
8.469354
 30
0.000000
 11
5.463593
 21
8.719354
 31
0.000000
  0
LINE
  8
0
 62
3
  6
CONTINUOUS
 10
5.463593
 20
8.719354
 30
0.000000
 11
5.563673
 21
8.719353
 31
0.000000
  0
LINE
  8
0
 62
3
  6
CONTINUOUS
 10
5.619940
 20
8.669355
 30
0.000000
 11
5.634709
 21
7.116733
 31
0.000000
  0
LINE
  8
0
 62
3
  6
CONTINUOUS
 10
5.550308
 20
7.041731
 30
0.000000
 11
5.546205
 21
7.041730
 31
0.000000
  0
LINE
  8
0
 62
3
  6
CONTINUOUS
 10
5.455936
 20
7.083191
 30
0.000000
 11
5.325300
 21
7.393928
 31
0.000000
  0
LINE
  8
0
 62
3
  6
CONTINUOUS
 10
5.178868
 20
8.259602
 30
0.000000
 11
5.197914
 21
8.669356
 31
0.000000
  0
LINE
  8
0
 62
3
  6
CONTINUOUS
 10
5.254188
 20
8.719354
 30
0.000000
 11
5.338593
 21
8.719354
 31
0.000000
  0
LINE
  8
0
 62
3
  6
CONTINUOUS
 10
5.338593
 20
8.719354
 30
0.000000
 11
5.338593
 21
8.469354
 31
0.000000
  0
LINE
  8
0
 62
3
  6
CONTINUOUS
 10
5.338593
 20
8.469354
 30
0.000000
 11
5.463593
 21
8.469354
 31
0.000000
  0
LINE
  8
0
 62
3
  6
CONTINUOUS
 10
5.963593
 20
8.719354
 30
0.000000
 11
5.963593
 21
8.469354
 31
0.000000
  0
LINE
  8
0
 62
3
  6
CONTINUOUS
 10
5.963593
 20
8.469354
 30
0.000000
 11
6.088593
 21
8.469354
 31
0.000000
  0
LINE
  8
0
 62
3
  6
CONTINUOUS
 10
6.088593
 20
8.469354
 30
0.000000
 11
6.088593
 21
8.719354
 31
0.000000
  0
LINE
  8
0
 62
3
  6
CONTINUOUS
 10
6.088593
 20
8.719354
 30
0.000000
 11
6.172997
 21
8.719356
 31
0.000000
  0
LINE
  8
0
 62
3
  6
CONTINUOUS
 10
6.229263
 20
8.669355
 30
0.000000
 11
6.244038
 21
7.116734
 31
0.000000
  0
LINE
  8
0
 62
3
  6
CONTINUOUS
 10
6.159632
 20
7.041731
 30
0.000000
 11
6.155527
 21
7.041732
 31
0.000000
  0
LINE
  8
0
 62
3
  6
CONTINUOUS
 10
6.065260
 20
7.083191
 30
0.000000
 11
5.934626
 21
7.393928
 31
0.000000
  0
LINE
  8
0
 62
3
  6
CONTINUOUS
 10
5.788191
 20
8.259603
 30
0.000000
 11
5.807234
 21
8.669355
 31
0.000000
  0
LINE
  8
0
 62
3
  6
CONTINUOUS
 10
5.863510
 20
8.719354
 30
0.000000
 11
5.963593
 21
8.719354
 31
0.000000
  0
LINE
  8
0
 62
3
  6
CONTINUOUS
 10
5.934622
 20
10.415010
 30
0.000000
 11
6.065260
 21
10.725750
 31
0.000000
  0
LINE
  8
0
 62
3
  6
CONTINUOUS
 10
6.155528
 20
10.767210
 30
0.000000
 11
6.159632
 21
10.767210
 31
0.000000
  0
LINE
  8
0
 62
3
  6
CONTINUOUS
 10
6.244036
 20
10.692210
 30
0.000000
 11
6.229263
 21
9.139589
 31
0.000000
  0
LINE
  8
0
 62
3
  6
CONTINUOUS
 10
6.172997
 20
9.089590
 30
0.000000
 11
6.088593
 21
9.089590
 31
0.000000
  0
LINE
  8
0
 62
3
  6
CONTINUOUS
 10
6.088593
 20
9.089590
 30
0.000000
 11
6.088593
 21
9.339590
 31
0.000000
  0
LINE
  8
0
 62
3
  6
CONTINUOUS
 10
6.088593
 20
9.339590
 30
0.000000
 11
5.963593
 21
9.339590
 31
0.000000
  0
LINE
  8
0
 62
3
  6
CONTINUOUS
 10
5.963593
 20
9.339590
 30
0.000000
 11
5.963593
 21
9.089590
 31
0.000000
  0
LINE
  8
0
 62
3
  6
CONTINUOUS
 10
5.963593
 20
9.089590
 30
0.000000
 11
5.863510
 21
9.089591
 31
0.000000
  0
LINE
  8
0
 62
3
  6
CONTINUOUS
 10
5.807240
 20
9.139589
 30
0.000000
 11
5.788192
 21
9.549340
 31
0.000000
  0
LINE
  8
0
 62
3
  6
CONTINUOUS
 10
5.546204
 20
10.767210
 30
0.000000
 11
5.550308
 21
10.767210
 31
0.000000
  0
LINE
  8
0
 62
3
  6
CONTINUOUS
 10
5.634711
 20
10.692210
 30
0.000000
 11
5.619940
 21
9.139589
 31
0.000000
  0
LINE
  8
0
 62
3
  6
CONTINUOUS
 10
5.563673
 20
9.089590
 30
0.000000
 11
5.463593
 21
9.089590
 31
0.000000
  0
LINE
  8
0
 62
3
  6
CONTINUOUS
 10
5.463593
 20
9.089590
 30
0.000000
 11
5.463593
 21
9.339590
 31
0.000000
  0
LINE
  8
0
 62
3
  6
CONTINUOUS
 10
5.463593
 20
9.339590
 30
0.000000
 11
5.338593
 21
9.339590
 31
0.000000
  0
LINE
  8
0
 62
3
  6
CONTINUOUS
 10
5.338593
 20
9.339590
 30
0.000000
 11
5.338593
 21
9.089590
 31
0.000000
  0
LINE
  8
0
 62
3
  6
CONTINUOUS
 10
5.338593
 20
9.089590
 30
0.000000
 11
5.254186
 21
9.089590
 31
0.000000
  0
LINE
  8
0
 62
3
  6
CONTINUOUS
 10
5.197916
 20
9.139589
 30
0.000000
 11
5.178869
 21
9.549339
 31
0.000000
  0
LINE
  8
0
 62
3
  6
CONTINUOUS
 10
5.325299
 20
10.415010
 30
0.000000
 11
5.455935
 21
10.725750
 31
0.000000
  0
LINE
  8
0
 62
3
  6
CONTINUOUS
 10
4.913087
 20
10.547390
 30
0.000000
 11
4.913088
 21
9.139589
 31
0.000000
  0
LINE
  8
0
 62
3
  6
CONTINUOUS
 10
4.858980
 20
9.089590
 30
0.000000
 11
4.777824
 21
9.089590
 31
0.000000
  0
LINE
  8
0
 62
3
  6
CONTINUOUS
 10
4.777824
 20
9.089590
 30
0.000000
 11
4.777824
 21
9.339590
 31
0.000000
  0
LINE
  8
0
 62
3
  6
CONTINUOUS
 10
4.777824
 20
9.339590
 30
0.000000
 11
4.642557
 21
9.339590
 31
0.000000
  0
LINE
  8
0
 62
3
  6
CONTINUOUS
 10
4.642557
 20
9.339590
 30
0.000000
 11
4.642557
 21
9.089590
 31
0.000000
  0
LINE
  8
0
 62
3
  6
CONTINUOUS
 10
4.642557
 20
9.089590
 30
0.000000
 11
4.561398
 21
9.089590
 31
0.000000
  0
LINE
  8
0
 62
3
  6
CONTINUOUS
 10
4.507292
 20
9.139589
 30
0.000000
 11
4.507294
 21
9.549340
 31
0.000000
  0
LINE
  8
0
 62
3
  6
CONTINUOUS
 10
4.587261
 20
10.270190
 30
0.000000
 11
4.755388
 21
10.580930
 31
0.000000
  0
LINE
  8
0
 62
3
  6
CONTINUOUS
 10
4.827979
 20
10.622390
 30
0.000000
 11
4.831928
 21
10.622390
 31
0.000000
  0
LINE
  8
0
 62
3
  6
CONTINUOUS
 10
4.351243
 20
10.459730
 30
0.000000
 11
4.351241
 21
9.139589
 31
0.000000
  0
LINE
  8
0
 62
3
  6
CONTINUOUS
 10
4.298712
 20
9.089590
 30
0.000000
 11
4.213593
 21
9.089590
 31
0.000000
  0
LINE
  8
0
 62
3
  6
CONTINUOUS
 10
4.213593
 20
9.089590
 30
0.000000
 11
4.213593
 21
9.339590
 31
0.000000
  0
LINE
  8
0
 62
3
  6
CONTINUOUS
 10
4.213593
 20
9.339590
 30
0.000000
 11
4.088593
 21
9.339590
 31
0.000000
  0
LINE
  8
0
 62
3
  6
CONTINUOUS
 10
4.088593
 20
9.339590
 30
0.000000
 11
4.088593
 21
9.089590
 31
0.000000
  0
LINE
  8
0
 62
3
  6
CONTINUOUS
 10
4.088593
 20
9.089590
 30
0.000000
 11
4.009798
 21
9.089590
 31
0.000000
  0
LINE
  8
0
 62
3
  6
CONTINUOUS
 10
3.957266
 20
9.139589
 30
0.000000
 11
3.957268
 21
9.549340
 31
0.000000
  0
LINE
  8
0
 62
3
  6
CONTINUOUS
 10
4.034907
 20
10.182530
 30
0.000000
 11
4.198137
 21
10.493270
 31
0.000000
  0
LINE
  8
0
 62
3
  6
CONTINUOUS
 10
4.268612
 20
10.534730
 30
0.000000
 11
4.272448
 21
10.534730
 31
0.000000
  0
LINE
  8
0
 62
3
  6
CONTINUOUS
 10
3.643616
 20
10.466130
 30
0.000000
 11
3.647448
 21
10.466130
 31
0.000000
  0
LINE
  8
0
 62
3
  6
CONTINUOUS
 10
3.726243
 20
10.391130
 30
0.000000
 11
3.726240
 21
9.139589
 31
0.000000
  0
LINE
  8
0
 62
3
  6
CONTINUOUS
 10
3.673712
 20
9.089590
 30
0.000000
 11
3.594917
 21
9.089590
 31
0.000000
  0
LINE
  8
0
 62
3
  6
CONTINUOUS
 10
3.594917
 20
9.089590
 30
0.000000
 11
3.594917
 21
9.339590
 31
0.000000
  0
LINE
  8
0
 62
3
  6
CONTINUOUS
 10
3.594917
 20
9.339590
 30
0.000000
 11
3.463593
 21
9.339590
 31
0.000000
  0
LINE
  8
0
 62
3
  6
CONTINUOUS
 10
3.463593
 20
9.339590
 30
0.000000
 11
3.463593
 21
9.089590
 31
0.000000
  0
LINE
  8
0
 62
3
  6
CONTINUOUS
 10
3.463593
 20
9.089590
 30
0.000000
 11
3.384799
 21
9.089591
 31
0.000000
  0
LINE
  8
0
 62
3
  6
CONTINUOUS
 10
3.332268
 20
9.139589
 30
0.000000
 11
3.332265
 21
9.549343
 31
0.000000
  0
LINE
  8
0
 62
3
  6
CONTINUOUS
 10
3.409905
 20
10.113930
 30
0.000000
 11
3.573139
 21
10.424670
 31
0.000000
  0
LINE
  8
0
 62
3
  6
CONTINUOUS
 10
2.786469
 20
10.041520
 30
0.000000
 11
2.944946
 21
10.352260
 31
0.000000
  0
LINE
  8
0
 62
3
  6
CONTINUOUS
 10
3.013370
 20
10.393710
 30
0.000000
 11
3.017092
 21
10.393710
 31
0.000000
  0
LINE
  8
0
 62
3
  6
CONTINUOUS
 10
3.093593
 20
10.318720
 30
0.000000
 11
3.093594
 21
9.139589
 31
0.000000
  0
LINE
  8
0
 62
3
  6
CONTINUOUS
 10
3.042591
 20
9.089589
 30
0.000000
 11
2.966092
 21
9.089590
 31
0.000000
  0
LINE
  8
0
 62
3
  6
CONTINUOUS
 10
2.966092
 20
9.089590
 30
0.000000
 11
2.966092
 21
9.339590
 31
0.000000
  0
LINE
  8
0
 62
3
  6
CONTINUOUS
 10
2.966092
 20
9.339590
 30
0.000000
 11
2.838593
 21
9.339590
 31
0.000000
  0
LINE
  8
0
 62
3
  6
CONTINUOUS
 10
2.838593
 20
9.339590
 30
0.000000
 11
2.838593
 21
9.089590
 31
0.000000
  0
LINE
  8
0
 62
3
  6
CONTINUOUS
 10
2.838593
 20
9.089590
 30
0.000000
 11
2.762092
 21
9.089588
 31
0.000000
  0
LINE
  8
0
 62
3
  6
CONTINUOUS
 10
2.711091
 20
9.139589
 30
0.000000
 11
2.711093
 21
9.728467
 31
0.000000
  0
LINE
  8
0
 62
3
  6
CONTINUOUS
 10
2.162492
 20
9.964174
 30
0.000000
 11
2.317862
 21
10.274910
 31
0.000000
  0
LINE
  8
0
 62
3
  6
CONTINUOUS
 10
2.384945
 20
10.316370
 30
0.000000
 11
2.388591
 21
10.316370
 31
0.000000
  0
LINE
  8
0
 62
3
  6
CONTINUOUS
 10
2.463593
 20
10.241370
 30
0.000000
 11
2.463590
 21
9.139589
 31
0.000000
  0
LINE
  8
0
 62
3
  6
CONTINUOUS
 10
2.413590
 20
9.089590
 30
0.000000
 11
2.338593
 21
9.089590
 31
0.000000
  0
LINE
  8
0
 62
3
  6
CONTINUOUS
 10
2.338593
 20
9.089590
 30
0.000000
 11
2.338593
 21
9.339590
 31
0.000000
  0
LINE
  8
0
 62
3
  6
CONTINUOUS
 10
2.338593
 20
9.339590
 30
0.000000
 11
2.213593
 21
9.339590
 31
0.000000
  0
LINE
  8
0
 62
3
  6
CONTINUOUS
 10
2.213593
 20
9.339590
 30
0.000000
 11
2.213593
 21
9.089590
 31
0.000000
  0
LINE
  8
0
 62
3
  6
CONTINUOUS
 10
2.213593
 20
9.089590
 30
0.000000
 11
2.138592
 21
9.089592
 31
0.000000
  0
LINE
  8
0
 62
3
  6
CONTINUOUS
 10
2.088593
 20
9.139589
 30
0.000000
 11
2.088591
 21
9.549342
 31
0.000000
  0
LINE
  8
0
 62
3
  6
CONTINUOUS
 10
1.884945
 20
10.214590
 30
0.000000
 11
1.888593
 21
10.214590
 31
0.000000
  0
LINE
  8
0
 62
3
  6
CONTINUOUS
 10
1.963592
 20
10.139590
 30
0.000000
 11
1.963592
 21
9.139590
 31
0.000000
  0
LINE
  8
0
 62
3
  6
CONTINUOUS
 10
1.913590
 20
9.089590
 30
0.000000
 11
1.838593
 21
9.089590
 31
0.000000
  0
LINE
  8
0
 62
3
  6
CONTINUOUS
 10
1.838593
 20
9.089590
 30
0.000000
 11
1.838593
 21
9.339590
 31
0.000000
  0
LINE
  8
0
 62
3
  6
CONTINUOUS
 10
1.838593
 20
9.339590
 30
0.000000
 11
1.713593
 21
9.339590
 31
0.000000
  0
LINE
  8
0
 62
3
  6
CONTINUOUS
 10
1.713593
 20
9.339590
 30
0.000000
 11
1.713593
 21
9.089590
 31
0.000000
  0
LINE
  8
0
 62
3
  6
CONTINUOUS
 10
1.713593
 20
9.089590
 30
0.000000
 11
1.638592
 21
9.089592
 31
0.000000
  0
LINE
  8
0
 62
3
  6
CONTINUOUS
 10
1.588593
 20
9.139589
 30
0.000000
 11
1.588592
 21
9.549342
 31
0.000000
  0
LINE
  8
0
 62
3
  6
CONTINUOUS
 10
1.662493
 20
9.862391
 30
0.000000
 11
1.817863
 21
10.173130
 31
0.000000
  0
LINE
  8
0
 62
3
  6
CONTINUOUS
 10
2.058255
 20
11.783000
 30
0.000000
 11
2.088496
 21
11.904280
 31
0.000000
  0
LINE
  8
0
 62
3
  6
CONTINUOUS
 10
2.088496
 20
11.904280
 30
0.000000
 11
1.867956
 21
11.959270
 31
0.000000
  0
LINE
  8
0
 62
3
  6
CONTINUOUS
 10
1.867956
 20
11.959270
 30
0.000000
 11
2.026302
 21
12.154360
 31
0.000000
  0
LINE
  8
0
 62
3
  6
CONTINUOUS
 10
2.026302
 20
12.154360
 30
0.000000
 11
2.251898
 21
12.027720
 31
0.000000
  0
LINE
  8
0
 62
3
  6
CONTINUOUS
 10
2.251898
 20
12.027720
 30
0.000000
 11
2.313087
 21
12.136720
 31
0.000000
  0
LINE
  8
0
 62
3
  6
CONTINUOUS
 10
2.313087
 20
12.136720
 30
0.000000
 11
2.103456
 21
12.256380
 31
0.000000
  0
LINE
  8
0
 62
3
  6
CONTINUOUS
 10
2.103456
 20
12.256380
 30
0.000000
 11
2.235235
 21
12.421190
 31
0.000000
  0
LINE
  8
0
 62
3
  6
CONTINUOUS
 10
2.235235
 20
12.421190
 30
0.000000
 11
2.432211
 21
12.269960
 31
0.000000
  0
LINE
  8
0
 62
3
  6
CONTINUOUS
 10
2.432211
 20
12.269960
 30
0.000000
 11
2.508334
 21
12.369110
 31
0.000000
  0
LINE
  8
0
 62
3
  6
CONTINUOUS
 10
2.508334
 20
12.369110
 30
0.000000
 11
2.312185
 21
12.520080
 31
0.000000
  0
LINE
  8
0
 62
3
  6
CONTINUOUS
 10
2.312185
 20
12.520080
 30
0.000000
 11
2.464615
 21
12.694900
 31
0.000000
  0
LINE
  8
0
 62
3
  6
CONTINUOUS
 10
2.464615
 20
12.694900
 30
0.000000
 11
2.646089
 21
12.526120
 31
0.000000
  0
LINE
  8
0
 62
3
  6
CONTINUOUS
 10
2.646089
 20
12.526120
 30
0.000000
 11
2.731215
 21
12.617660
 31
0.000000
  0
LINE
  8
0
 62
3
  6
CONTINUOUS
 10
2.731215
 20
12.617660
 30
0.000000
 11
2.548288
 21
12.787780
 31
0.000000
  0
LINE
  8
0
 62
3
  6
CONTINUOUS
 10
2.548288
 20
12.787780
 30
0.000000
 11
2.710855
 21
12.958980
 31
0.000000
  0
LINE
  8
0
 62
3
  6
CONTINUOUS
 10
2.710855
 20
12.958980
 30
0.000000
 11
2.879846
 21
12.788620
 31
0.000000
  0
LINE
  8
0
 62
3
  6
CONTINUOUS
 10
2.879846
 20
12.788620
 30
0.000000
 11
2.968588
 21
12.876650
 31
0.000000
  0
LINE
  8
0
 62
3
  6
CONTINUOUS
 10
2.968588
 20
12.876650
 30
0.000000
 11
2.798027
 21
13.048590
 31
0.000000
  0
LINE
  8
0
 62
3
  6
CONTINUOUS
 10
2.798027
 20
13.048590
 30
0.000000
 11
2.961769
 21
13.212190
 31
0.000000
  0
LINE
  8
0
 62
3
  6
CONTINUOUS
 10
2.961769
 20
13.212190
 30
0.000000
 11
3.118311
 21
13.022030
 31
0.000000
  0
LINE
  8
0
 62
3
  6
CONTINUOUS
 10
3.118311
 20
13.022030
 30
0.000000
 11
3.214818
 21
13.101470
 31
0.000000
  0
LINE
  8
0
 62
3
  6
CONTINUOUS
 10
3.214818
 20
13.101470
 30
0.000000
 11
3.055204
 21
13.295360
 31
0.000000
  0
LINE
  8
0
 62
3
  6
CONTINUOUS
 10
3.055204
 20
13.295360
 30
0.000000
 11
3.155903
 21
13.381870
 31
0.000000
  0
LINE
  8
0
 62
3
  6
CONTINUOUS
 10
3.155903
 20
13.381870
 30
0.000000
 11
3.235090
 21
13.422770
 31
0.000000
  0
LINE
  8
0
 62
3
  6
CONTINUOUS
 10
3.235090
 20
13.422770
 30
0.000000
 11
3.353899
 21
13.218260
 31
0.000000
  0
LINE
  8
0
 62
3
  6
CONTINUOUS
 10
3.353899
 20
13.218260
 30
0.000000
 11
3.461987
 21
13.281050
 31
0.000000
  0
LINE
  8
0
 62
3
  6
CONTINUOUS
 10
3.461987
 20
13.281050
 30
0.000000
 11
3.345324
 21
13.481870
 31
0.000000
  0
LINE
  8
0
 62
3
  6
CONTINUOUS
 10
3.345324
 20
13.481870
 30
0.000000
 11
3.553114
 21
13.572060
 31
0.000000
  0
LINE
  8
0
 62
3
  6
CONTINUOUS
 10
3.553114
 20
13.572060
 30
0.000000
 11
3.646610
 21
13.338850
 31
0.000000
  0
LINE
  8
0
 62
3
  6
CONTINUOUS
 10
3.646610
 20
13.338850
 30
0.000000
 11
3.762634
 21
13.385360
 31
0.000000
  0
LINE
  8
0
 62
3
  6
CONTINUOUS
 10
3.762634
 20
13.385360
 30
0.000000
 11
3.672783
 21
13.606320
 31
0.000000
  0
LINE
  8
0
 62
3
  6
CONTINUOUS
 10
3.672783
 20
13.606320
 30
0.000000
 11
3.917377
 21
13.682720
 31
0.000000
  0
LINE
  8
0
 62
3
  6
CONTINUOUS
 10
3.917377
 20
13.682720
 30
0.000000
 11
3.999849
 21
13.444590
 31
0.000000
  0
LINE
  8
0
 62
3
  6
CONTINUOUS
 10
3.999849
 20
13.444590
 30
0.000000
 11
4.117651
 21
13.486390
 31
0.000000
  0
LINE
  8
0
 62
3
  6
CONTINUOUS
 10
4.117651
 20
13.486390
 30
0.000000
 11
4.038685
 21
13.708910
 31
0.000000
  0
LINE
  8
0
 62
3
  6
CONTINUOUS
 10
4.038685
 20
13.708910
 30
0.000000
 11
4.270603
 21
13.731760
 31
0.000000
  0
LINE
  8
0
 62
3
  6
CONTINUOUS
 10
4.270603
 20
13.731760
 30
0.000000
 11
4.325935
 21
13.476510
 31
0.000000
  0
LINE
  8
0
 62
3
  6
CONTINUOUS
 10
4.325935
 20
13.476510
 30
0.000000
 11
4.448097
 21
13.502980
 31
0.000000
  0
LINE
  8
0
 62
3
  6
CONTINUOUS
 10
4.448097
 20
13.502980
 30
0.000000
 11
4.395828
 21
13.744110
 31
0.000000
  0
LINE
  8
0
 62
3
  6
CONTINUOUS
 10
4.395828
 20
13.744110
 30
0.000000
 11
4.634853
 21
13.766000
 31
0.000000
  0
LINE
  8
0
 62
3
  6
CONTINUOUS
 10
4.634853
 20
13.766000
 30
0.000000
 11
4.656689
 21
13.512500
 31
0.000000
  0
LINE
  8
0
 62
3
  6
CONTINUOUS
 10
4.656689
 20
13.512500
 30
0.000000
 11
4.781229
 21
13.523230
 31
0.000000
  0
LINE
  8
0
 62
3
  6
CONTINUOUS
 10
4.781229
 20
13.523230
 30
0.000000
 11
4.759777
 21
13.772270
 31
0.000000
  0
LINE
  8
0
 62
3
  6
CONTINUOUS
 10
4.759777
 20
13.772270
 30
0.000000
 11
5.003498
 21
13.778810
 31
0.000000
  0
LINE
  8
0
 62
3
  6
CONTINUOUS
 10
5.003498
 20
13.778810
 30
0.000000
 11
4.993629
 21
13.541870
 31
0.000000
  0
LINE
  8
0
 62
3
  6
CONTINUOUS
 10
4.993629
 20
13.541870
 30
0.000000
 11
5.118521
 21
13.536670
 31
0.000000
  0
LINE
  8
0
 62
3
  6
CONTINUOUS
 10
5.118521
 20
13.536670
 30
0.000000
 11
5.128527
 21
13.776900
 31
0.000000
  0
LINE
  8
0
 62
3
  6
CONTINUOUS
 10
5.128527
 20
13.776900
 30
0.000000
 11
5.366266
 21
13.723330
 31
0.000000
  0
LINE
  8
0
 62
3
  6
CONTINUOUS
 10
5.366266
 20
13.723330
 30
0.000000
 11
5.353613
 21
13.458530
 31
0.000000
  0
LINE
  8
0
 62
3
  6
CONTINUOUS
 10
5.353613
 20
13.458530
 30
0.000000
 11
5.478476
 21
13.452660
 31
0.000000
  0
LINE
  8
0
 62
3
  6
CONTINUOUS
 10
5.478476
 20
13.452660
 30
0.000000
 11
5.489523
 21
13.695390
 31
0.000000
  0
LINE
  8
0
 62
3
  6
CONTINUOUS
 10
5.489523
 20
13.695390
 30
0.000000
 11
5.580503
 21
13.682890
 31
0.000000
  0
LINE
  8
0
 62
3
  6
CONTINUOUS
 10
5.580503
 20
13.682890
 30
0.000000
 11
5.706755
 21
13.646820
 31
0.000000
  0
LINE
  8
0
 62
3
  6
CONTINUOUS
 10
5.706755
 20
13.646820
 30
0.000000
 11
5.704302
 21
13.365770
 31
0.000000
  0
LINE
  8
0
 62
3
  6
CONTINUOUS
 10
5.704302
 20
13.365770
 30
0.000000
 11
5.829296
 21
13.364680
 31
0.000000
  0
LINE
  8
0
 62
3
  6
CONTINUOUS
 10
5.829296
 20
13.364680
 30
0.000000
 11
5.831503
 21
13.617240
 31
0.000000
  0
LINE
  8
0
 62
3
  6
CONTINUOUS
 10
5.831503
 20
13.617240
 30
0.000000
 11
6.068035
 21
13.320300
 31
0.000000
  0
LINE
  8
0
 62
3
  6
CONTINUOUS
 10
6.455371
 20
13.195680
 30
0.000000
 11
6.493944
 21
13.179420
 31
0.000000
  0
LINE
  8
0
 62
3
  6
CONTINUOUS
 10
6.616258
 20
12.995120
 30
0.000000
 11
6.616259
 21
12.848260
 31
0.000000
  0
LINE
  8
0
 62
3
  6
CONTINUOUS
 10
6.616259
 20
12.848260
 30
0.000000
 11
6.116259
 21
12.848260
 31
0.000000
  0
LINE
  8
0
 62
3
  6
CONTINUOUS
 10
6.116259
 20
12.848260
 30
0.000000
 11
6.116259
 21
12.723260
 31
0.000000
  0
LINE
  8
0
 62
3
  6
CONTINUOUS
 10
6.116259
 20
12.723260
 30
0.000000
 11
6.616259
 21
12.723260
 31
0.000000
  0
LINE
  8
0
 62
3
  6
CONTINUOUS
 10
6.616259
 20
12.723260
 30
0.000000
 11
6.616259
 21
12.451610
 31
0.000000
  0
LINE
  8
0
 62
3
  6
CONTINUOUS
 10
6.516256
 20
12.351610
 30
0.000000
 11
6.459238
 21
12.351620
 31
0.000000
  0
LINE
  8
0
 62
3
  6
CONTINUOUS
 10
6.421452
 20
12.359030
 30
0.000000
 11
6.349765
 21
12.446220
 31
0.000000
  0
LINE
  8
0
 62
3
  6
CONTINUOUS
 10
6.311258
 20
12.482380
 30
0.000000
 11
6.272985
 21
12.502630
 31
0.000000
  0
LINE
  8
0
 62
3
  6
CONTINUOUS
 10
6.272985
 20
12.502630
 30
0.000000
 11
6.235552
 21
12.509030
 31
0.000000
  0
LINE
  8
0
 62
3
  6
CONTINUOUS
 10
6.235552
 20
12.509030
 30
0.000000
 11
6.185812
 21
12.503110
 31
0.000000
  0
LINE
  8
0
 62
3
  6
CONTINUOUS
 10
6.185812
 20
12.503110
 30
0.000000
 11
6.036161
 21
12.477960
 31
0.000000
  0
LINE
  8
0
 62
3
  6
CONTINUOUS
 10
6.036161
 20
12.477960
 30
0.000000
 11
5.988333
 21
12.477960
 31
0.000000
  0
LINE
  8
0
 62
3
  6
CONTINUOUS
 10
5.945341
 20
12.487670
 30
0.000000
 11
5.909727
 21
12.504630
 31
0.000000
  0
LINE
  8
0
 62
3
  6
CONTINUOUS
 10
5.883757
 20
12.522500
 30
0.000000
 11
5.840421
 21
12.563770
 31
0.000000
  0
LINE
  8
0
 62
3
  6
CONTINUOUS
 10
5.821859
 20
12.587820
 30
0.000000
 11
5.748027
 21
12.721420
 31
0.000000
  0
LINE
  8
0
 62
3
  6
CONTINUOUS
 10
5.731398
 20
12.743570
 30
0.000000
 11
5.592780
 21
12.882920
 31
0.000000
  0
LINE
  8
0
 62
3
  6
CONTINUOUS
 10
5.570448
 20
12.899810
 30
0.000000
 11
5.387833
 21
13.001260
 31
0.000000
  0
LINE
  8
0
 62
3
  6
CONTINUOUS
 10
5.353073
 20
13.012890
 30
0.000000
 11
5.010612
 21
13.060620
 31
0.000000
  0
LINE
  8
0
 62
3
  6
CONTINUOUS
 10
5.010612
 20
13.060620
 30
0.000000
 11
4.728918
 21
13.027080
 31
0.000000
  0
LINE
  8
0
 62
3
  6
CONTINUOUS
 10
4.728918
 20
13.027080
 30
0.000000
 11
4.412010
 21
12.943250
 31
0.000000
  0
LINE
  8
0
 62
3
  6
CONTINUOUS
 10
4.412010
 20
12.943250
 30
0.000000
 11
3.932247
 21
12.763000
 31
0.000000
  0
LINE
  8
0
 62
3
  6
CONTINUOUS
 10
3.932247
 20
12.763000
 30
0.000000
 11
3.377657
 21
12.356400
 31
0.000000
  0
LINE
  8
0
 62
3
  6
CONTINUOUS
 10
3.377657
 20
12.356400
 30
0.000000
 11
2.879946
 21
11.858870
 31
0.000000
  0
LINE
  8
0
 62
3
  6
CONTINUOUS
 10
2.879946
 20
11.858870
 30
0.000000
 11
2.733564
 21
11.658540
 31
0.000000
  0
LINE
  8
0
 62
3
  6
CONTINUOUS
 10
2.214746
 20
11.466960
 30
0.000000
 11
1.496673
 21
11.636840
 31
0.000000
  0
LINE
  8
0
 62
3
  6
CONTINUOUS
 10
1.304381
 20
11.888850
 30
0.000000
 11
1.307405
 21
11.975510
 31
0.000000
  0
LINE
  8
0
 62
3
  6
CONTINUOUS
 10
1.307405
 20
11.975510
 30
0.000000
 11
2.058255
 21
11.783000
 31
0.000000
  0
LINE
  8
0
 62
3
  6
CONTINUOUS
 10
4.497614
 20
11.995730
 30
0.000000
 11
4.586002
 21
12.084120
 31
0.000000
  0
LINE
  8
0
 62
3
  6
CONTINUOUS
 10
4.586002
 20
12.084120
 30
0.000000
 11
4.320612
 21
12.349510
 31
0.000000
  0
LINE
  8
0
 62
3
  6
CONTINUOUS
 10
4.507774
 20
12.403760
 30
0.000000
 11
4.682775
 21
12.403760
 31
0.000000
  0
LINE
  8
0
 62
3
  6
CONTINUOUS
 10
5.032774
 20
12.053760
 30
0.000000
 11
5.032781
 21
11.853760
 31
0.000000
  0
LINE
  8
0
 62
3
  6
CONTINUOUS
 10
4.829405
 20
11.653790
 30
0.000000
 11
4.829405
 21
12.028760
 31
0.000000
  0
LINE
  8
0
 62
3
  6
CONTINUOUS
 10
4.829405
 20
12.028760
 30
0.000000
 11
4.704405
 21
12.028760
 31
0.000000
  0
LINE
  8
0
 62
3
  6
CONTINUOUS
 10
4.704405
 20
12.028760
 30
0.000000
 11
4.704405
 21
11.653760
 31
0.000000
  0
LINE
  8
0
 62
3
  6
CONTINUOUS
 10
4.704405
 20
11.653760
 30
0.000000
 11
4.507774
 21
11.653760
 31
0.000000
  0
LINE
  8
0
 62
3
  6
CONTINUOUS
 10
4.157774
 20
12.003760
 30
0.000000
 11
4.157774
 21
12.053760
 31
0.000000
  0
LINE
  8
0
 62
3
  6
CONTINUOUS
 10
4.228551
 20
12.264790
 30
0.000000
 11
4.497614
 21
11.995730
 31
0.000000
  0
LINE
  8
0
 62
3
  6
CONTINUOUS
 10
6.694023
 20
10.906560
 30
0.000000
 11
6.691093
 21
10.886860
 31
0.000000
  0
LINE
  8
0
 62
3
  6
CONTINUOUS
 10
6.691093
 20
10.886860
 30
0.000000
 11
6.686197
 21
10.864500
 31
0.000000
  0
LINE
  8
0
 62
3
  6
CONTINUOUS
 10
6.686197
 20
10.864500
 30
0.000000
 11
6.679611
 21
10.840210
 31
0.000000
  0
LINE
  8
0
 62
3
  6
CONTINUOUS
 10
6.679611
 20
10.840210
 30
0.000000
 11
6.671619
 21
10.814740
 31
0.000000
  0
LINE
  8
0
 62
3
  6
CONTINUOUS
 10
6.671619
 20
10.814740
 30
0.000000
 11
6.662504
 21
10.788820
 31
0.000000
  0
LINE
  8
0
 62
3
  6
CONTINUOUS
 10
6.662504
 20
10.788820
 30
0.000000
 11
6.652546
 21
10.763220
 31
0.000000
  0
LINE
  8
0
 62
3
  6
CONTINUOUS
 10
6.652546
 20
10.763220
 30
0.000000
 11
6.642025
 21
10.738660
 31
0.000000
  0
LINE
  8
0
 62
3
  6
CONTINUOUS
 10
6.642025
 20
10.738660
 30
0.000000
 11
6.631226
 21
10.715900
 31
0.000000
  0
LINE
  8
0
 62
3
  6
CONTINUOUS
 10
6.631226
 20
10.715900
 30
0.000000
 11
6.620426
 21
10.695670
 31
0.000000
  0
LINE
  8
0
 62
3
  6
CONTINUOUS
 10
6.620426
 20
10.695670
 30
0.000000
 11
6.609909
 21
10.678720
 31
0.000000
  0
LINE
  8
0
 62
3
  6
CONTINUOUS
 10
6.609909
 20
10.678720
 30
0.000000
 11
6.600389
 21
10.666840
 31
0.000000
  0
LINE
  8
0
 62
3
  6
CONTINUOUS
 10
6.600389
 20
10.666840
 30
0.000000
 11
6.587173
 21
10.653060
 31
0.000000
  0
LINE
  8
0
 62
3
  6
CONTINUOUS
 10
6.587173
 20
10.653060
 30
0.000000
 11
6.571367
 21
10.638140
 31
0.000000
  0
LINE
  8
0
 62
3
  6
CONTINUOUS
 10
6.571367
 20
10.638140
 30
0.000000
 11
6.554079
 21
10.622810
 31
0.000000
  0
LINE
  8
0
 62
3
  6
CONTINUOUS
 10
6.554079
 20
10.622810
 30
0.000000
 11
6.536411
 21
10.607820
 31
0.000000
  0
LINE
  8
0
 62
3
  6
CONTINUOUS
 10
6.536411
 20
10.607820
 30
0.000000
 11
6.519476
 21
10.593890
 31
0.000000
  0
LINE
  8
0
 62
3
  6
CONTINUOUS
 10
6.519476
 20
10.593890
 30
0.000000
 11
6.504377
 21
10.581770
 31
0.000000
  0
LINE
  8
0
 62
3
  6
CONTINUOUS
 10
6.504377
 20
10.581770
 30
0.000000
 11
6.492222
 21
10.572200
 31
0.000000
  0
LINE
  8
0
 62
3
  6
CONTINUOUS
 10
6.492222
 20
10.572200
 30
0.000000
 11
6.484116
 21
10.565910
 31
0.000000
  0
LINE
  8
0
 62
3
  6
CONTINUOUS
 10
6.484116
 20
10.565910
 30
0.000000
 11
6.481168
 21
10.563650
 31
0.000000
  0
LINE
  8
0
 62
3
  6
CONTINUOUS
 10
6.376244
 20
10.250600
 30
0.000000
 11
6.398598
 21
9.139589
 31
0.000000
  0
LINE
  8
0
 62
3
  6
CONTINUOUS
 10
6.458241
 20
9.089584
 30
0.000000
 11
6.588593
 21
9.089590
 31
0.000000
  0
LINE
  8
0
 62
3
  6
CONTINUOUS
 10
6.588593
 20
9.089590
 30
0.000000
 11
6.588593
 21
9.339590
 31
0.000000
  0
LINE
  8
0
 62
3
  6
CONTINUOUS
 10
6.588593
 20
9.339590
 30
0.000000
 11
6.713593
 21
9.339590
 31
0.000000
  0
LINE
  8
0
 62
3
  6
CONTINUOUS
 10
6.713593
 20
9.339590
 30
0.000000
 11
6.713593
 21
9.089590
 31
0.000000
  0
LINE
  8
0
 62
3
  6
CONTINUOUS
 10
6.713593
 20
9.089590
 30
0.000000
 11
6.803062
 21
9.089590
 31
0.000000
  0
LINE
  8
0
 62
3
  6
CONTINUOUS
 10
6.885056
 20
9.139590
 30
0.000000
 11
6.912996
 21
10.894380
 31
0.000000
  0
LINE
  8
0
 62
3
  6
CONTINUOUS
 10
7.319023
 20
10.925000
 30
0.000000
 11
7.316093
 21
10.905300
 31
0.000000
  0
LINE
  8
0
 62
3
  6
CONTINUOUS
 10
7.316093
 20
10.905300
 30
0.000000
 11
7.311197
 21
10.882940
 31
0.000000
  0
LINE
  8
0
 62
3
  6
CONTINUOUS
 10
7.311197
 20
10.882940
 30
0.000000
 11
7.304611
 21
10.858650
 31
0.000000
  0
LINE
  8
0
 62
3
  6
CONTINUOUS
 10
7.304611
 20
10.858650
 30
0.000000
 11
7.296619
 21
10.833180
 31
0.000000
  0
LINE
  8
0
 62
3
  6
CONTINUOUS
 10
7.296619
 20
10.833180
 30
0.000000
 11
7.287504
 21
10.807270
 31
0.000000
  0
LINE
  8
0
 62
3
  6
CONTINUOUS
 10
7.287504
 20
10.807270
 30
0.000000
 11
7.277546
 21
10.781660
 31
0.000000
  0
LINE
  8
0
 62
3
  6
CONTINUOUS
 10
7.277546
 20
10.781660
 30
0.000000
 11
7.267025
 21
10.757110
 31
0.000000
  0
LINE
  8
0
 62
3
  6
CONTINUOUS
 10
7.267025
 20
10.757110
 30
0.000000
 11
7.256226
 21
10.734340
 31
0.000000
  0
LINE
  8
0
 62
3
  6
CONTINUOUS
 10
7.256226
 20
10.734340
 30
0.000000
 11
7.245426
 21
10.714120
 31
0.000000
  0
LINE
  8
0
 62
3
  6
CONTINUOUS
 10
7.245426
 20
10.714120
 30
0.000000
 11
7.234909
 21
10.697160
 31
0.000000
  0
LINE
  8
0
 62
3
  6
CONTINUOUS
 10
7.234909
 20
10.697160
 30
0.000000
 11
7.225389
 21
10.685280
 31
0.000000
  0
LINE
  8
0
 62
3
  6
CONTINUOUS
 10
7.225389
 20
10.685280
 30
0.000000
 11
7.212173
 21
10.671510
 31
0.000000
  0
LINE
  8
0
 62
3
  6
CONTINUOUS
 10
7.212173
 20
10.671510
 30
0.000000
 11
7.196367
 21
10.656590
 31
0.000000
  0
LINE
  8
0
 62
3
  6
CONTINUOUS
 10
7.196367
 20
10.656590
 30
0.000000
 11
7.179079
 21
10.641260
 31
0.000000
  0
LINE
  8
0
 62
3
  6
CONTINUOUS
 10
7.179079
 20
10.641260
 30
0.000000
 11
7.161411
 21
10.626260
 31
0.000000
  0
LINE
  8
0
 62
3
  6
CONTINUOUS
 10
7.161411
 20
10.626260
 30
0.000000
 11
7.144476
 21
10.612330
 31
0.000000
  0
LINE
  8
0
 62
3
  6
CONTINUOUS
 10
7.144476
 20
10.612330
 30
0.000000
 11
7.129377
 21
10.600210
 31
0.000000
  0
LINE
  8
0
 62
3
  6
CONTINUOUS
 10
7.129377
 20
10.600210
 30
0.000000
 11
7.117222
 21
10.590640
 31
0.000000
  0
LINE
  8
0
 62
3
  6
CONTINUOUS
 10
7.117222
 20
10.590640
 30
0.000000
 11
7.109116
 21
10.584350
 31
0.000000
  0
LINE
  8
0
 62
3
  6
CONTINUOUS
 10
7.109116
 20
10.584350
 30
0.000000
 11
7.106169
 21
10.582090
 31
0.000000
  0
LINE
  8
0
 62
3
  6
CONTINUOUS
 10
7.001247
 20
10.269040
 30
0.000000
 11
7.023598
 21
9.158033
 31
0.000000
  0
LINE
  8
0
 62
3
  6
CONTINUOUS
 10
7.083242
 20
9.108028
 30
0.000000
 11
7.213593
 21
9.108034
 31
0.000000
  0
LINE
  8
0
 62
3
  6
CONTINUOUS
 10
7.213593
 20
9.108034
 30
0.000000
 11
7.213593
 21
9.358034
 31
0.000000
  0
LINE
  8
0
 62
3
  6
CONTINUOUS
 10
7.213593
 20
9.358034
 30
0.000000
 11
7.338593
 21
9.358034
 31
0.000000
  0
LINE
  8
0
 62
3
  6
CONTINUOUS
 10
7.338593
 20
9.358034
 30
0.000000
 11
7.338593
 21
9.108034
 31
0.000000
  0
LINE
  8
0
 62
3
  6
CONTINUOUS
 10
7.338593
 20
9.108034
 30
0.000000
 11
7.428062
 21
9.108034
 31
0.000000
  0
LINE
  8
0
 62
3
  6
CONTINUOUS
 10
7.510063
 20
9.158033
 30
0.000000
 11
7.537996
 21
10.912820
 31
0.000000
  0
LINE
  8
0
 62
3
  6
CONTINUOUS
 10
8.267105
 20
11.119180
 30
0.000000
 11
8.222017
 21
9.152033
 31
0.000000
  0
LINE
  8
0
 62
3
  6
CONTINUOUS
 10
8.152472
 20
9.100536
 30
0.000000
 11
8.014767
 21
9.100536
 31
0.000000
  0
LINE
  8
0
 62
3
  6
CONTINUOUS
 10
8.014767
 20
9.100536
 30
0.000000
 11
8.014767
 21
9.358034
 31
0.000000
  0
LINE
  8
0
 62
3
  6
CONTINUOUS
 10
8.014767
 20
9.358034
 30
0.000000
 11
7.889767
 21
9.358034
 31
0.000000
  0
LINE
  8
0
 62
3
  6
CONTINUOUS
 10
7.889767
 20
9.358034
 30
0.000000
 11
7.889767
 21
9.100536
 31
0.000000
  0
LINE
  8
0
 62
3
  6
CONTINUOUS
 10
7.889767
 20
9.100536
 30
0.000000
 11
7.740705
 21
9.100539
 31
0.000000
  0
LINE
  8
0
 62
3
  6
CONTINUOUS
 10
7.671156
 20
9.152033
 30
0.000000
 11
7.639043
 21
10.441030
 31
0.000000
  0
LINE
  8
0
 62
3
  6
CONTINUOUS
 10
9.036863
 20
11.119180
 30
0.000000
 11
8.991775
 21
9.152032
 31
0.000000
  0
LINE
  8
0
 62
3
  6
CONTINUOUS
 10
8.922230
 20
9.100536
 30
0.000000
 11
8.784525
 21
9.100536
 31
0.000000
  0
LINE
  8
0
 62
3
  6
CONTINUOUS
 10
8.784525
 20
9.100536
 30
0.000000
 11
8.784525
 21
9.358034
 31
0.000000
  0
LINE
  8
0
 62
3
  6
CONTINUOUS
 10
8.784525
 20
9.358034
 30
0.000000
 11
8.659525
 21
9.358034
 31
0.000000
  0
LINE
  8
0
 62
3
  6
CONTINUOUS
 10
8.659525
 20
9.358034
 30
0.000000
 11
8.659525
 21
9.100536
 31
0.000000
  0
LINE
  8
0
 62
3
  6
CONTINUOUS
 10
8.659525
 20
9.100536
 30
0.000000
 11
8.510462
 21
9.100540
 31
0.000000
  0
LINE
  8
0
 62
3
  6
CONTINUOUS
 10
8.440914
 20
9.152033
 30
0.000000
 11
8.408804
 21
10.441030
 31
0.000000
  0
LINE
  8
0
 62
3
  6
CONTINUOUS
 10
9.234175
 20
11.653760
 30
0.000000
 11
9.037546
 21
11.653760
 31
0.000000
  0
LINE
  8
0
 62
3
  6
CONTINUOUS
 10
9.037546
 20
11.653760
 30
0.000000
 11
9.037546
 21
12.028760
 31
0.000000
  0
LINE
  8
0
 62
3
  6
CONTINUOUS
 10
9.037546
 20
12.028760
 30
0.000000
 11
8.912546
 21
12.028760
 31
0.000000
  0
LINE
  8
0
 62
3
  6
CONTINUOUS
 10
8.912546
 20
12.028760
 30
0.000000
 11
8.912546
 21
11.653790
 31
0.000000
  0
LINE
  8
0
 62
3
  6
CONTINUOUS
 10
8.709175
 20
11.853760
 30
0.000000
 11
8.709177
 21
12.053760
 31
0.000000
  0
LINE
  8
0
 62
3
  6
CONTINUOUS
 10
9.059175
 20
12.403760
 30
0.000000
 11
9.234177
 21
12.403760
 31
0.000000
  0
LINE
  8
0
 62
3
  6
CONTINUOUS
 10
9.421339
 20
12.349510
 30
0.000000
 11
9.155949
 21
12.084120
 31
0.000000
  0
LINE
  8
0
 62
3
  6
CONTINUOUS
 10
9.155949
 20
12.084120
 30
0.000000
 11
9.244337
 21
11.995730
 31
0.000000
  0
LINE
  8
0
 62
3
  6
CONTINUOUS
 10
9.244337
 20
11.995730
 30
0.000000
 11
9.513399
 21
12.264790
 31
0.000000
  0
LINE
  8
0
 62
3
  6
CONTINUOUS
 10
9.584175
 20
12.053760
 30
0.000000
 11
9.584177
 21
12.003760
 31
0.000000
  0
LINE
  8
0
 62
3
  6
CONTINUOUS
 10
9.213729
 20
10.464690
 30
0.000000
 11
9.217764
 21
9.152033
 31
0.000000
  0
LINE
  8
0
 62
3
  6
CONTINUOUS
 10
9.271621
 20
9.100532
 30
0.000000
 11
9.447660
 21
9.100536
 31
0.000000
  0
LINE
  8
0
 62
3
  6
CONTINUOUS
 10
9.447660
 20
9.100536
 30
0.000000
 11
9.447660
 21
9.358034
 31
0.000000
  0
LINE
  8
0
 62
3
  6
CONTINUOUS
 10
9.447660
 20
9.358034
 30
0.000000
 11
9.572660
 21
9.358034
 31
0.000000
  0
LINE
  8
0
 62
3
  6
CONTINUOUS
 10
9.572660
 20
9.358034
 30
0.000000
 11
9.572660
 21
9.100536
 31
0.000000
  0
LINE
  8
0
 62
3
  6
CONTINUOUS
 10
9.572660
 20
9.100536
 30
0.000000
 11
9.742043
 21
9.100536
 31
0.000000
  0
LINE
  8
0
 62
3
  6
CONTINUOUS
 10
9.811590
 20
9.152033
 30
0.000000
 11
9.880970
 21
11.187770
 31
0.000000
  0
LINE
  8
0
 62
3
  6
CONTINUOUS
 10
9.963727
 20
10.464690
 30
0.000000
 11
9.967764
 21
9.152033
 31
0.000000
  0
LINE
  8
0
 62
3
  6
CONTINUOUS
 10
10.021620
 20
9.100534
 30
0.000000
 11
10.197660
 21
9.100536
 31
0.000000
  0
LINE
  8
0
 62
3
  6
CONTINUOUS
 10
10.197660
 20
9.100536
 30
0.000000
 11
10.197660
 21
9.358034
 31
0.000000
  0
LINE
  8
0
 62
3
  6
CONTINUOUS
 10
10.197660
 20
9.358034
 30
0.000000
 11
10.322660
 21
9.358034
 31
0.000000
  0
LINE
  8
0
 62
3
  6
CONTINUOUS
 10
10.322660
 20
9.358034
 30
0.000000
 11
10.322660
 21
9.100536
 31
0.000000
  0
LINE
  8
0
 62
3
  6
CONTINUOUS
 10
10.322660
 20
9.100536
 30
0.000000
 11
10.492040
 21
9.100536
 31
0.000000
  0
LINE
  8
0
 62
3
  6
CONTINUOUS
 10
10.561590
 20
9.152032
 30
0.000000
 11
10.630970
 21
11.187770
 31
0.000000
  0
LINE
  8
0
 62
3
  6
CONTINUOUS
 10
12.531450
 20
10.002750
 30
0.000000
 11
13.079730
 21
10.002750
 31
0.000000
  0
LINE
  8
0
 62
3
  6
CONTINUOUS
 10
13.237630
 20
9.925497
 30
0.000000
 11
13.350530
 21
9.780268
 31
0.000000
  0
LINE
  8
0
 62
3
  6
CONTINUOUS
 10
13.508430
 20
9.703019
 30
0.000000
 11
15.125900
 21
9.703017
 31
0.000000
  0
LINE
  8
0
 62
3
  6
CONTINUOUS
 10
15.283800
 20
9.780268
 30
0.000000
 11
15.396700
 21
9.925500
 31
0.000000
  0
LINE
  8
0
 62
3
  6
CONTINUOUS
 10
15.554600
 20
10.002750
 30
0.000000
 11
16.102890
 21
10.002750
 31
0.000000
  0
LINE
  8
0
 62
3
  6
CONTINUOUS
 10
16.202890
 20
9.902749
 30
0.000000
 11
16.202890
 21
9.687821
 31
0.000000
  0
LINE
  8
0
 62
3
  6
CONTINUOUS
 10
16.128710
 20
9.591212
 30
0.000000
 11
16.110250
 21
9.586281
 31
0.000000
  0
LINE
  8
0
 62
3
  6
CONTINUOUS
 10
16.061630
 20
9.547938
 30
0.000000
 11
15.921190
 21
9.101363
 31
0.000000
  0
LINE
  8
0
 62
3
  6
CONTINUOUS
 10
15.934550
 20
9.054261
 30
0.000000
 11
15.936230
 21
9.052590
 31
0.000000
  0
LINE
  8
0
 62
3
  6
CONTINUOUS
 10
15.953960
 20
8.861178
 30
0.000000
 11
15.734130
 21
8.701121
 31
0.000000
  0
LINE
  8
0
 62
3
  6
CONTINUOUS
 10
15.476770
 20
8.885708
 30
0.000000
 11
15.526520
 21
9.147843
 31
0.000000
  0
LINE
  8
0
 62
3
  6
CONTINUOUS
 10
15.526520
 20
9.147843
 30
0.000000
 11
15.403420
 21
9.169549
 31
0.000000
  0
LINE
  8
0
 62
3
  6
CONTINUOUS
 10
15.403420
 20
9.169549
 30
0.000000
 11
15.359260
 21
8.939162
 31
0.000000
  0
LINE
  8
0
 62
3
  6
CONTINUOUS
 10
14.388990
 20
9.201817
 30
0.000000
 11
14.388990
 21
9.486084
 31
0.000000
  0
LINE
  8
0
 62
3
  6
CONTINUOUS
 10
14.388990
 20
9.486084
 30
0.000000
 11
14.263990
 21
9.486084
 31
0.000000
  0
LINE
  8
0
 62
3
  6
CONTINUOUS
 10
14.263990
 20
9.486084
 30
0.000000
 11
14.263990
 21
9.202351
 31
0.000000
  0
LINE
  8
0
 62
3
  6
CONTINUOUS
 10
13.298110
 20
8.951447
 30
0.000000
 11
13.262530
 21
9.157975
 31
0.000000
  0
LINE
  8
0
 62
3
  6
CONTINUOUS
 10
13.262530
 20
9.157975
 30
0.000000
 11
13.139430
 21
9.136269
 31
0.000000
  0
LINE
  8
0
 62
3
  6
CONTINUOUS
 10
13.139430
 20
9.136269
 30
0.000000
 11
13.180340
 21
8.899505
 31
0.000000
  0
LINE
  8
0
 62
3
  6
CONTINUOUS
 10
12.900200
 20
8.701123
 30
0.000000
 11
12.680380
 21
8.861176
 31
0.000000
  0
LINE
  8
0
 62
3
  6
CONTINUOUS
 10
12.698110
 20
9.052594
 30
0.000000
 11
12.699790
 21
9.054261
 31
0.000000
  0
LINE
  8
0
 62
3
  6
CONTINUOUS
 10
12.713140
 20
9.101365
 30
0.000000
 11
12.572710
 21
9.547938
 31
0.000000
  0
LINE
  8
0
 62
3
  6
CONTINUOUS
 10
12.524090
 20
9.586277
 30
0.000000
 11
12.505630
 21
9.591212
 31
0.000000
  0
LINE
  8
0
 62
3
  6
CONTINUOUS
 10
12.431450
 20
9.687821
 30
0.000000
 11
12.431450
 21
9.902749
 31
0.000000
  0
LINE
  8
0
 62
3
  6
CONTINUOUS
 10
13.331040
 20
10.649400
 30
0.000000
 11
13.331040
 21
11.649410
 31
0.000000
  0
LINE
  8
0
 62
3
  6
CONTINUOUS
 10
13.331040
 20
11.649410
 30
0.000000
 11
13.519010
 21
11.649410
 31
0.000000
  0
LINE
  8
0
 62
3
  6
CONTINUOUS
 10
13.519010
 20
11.649410
 30
0.000000
 11
13.519010
 21
11.327030
 31
0.000000
  0
LINE
  8
0
 62
3
  6
CONTINUOUS
 10
13.519010
 20
11.327030
 30
0.000000
 11
13.644010
 21
11.327030
 31
0.000000
  0
LINE
  8
0
 62
3
  6
CONTINUOUS
 10
13.644010
 20
11.327030
 30
0.000000
 11
13.644010
 21
11.649410
 31
0.000000
  0
LINE
  8
0
 62
3
  6
CONTINUOUS
 10
13.644010
 20
11.649410
 30
0.000000
 11
13.831040
 21
11.649410
 31
0.000000
  0
LINE
  8
0
 62
3
  6
CONTINUOUS
 10
13.831040
 20
11.649410
 30
0.000000
 11
13.831040
 21
10.649400
 31
0.000000
  0
LINE
  8
0
 62
3
  6
CONTINUOUS
 10
13.831040
 20
10.649400
 30
0.000000
 11
13.644010
 21
10.649400
 31
0.000000
  0
LINE
  8
0
 62
3
  6
CONTINUOUS
 10
13.644010
 20
10.649400
 30
0.000000
 11
13.644010
 21
10.940760
 31
0.000000
  0
LINE
  8
0
 62
3
  6
CONTINUOUS
 10
13.644010
 20
10.940760
 30
0.000000
 11
13.519010
 21
10.940760
 31
0.000000
  0
LINE
  8
0
 62
3
  6
CONTINUOUS
 10
13.519010
 20
10.940760
 30
0.000000
 11
13.519010
 21
10.649400
 31
0.000000
  0
LINE
  8
0
 62
3
  6
CONTINUOUS
 10
13.519010
 20
10.649400
 30
0.000000
 11
13.331040
 21
10.649400
 31
0.000000
  0
LINE
  8
0
 62
3
  6
CONTINUOUS
 10
14.456040
 20
10.649400
 30
0.000000
 11
14.269010
 21
10.649400
 31
0.000000
  0
LINE
  8
0
 62
3
  6
CONTINUOUS
 10
14.269010
 20
10.649400
 30
0.000000
 11
14.269010
 21
10.940760
 31
0.000000
  0
LINE
  8
0
 62
3
  6
CONTINUOUS
 10
14.269010
 20
10.940760
 30
0.000000
 11
14.144010
 21
10.940760
 31
0.000000
  0
LINE
  8
0
 62
3
  6
CONTINUOUS
 10
14.144010
 20
10.940760
 30
0.000000
 11
14.144010
 21
10.649400
 31
0.000000
  0
LINE
  8
0
 62
3
  6
CONTINUOUS
 10
14.144010
 20
10.649400
 30
0.000000
 11
13.956040
 21
10.649400
 31
0.000000
  0
LINE
  8
0
 62
3
  6
CONTINUOUS
 10
13.956040
 20
10.649400
 30
0.000000
 11
13.956040
 21
11.649410
 31
0.000000
  0
LINE
  8
0
 62
3
  6
CONTINUOUS
 10
13.956040
 20
11.649410
 30
0.000000
 11
14.144010
 21
11.649410
 31
0.000000
  0
LINE
  8
0
 62
3
  6
CONTINUOUS
 10
14.144010
 20
11.649410
 30
0.000000
 11
14.144010
 21
11.327030
 31
0.000000
  0
LINE
  8
0
 62
3
  6
CONTINUOUS
 10
14.144010
 20
11.327030
 30
0.000000
 11
14.269010
 21
11.327030
 31
0.000000
  0
LINE
  8
0
 62
3
  6
CONTINUOUS
 10
14.269010
 20
11.327030
 30
0.000000
 11
14.269010
 21
11.649410
 31
0.000000
  0
LINE
  8
0
 62
3
  6
CONTINUOUS
 10
14.269010
 20
11.649410
 30
0.000000
 11
14.456040
 21
11.649410
 31
0.000000
  0
LINE
  8
0
 62
3
  6
CONTINUOUS
 10
14.456040
 20
11.649410
 30
0.000000
 11
14.456040
 21
10.649400
 31
0.000000
  0
LINE
  8
0
 62
3
  6
CONTINUOUS
 10
14.581040
 20
11.649410
 30
0.000000
 11
14.769010
 21
11.649410
 31
0.000000
  0
LINE
  8
0
 62
3
  6
CONTINUOUS
 10
14.769010
 20
11.649410
 30
0.000000
 11
14.769010
 21
11.327030
 31
0.000000
  0
LINE
  8
0
 62
3
  6
CONTINUOUS
 10
14.769010
 20
11.327030
 30
0.000000
 11
14.894010
 21
11.327030
 31
0.000000
  0
LINE
  8
0
 62
3
  6
CONTINUOUS
 10
14.894010
 20
11.327030
 30
0.000000
 11
14.894010
 21
11.649410
 31
0.000000
  0
LINE
  8
0
 62
3
  6
CONTINUOUS
 10
14.894010
 20
11.649410
 30
0.000000
 11
15.081040
 21
11.649410
 31
0.000000
  0
LINE
  8
0
 62
3
  6
CONTINUOUS
 10
15.081040
 20
11.649410
 30
0.000000
 11
15.081040
 21
10.649400
 31
0.000000
  0
LINE
  8
0
 62
3
  6
CONTINUOUS
 10
15.081040
 20
10.649400
 30
0.000000
 11
14.894010
 21
10.649400
 31
0.000000
  0
LINE
  8
0
 62
3
  6
CONTINUOUS
 10
14.894010
 20
10.649400
 30
0.000000
 11
14.894010
 21
10.940760
 31
0.000000
  0
LINE
  8
0
 62
3
  6
CONTINUOUS
 10
14.894010
 20
10.940760
 30
0.000000
 11
14.769010
 21
10.940760
 31
0.000000
  0
LINE
  8
0
 62
3
  6
CONTINUOUS
 10
14.769010
 20
10.940760
 30
0.000000
 11
14.769010
 21
10.649400
 31
0.000000
  0
LINE
  8
0
 62
3
  6
CONTINUOUS
 10
14.769010
 20
10.649400
 30
0.000000
 11
14.581040
 21
10.649400
 31
0.000000
  0
LINE
  8
0
 62
3
  6
CONTINUOUS
 10
14.581040
 20
10.649400
 30
0.000000
 11
14.581040
 21
11.649410
 31
0.000000
  0
LINE
  8
0
 62
3
  6
CONTINUOUS
 10
15.206040
 20
11.649410
 30
0.000000
 11
15.394010
 21
11.649410
 31
0.000000
  0
LINE
  8
0
 62
3
  6
CONTINUOUS
 10
15.394010
 20
11.649410
 30
0.000000
 11
15.394010
 21
11.327030
 31
0.000000
  0
LINE
  8
0
 62
3
  6
CONTINUOUS
 10
15.394010
 20
11.327030
 30
0.000000
 11
15.519010
 21
11.327030
 31
0.000000
  0
LINE
  8
0
 62
3
  6
CONTINUOUS
 10
15.519010
 20
11.327030
 30
0.000000
 11
15.519010
 21
11.649410
 31
0.000000
  0
LINE
  8
0
 62
3
  6
CONTINUOUS
 10
15.519010
 20
11.649410
 30
0.000000
 11
15.706040
 21
11.649410
 31
0.000000
  0
LINE
  8
0
 62
3
  6
CONTINUOUS
 10
15.706040
 20
11.649410
 30
0.000000
 11
15.706040
 21
10.649400
 31
0.000000
  0
LINE
  8
0
 62
3
  6
CONTINUOUS
 10
15.706040
 20
10.649400
 30
0.000000
 11
15.519010
 21
10.649400
 31
0.000000
  0
LINE
  8
0
 62
3
  6
CONTINUOUS
 10
15.519010
 20
10.649400
 30
0.000000
 11
15.519010
 21
10.940760
 31
0.000000
  0
LINE
  8
0
 62
3
  6
CONTINUOUS
 10
15.519010
 20
10.940760
 30
0.000000
 11
15.394010
 21
10.940760
 31
0.000000
  0
LINE
  8
0
 62
3
  6
CONTINUOUS
 10
15.394010
 20
10.940760
 30
0.000000
 11
15.394010
 21
10.649400
 31
0.000000
  0
LINE
  8
0
 62
3
  6
CONTINUOUS
 10
15.394010
 20
10.649400
 30
0.000000
 11
15.206040
 21
10.649400
 31
0.000000
  0
LINE
  8
0
 62
3
  6
CONTINUOUS
 10
15.206040
 20
10.649400
 30
0.000000
 11
15.206040
 21
11.649410
 31
0.000000
  0
LINE
  8
0
 62
3
  6
CONTINUOUS
 10
17.174561
 20
9.938990
 30
0.000000
 11
17.722851
 21
9.938992
 31
0.000000
  0
LINE
  8
0
 62
3
  6
CONTINUOUS
 10
17.880751
 20
9.861741
 30
0.000000
 11
17.993650
 21
9.716511
 31
0.000000
  0
LINE
  8
0
 62
3
  6
CONTINUOUS
 10
18.151550
 20
9.639261
 30
0.000000
 11
18.899080
 21
9.639258
 31
0.000000
  0
LINE
  8
0
 62
3
  6
CONTINUOUS
 10
18.899080
 20
9.639258
 30
0.000000
 11
18.899080
 21
9.349083
 31
0.000000
  0
LINE
  8
0
 62
3
  6
CONTINUOUS
 10
18.899080
 20
9.349083
 30
0.000000
 11
19.024080
 21
9.349083
 31
0.000000
  0
LINE
  8
0
 62
3
  6
CONTINUOUS
 10
19.024080
 20
9.349083
 30
0.000000
 11
19.024080
 21
9.639258
 31
0.000000
  0
LINE
  8
0
 62
3
  6
CONTINUOUS
 10
19.024080
 20
9.639258
 30
0.000000
 11
19.769011
 21
9.639258
 31
0.000000
  0
LINE
  8
0
 62
3
  6
CONTINUOUS
 10
19.926920
 20
9.716509
 30
0.000000
 11
20.039820
 21
9.861738
 31
0.000000
  0
LINE
  8
0
 62
3
  6
CONTINUOUS
 10
20.197710
 20
9.938992
 30
0.000000
 11
20.746000
 21
9.938993
 31
0.000000
  0
LINE
  8
0
 62
3
  6
CONTINUOUS
 10
20.846001
 20
9.838994
 30
0.000000
 11
20.846001
 21
9.624064
 31
0.000000
  0
LINE
  8
0
 62
3
  6
CONTINUOUS
 10
20.771820
 20
9.527453
 30
0.000000
 11
20.753361
 21
9.522521
 31
0.000000
  0
LINE
  8
0
 62
3
  6
CONTINUOUS
 10
20.704741
 20
9.484179
 30
0.000000
 11
20.564310
 21
9.037605
 31
0.000000
  0
LINE
  8
0
 62
3
  6
CONTINUOUS
 10
20.577660
 20
8.990506
 30
0.000000
 11
20.579340
 21
8.988835
 31
0.000000
  0
LINE
  8
0
 62
3
  6
CONTINUOUS
 10
20.597071
 20
8.797421
 30
0.000000
 11
20.377239
 21
8.637364
 31
0.000000
  0
LINE
  8
0
 62
3
  6
CONTINUOUS
 10
20.107420
 20
8.829545
 30
0.000000
 11
20.147369
 21
9.054265
 31
0.000000
  0
LINE
  8
0
 62
3
  6
CONTINUOUS
 10
20.147369
 20
9.054265
 30
0.000000
 11
20.024269
 21
9.075970
 31
0.000000
  0
LINE
  8
0
 62
3
  6
CONTINUOUS
 10
20.024269
 20
9.075970
 30
0.000000
 11
19.989771
 21
8.882169
 31
0.000000
  0
LINE
  8
0
 62
3
  6
CONTINUOUS
 10
17.948799
 20
8.891655
 30
0.000000
 11
17.913971
 21
9.094326
 31
0.000000
  0
LINE
  8
0
 62
3
  6
CONTINUOUS
 10
17.913971
 20
9.094326
 30
0.000000
 11
17.790871
 21
9.072621
 31
0.000000
  0
LINE
  8
0
 62
3
  6
CONTINUOUS
 10
17.790871
 20
9.072621
 30
0.000000
 11
17.830950
 21
8.840206
 31
0.000000
  0
LINE
  8
0
 62
3
  6
CONTINUOUS
 10
17.543320
 20
8.637364
 30
0.000000
 11
17.323490
 21
8.797421
 31
0.000000
  0
LINE
  8
0
 62
3
  6
CONTINUOUS
 10
17.341221
 20
8.988835
 30
0.000000
 11
17.342899
 21
8.990506
 31
0.000000
  0
LINE
  8
0
 62
3
  6
CONTINUOUS
 10
17.356260
 20
9.037606
 30
0.000000
 11
17.215820
 21
9.484181
 31
0.000000
  0
LINE
  8
0
 62
3
  6
CONTINUOUS
 10
17.167200
 20
9.522522
 30
0.000000
 11
17.148741
 21
9.527452
 31
0.000000
  0
LINE
  8
0
 62
3
  6
CONTINUOUS
 10
17.074560
 20
9.624062
 30
0.000000
 11
17.074560
 21
9.838994
 31
0.000000
  0
LINE
  8
0
 62
3
  6
CONTINUOUS
 10
17.843069
 20
8.773183
 30
0.000000
 11
17.876619
 21
8.569087
 31
0.000000
  0
LINE
  8
0
 62
3
  6
CONTINUOUS
 10
17.876619
 20
8.569087
 30
0.000000
 11
17.999720
 21
8.590794
 31
0.000000
  0
LINE
  8
0
 62
3
  6
CONTINUOUS
 10
17.999720
 20
8.590794
 30
0.000000
 11
17.958179
 21
8.840201
 31
0.000000
  0
LINE
  8
0
 62
3
  6
CONTINUOUS
 10
18.860460
 20
9.092698
 30
0.000000
 11
18.860460
 21
8.904091
 31
0.000000
  0
LINE
  8
0
 62
3
  6
CONTINUOUS
 10
18.860460
 20
8.904091
 30
0.000000
 11
18.554371
 21
8.904091
 31
0.000000
  0
LINE
  8
0
 62
3
  6
CONTINUOUS
 10
18.554371
 20
8.904091
 30
0.000000
 11
18.554190
 21
8.780091
 31
0.000000
  0
LINE
  8
0
 62
3
  6
CONTINUOUS
 10
18.554190
 20
8.780091
 30
0.000000
 11
18.860460
 21
8.780091
 31
0.000000
  0
LINE
  8
0
 62
3
  6
CONTINUOUS
 10
18.860460
 20
8.780091
 30
0.000000
 11
18.860460
 21
8.591856
 31
0.000000
  0
LINE
  8
0
 62
3
  6
CONTINUOUS
 10
17.642401
 20
7.910199
 30
0.000000
 11
17.328659
 21
7.910199
 31
0.000000
  0
LINE
  8
0
 62
3
  6
CONTINUOUS
 10
17.328659
 20
7.910199
 30
0.000000
 11
17.328659
 21
7.786198
 31
0.000000
  0
LINE
  8
0
 62
3
  6
CONTINUOUS
 10
17.328659
 20
7.786198
 30
0.000000
 11
17.562691
 21
7.786198
 31
0.000000
  0
LINE
  8
0
 62
3
  6
CONTINUOUS
 10
17.344370
 20
7.035008
 30
0.000000
 11
17.086060
 21
7.035008
 31
0.000000
  0
LINE
  8
0
 62
3
  6
CONTINUOUS
 10
17.086060
 20
7.035008
 30
0.000000
 11
17.086060
 21
6.911007
 31
0.000000
  0
LINE
  8
0
 62
3
  6
CONTINUOUS
 10
17.086060
 20
6.911007
 30
0.000000
 11
17.344179
 21
6.911007
 31
0.000000
  0
LINE
  8
0
 62
3
  6
CONTINUOUS
 10
17.562210
 20
6.144234
 30
0.000000
 11
17.318069
 21
6.144234
 31
0.000000
  0
LINE
  8
0
 62
3
  6
CONTINUOUS
 10
17.318069
 20
6.144234
 30
0.000000
 11
17.318069
 21
6.020234
 31
0.000000
  0
LINE
  8
0
 62
3
  6
CONTINUOUS
 10
17.318069
 20
6.020234
 30
0.000000
 11
17.649851
 21
6.020234
 31
0.000000
  0
LINE
  8
0
 62
3
  6
CONTINUOUS
 10
18.861891
 20
5.348896
 30
0.000000
 11
18.861900
 21
5.159354
 31
0.000000
  0
LINE
  8
0
 62
3
  6
CONTINUOUS
 10
18.861900
 20
5.159354
 30
0.000000
 11
18.548250
 21
5.159354
 31
0.000000
  0
LINE
  8
0
 62
3
  6
CONTINUOUS
 10
18.548250
 20
5.159354
 30
0.000000
 11
18.548250
 21
5.035351
 31
0.000000
  0
LINE
  8
0
 62
3
  6
CONTINUOUS
 10
18.548250
 20
5.035351
 30
0.000000
 11
18.859119
 21
5.035351
 31
0.000000
  0
LINE
  8
0
 62
3
  6
CONTINUOUS
 10
18.859119
 20
5.035351
 30
0.000000
 11
18.859119
 21
4.848219
 31
0.000000
  0
LINE
  8
0
 62
3
  6
CONTINUOUS
 10
19.080629
 20
4.839280
 30
0.000000
 11
19.080629
 21
5.026410
 31
0.000000
  0
LINE
  8
0
 62
3
  6
CONTINUOUS
 10
19.080629
 20
5.026410
 30
0.000000
 11
19.391500
 21
5.026410
 31
0.000000
  0
LINE
  8
0
 62
3
  6
CONTINUOUS
 10
19.391500
 20
5.026410
 30
0.000000
 11
19.391500
 21
5.150410
 31
0.000000
  0
LINE
  8
0
 62
3
  6
CONTINUOUS
 10
19.391500
 20
5.150410
 30
0.000000
 11
19.077860
 21
5.150410
 31
0.000000
  0
LINE
  8
0
 62
3
  6
CONTINUOUS
 10
19.077860
 20
5.150410
 30
0.000000
 11
19.077860
 21
5.339952
 31
0.000000
  0
LINE
  8
0
 62
3
  6
CONTINUOUS
 10
20.289900
 20
6.011290
 30
0.000000
 11
20.621679
 21
6.011288
 31
0.000000
  0
LINE
  8
0
 62
3
  6
CONTINUOUS
 10
20.621679
 20
6.011288
 30
0.000000
 11
20.621679
 21
6.135291
 31
0.000000
  0
LINE
  8
0
 62
3
  6
CONTINUOUS
 10
20.621679
 20
6.135291
 30
0.000000
 11
20.377550
 21
6.135291
 31
0.000000
  0
LINE
  8
0
 62
3
  6
CONTINUOUS
 10
20.595579
 20
6.902063
 30
0.000000
 11
20.853689
 21
6.902064
 31
0.000000
  0
LINE
  8
0
 62
3
  6
CONTINUOUS
 10
20.853689
 20
6.902064
 30
0.000000
 11
20.853689
 21
7.026064
 31
0.000000
  0
LINE
  8
0
 62
3
  6
CONTINUOUS
 10
20.853689
 20
7.026064
 30
0.000000
 11
20.595381
 21
7.026064
 31
0.000000
  0
LINE
  8
0
 62
3
  6
CONTINUOUS
 10
20.377060
 20
7.777256
 30
0.000000
 11
20.611090
 21
7.777255
 31
0.000000
  0
LINE
  8
0
 62
3
  6
CONTINUOUS
 10
20.611090
 20
7.777255
 30
0.000000
 11
20.611090
 21
7.901253
 31
0.000000
  0
LINE
  8
0
 62
3
  6
CONTINUOUS
 10
20.611090
 20
7.901253
 30
0.000000
 11
20.297350
 21
7.901253
 31
0.000000
  0
LINE
  8
0
 62
3
  6
CONTINUOUS
 10
19.079290
 20
8.582913
 30
0.000000
 11
19.079290
 21
8.771149
 31
0.000000
  0
LINE
  8
0
 62
3
  6
CONTINUOUS
 10
19.079290
 20
8.771149
 30
0.000000
 11
19.385559
 21
8.771149
 31
0.000000
  0
LINE
  8
0
 62
3
  6
CONTINUOUS
 10
19.385559
 20
8.771149
 30
0.000000
 11
19.385559
 21
8.895150
 31
0.000000
  0
LINE
  8
0
 62
3
  6
CONTINUOUS
 10
19.385559
 20
8.895150
 30
0.000000
 11
19.079290
 21
8.895150
 31
0.000000
  0
LINE
  8
0
 62
3
  6
CONTINUOUS
 10
19.079290
 20
8.895150
 30
0.000000
 11
19.079290
 21
9.083754
 31
0.000000
  0
LINE
  8
0
 62
3
  6
CONTINUOUS
 10
19.981569
 20
8.831258
 30
0.000000
 11
19.940029
 21
8.581379
 31
0.000000
  0
LINE
  8
0
 62
3
  6
CONTINUOUS
 10
19.940029
 20
8.581379
 30
0.000000
 11
20.063129
 21
8.559672
 31
0.000000
  0
LINE
  8
0
 62
3
  6
CONTINUOUS
 10
20.063129
 20
8.559672
 30
0.000000
 11
20.096689
 21
8.764241
 31
0.000000
  0
LINE
  8
0
 62
3
  6
CONTINUOUS
 10
14.373570
 20
8.594815
 30
0.000000
 11
14.373580
 21
8.780091
 31
0.000000
  0
LINE
  8
0
 62
3
  6
CONTINUOUS
 10
14.373580
 20
8.780091
 30
0.000000
 11
14.690930
 21
8.780091
 31
0.000000
  0
LINE
  8
0
 62
3
  6
CONTINUOUS
 10
14.690930
 20
8.780091
 30
0.000000
 11
14.690930
 21
8.904091
 31
0.000000
  0
LINE
  8
0
 62
3
  6
CONTINUOUS
 10
14.690930
 20
8.904091
 30
0.000000
 11
14.373750
 21
8.904091
 31
0.000000
  0
LINE
  8
0
 62
3
  6
CONTINUOUS
 10
14.373750
 20
8.904091
 30
0.000000
 11
14.373750
 21
9.094958
 31
0.000000
  0
LINE
  8
0
 62
3
  6
CONTINUOUS
 10
15.338940
 20
8.840198
 30
0.000000
 11
15.289680
 21
8.591351
 31
0.000000
  0
LINE
  8
0
 62
3
  6
CONTINUOUS
 10
15.289680
 20
8.591351
 30
0.000000
 11
15.412780
 21
8.569645
 31
0.000000
  0
LINE
  8
0
 62
3
  6
CONTINUOUS
 10
15.412780
 20
8.569645
 30
0.000000
 11
15.454050
 21
8.773182
 31
0.000000
  0
LINE
  8
0
 62
3
  6
CONTINUOUS
 10
15.123580
 20
4.933171
 30
0.000000
 11
15.123580
 21
4.470891
 31
0.000000
  0
LINE
  8
0
 62
3
  6
CONTINUOUS
 10
15.123580
 20
4.470891
 30
0.000000
 11
14.873580
 21
4.470891
 31
0.000000
  0
LINE
  8
0
 62
3
  6
CONTINUOUS
 10
14.873580
 20
4.470891
 30
0.000000
 11
14.873580
 21
4.720891
 31
0.000000
  0
LINE
  8
0
 62
3
  6
CONTINUOUS
 10
14.873580
 20
4.720891
 30
0.000000
 11
14.748580
 21
4.720891
 31
0.000000
  0
LINE
  8
0
 62
3
  6
CONTINUOUS
 10
14.748580
 20
4.720891
 30
0.000000
 11
14.748580
 21
4.470891
 31
0.000000
  0
LINE
  8
0
 62
3
  6
CONTINUOUS
 10
14.748580
 20
4.470891
 30
0.000000
 11
14.498580
 21
4.470891
 31
0.000000
  0
LINE
  8
0
 62
3
  6
CONTINUOUS
 10
14.498580
 20
4.470891
 30
0.000000
 11
14.498570
 21
4.745891
 31
0.000000
  0
LINE
  8
0
 62
3
  6
CONTINUOUS
 10
14.398570
 20
4.845890
 30
0.000000
 11
14.373580
 21
4.845891
 31
0.000000
  0
LINE
  8
0
 62
3
  6
CONTINUOUS
 10
14.373580
 20
4.845891
 30
0.000000
 11
14.373580
 21
5.035351
 31
0.000000
  0
LINE
  8
0
 62
3
  6
CONTINUOUS
 10
14.373580
 20
5.035351
 30
0.000000
 11
14.690750
 21
5.035351
 31
0.000000
  0
LINE
  8
0
 62
3
  6
CONTINUOUS
 10
14.690750
 20
5.035351
 30
0.000000
 11
14.690750
 21
5.159352
 31
0.000000
  0
LINE
  8
0
 62
3
  6
CONTINUOUS
 10
14.690750
 20
5.159352
 30
0.000000
 11
14.373580
 21
5.159352
 31
0.000000
  0
LINE
  8
0
 62
3
  6
CONTINUOUS
 10
14.373580
 20
5.159352
 30
0.000000
 11
14.373570
 21
5.346036
 31
0.000000
  0
LINE
  8
0
 62
3
  6
CONTINUOUS
 10
15.647270
 20
6.020233
 30
0.000000
 11
15.979050
 21
6.020234
 31
0.000000
  0
LINE
  8
0
 62
3
  6
CONTINUOUS
 10
15.979050
 20
6.020234
 30
0.000000
 11
15.979050
 21
6.144234
 31
0.000000
  0
LINE
  8
0
 62
3
  6
CONTINUOUS
 10
15.979050
 20
6.144234
 30
0.000000
 11
15.734910
 21
6.144234
 31
0.000000
  0
LINE
  8
0
 62
3
  6
CONTINUOUS
 10
15.952940
 20
6.911007
 30
0.000000
 11
16.211060
 21
6.911007
 31
0.000000
  0
LINE
  8
0
 62
3
  6
CONTINUOUS
 10
16.211060
 20
6.911007
 30
0.000000
 11
16.211060
 21
7.035008
 31
0.000000
  0
LINE
  8
0
 62
3
  6
CONTINUOUS
 10
16.211060
 20
7.035008
 30
0.000000
 11
15.952750
 21
7.035008
 31
0.000000
  0
LINE
  8
0
 62
3
  6
CONTINUOUS
 10
15.734430
 20
7.786198
 30
0.000000
 11
15.968460
 21
7.786198
 31
0.000000
  0
LINE
  8
0
 62
3
  6
CONTINUOUS
 10
15.968460
 20
7.786198
 30
0.000000
 11
15.968460
 21
7.910199
 31
0.000000
  0
LINE
  8
0
 62
3
  6
CONTINUOUS
 10
15.968460
 20
7.910199
 30
0.000000
 11
15.654720
 21
7.910198
 31
0.000000
  0
LINE
  8
0
 62
3
  6
CONTINUOUS
 10
13.203120
 20
8.773224
 30
0.000000
 11
13.241350
 21
8.537255
 31
0.000000
  0
LINE
  8
0
 62
3
  6
CONTINUOUS
 10
13.241350
 20
8.537255
 30
0.000000
 11
13.364450
 21
8.558960
 31
0.000000
  0
LINE
  8
0
 62
3
  6
CONTINUOUS
 10
13.364450
 20
8.558960
 30
0.000000
 11
13.318250
 21
8.840154
 31
0.000000
  0
LINE
  8
0
 62
3
  6
CONTINUOUS
 10
14.283600
 20
9.095000
 30
0.000000
 11
14.283600
 21
8.904133
 31
0.000000
  0
LINE
  8
0
 62
3
  6
CONTINUOUS
 10
14.283600
 20
8.904133
 30
0.000000
 11
13.966420
 21
8.904133
 31
0.000000
  0
LINE
  8
0
 62
3
  6
CONTINUOUS
 10
13.966420
 20
8.904133
 30
0.000000
 11
13.966420
 21
8.780131
 31
0.000000
  0
LINE
  8
0
 62
3
  6
CONTINUOUS
 10
13.966420
 20
8.780131
 30
0.000000
 11
14.283600
 21
8.780131
 31
0.000000
  0
LINE
  8
0
 62
3
  6
CONTINUOUS
 10
14.283600
 20
8.780131
 30
0.000000
 11
14.283600
 21
8.594857
 31
0.000000
  0
LINE
  8
0
 62
3
  6
CONTINUOUS
 10
13.002460
 20
7.910239
 30
0.000000
 11
12.688720
 21
7.910239
 31
0.000000
  0
LINE
  8
0
 62
3
  6
CONTINUOUS
 10
12.688720
 20
7.910239
 30
0.000000
 11
12.688720
 21
7.786240
 31
0.000000
  0
LINE
  8
0
 62
3
  6
CONTINUOUS
 10
12.688720
 20
7.786240
 30
0.000000
 11
12.922750
 21
7.786240
 31
0.000000
  0
LINE
  8
0
 62
3
  6
CONTINUOUS
 10
12.704430
 20
7.035050
 30
0.000000
 11
12.446120
 21
7.035050
 31
0.000000
  0
LINE
  8
0
 62
3
  6
CONTINUOUS
 10
12.446120
 20
7.035050
 30
0.000000
 11
12.446120
 21
6.911049
 31
0.000000
  0
LINE
  8
0
 62
3
  6
CONTINUOUS
 10
12.446120
 20
6.911049
 30
0.000000
 11
12.704230
 21
6.911047
 31
0.000000
  0
LINE
  8
0
 62
3
  6
CONTINUOUS
 10
12.922260
 20
6.144274
 30
0.000000
 11
12.678120
 21
6.144274
 31
0.000000
  0
LINE
  8
0
 62
3
  6
CONTINUOUS
 10
12.678120
 20
6.144274
 30
0.000000
 11
12.678120
 21
6.020276
 31
0.000000
  0
LINE
  8
0
 62
3
  6
CONTINUOUS
 10
12.678120
 20
6.020276
 30
0.000000
 11
13.009900
 21
6.020276
 31
0.000000
  0
LINE
  8
0
 62
3
  6
CONTINUOUS
 10
14.283600
 20
5.346077
 30
0.000000
 11
14.283600
 21
5.159394
 31
0.000000
  0
LINE
  8
0
 62
3
  6
CONTINUOUS
 10
14.283600
 20
5.159394
 30
0.000000
 11
13.966420
 21
5.159394
 31
0.000000
  0
LINE
  8
0
 62
3
  6
CONTINUOUS
 10
13.966420
 20
5.159394
 30
0.000000
 11
13.966420
 21
5.035395
 31
0.000000
  0
LINE
  8
0
 62
3
  6
CONTINUOUS
 10
13.966420
 20
5.035395
 30
0.000000
 11
14.283600
 21
5.035395
 31
0.000000
  0
LINE
  8
0
 62
3
  6
CONTINUOUS
 10
14.283600
 20
5.035395
 30
0.000000
 11
14.283600
 21
4.845932
 31
0.000000
  0
LINE
  8
0
 62
3
  6
CONTINUOUS
 10
14.283600
 20
4.845932
 30
0.000000
 11
14.258600
 21
4.845932
 31
0.000000
  0
LINE
  8
0
 62
3
  6
CONTINUOUS
 10
14.158600
 20
4.745934
 30
0.000000
 11
14.158600
 21
4.470932
 31
0.000000
  0
LINE
  8
0
 62
3
  6
CONTINUOUS
 10
14.158600
 20
4.470932
 30
0.000000
 11
13.908600
 21
4.470932
 31
0.000000
  0
LINE
  8
0
 62
3
  6
CONTINUOUS
 10
13.908600
 20
4.470932
 30
0.000000
 11
13.908600
 21
4.720932
 31
0.000000
  0
LINE
  8
0
 62
3
  6
CONTINUOUS
 10
13.908600
 20
4.720932
 30
0.000000
 11
13.783600
 21
4.720932
 31
0.000000
  0
LINE
  8
0
 62
3
  6
CONTINUOUS
 10
13.783600
 20
4.720932
 30
0.000000
 11
13.783600
 21
4.470932
 31
0.000000
  0
LINE
  8
0
 62
3
  6
CONTINUOUS
 10
13.783600
 20
4.470932
 30
0.000000
 11
13.533600
 21
4.470932
 31
0.000000
  0
LINE
  8
0
 62
3
  6
CONTINUOUS
 10
13.533600
 20
4.470932
 30
0.000000
 11
13.533600
 21
4.933213
 31
0.000000
  0
LINE
  8
0
 62
3
  6
CONTINUOUS
 10
10.630970
 20
6.652935
 30
0.000000
 11
10.561590
 21
8.688673
 31
0.000000
  0
LINE
  8
0
 62
3
  6
CONTINUOUS
 10
10.492040
 20
8.740173
 30
0.000000
 11
10.322660
 21
8.740173
 31
0.000000
  0
LINE
  8
0
 62
3
  6
CONTINUOUS
 10
10.322660
 20
8.740173
 30
0.000000
 11
10.322660
 21
8.482673
 31
0.000000
  0
LINE
  8
0
 62
3
  6
CONTINUOUS
 10
10.322660
 20
8.482673
 30
0.000000
 11
10.197660
 21
8.482673
 31
0.000000
  0
LINE
  8
0
 62
3
  6
CONTINUOUS
 10
10.197660
 20
8.482673
 30
0.000000
 11
10.197660
 21
8.740173
 31
0.000000
  0
LINE
  8
0
 62
3
  6
CONTINUOUS
 10
10.197660
 20
8.740173
 30
0.000000
 11
10.021620
 21
8.740172
 31
0.000000
  0
LINE
  8
0
 62
3
  6
CONTINUOUS
 10
9.967764
 20
8.688673
 30
0.000000
 11
9.963728
 21
7.376017
 31
0.000000
  0
LINE
  8
0
 62
3
  6
CONTINUOUS
 10
9.880970
 20
6.652935
 30
0.000000
 11
9.811590
 21
8.688674
 31
0.000000
  0
LINE
  8
0
 62
3
  6
CONTINUOUS
 10
9.742043
 20
8.740173
 30
0.000000
 11
9.572660
 21
8.740173
 31
0.000000
  0
LINE
  8
0
 62
3
  6
CONTINUOUS
 10
9.572660
 20
8.740173
 30
0.000000
 11
9.572660
 21
8.482673
 31
0.000000
  0
LINE
  8
0
 62
3
  6
CONTINUOUS
 10
9.572660
 20
8.482673
 30
0.000000
 11
9.447660
 21
8.482673
 31
0.000000
  0
LINE
  8
0
 62
3
  6
CONTINUOUS
 10
9.447660
 20
8.482673
 30
0.000000
 11
9.447660
 21
8.740173
 31
0.000000
  0
LINE
  8
0
 62
3
  6
CONTINUOUS
 10
9.447660
 20
8.740173
 30
0.000000
 11
9.271621
 21
8.740173
 31
0.000000
  0
LINE
  8
0
 62
3
  6
CONTINUOUS
 10
9.217764
 20
8.688673
 30
0.000000
 11
9.213728
 21
7.376017
 31
0.000000
  0
LINE
  8
0
 62
3
  6
CONTINUOUS
 10
8.408804
 20
7.367909
 30
0.000000
 11
8.440912
 21
8.656910
 31
0.000000
  0
LINE
  8
0
 62
3
  6
CONTINUOUS
 10
8.510464
 20
8.708410
 30
0.000000
 11
8.659525
 21
8.708410
 31
0.000000
  0
LINE
  8
0
 62
3
  6
CONTINUOUS
 10
8.659525
 20
8.708410
 30
0.000000
 11
8.659525
 21
8.450910
 31
0.000000
  0
LINE
  8
0
 62
3
  6
CONTINUOUS
 10
8.659525
 20
8.450910
 30
0.000000
 11
8.784525
 21
8.450910
 31
0.000000
  0
LINE
  8
0
 62
3
  6
CONTINUOUS
 10
8.784525
 20
8.450910
 30
0.000000
 11
8.784525
 21
8.708410
 31
0.000000
  0
LINE
  8
0
 62
3
  6
CONTINUOUS
 10
8.784525
 20
8.708410
 30
0.000000
 11
8.922230
 21
8.708405
 31
0.000000
  0
LINE
  8
0
 62
3
  6
CONTINUOUS
 10
8.991777
 20
8.656909
 30
0.000000
 11
9.036861
 21
6.689767
 31
0.000000
  0
LINE
  8
0
 62
3
  6
CONTINUOUS
 10
7.537996
 20
6.896121
 30
0.000000
 11
7.510062
 21
8.650912
 31
0.000000
  0
LINE
  8
0
 62
3
  6
CONTINUOUS
 10
7.428062
 20
8.700910
 30
0.000000
 11
7.338593
 21
8.700910
 31
0.000000
  0
LINE
  8
0
 62
3
  6
CONTINUOUS
 10
7.338593
 20
8.700910
 30
0.000000
 11
7.338593
 21
8.450910
 31
0.000000
  0
LINE
  8
0
 62
3
  6
CONTINUOUS
 10
7.338593
 20
8.450910
 30
0.000000
 11
7.213593
 21
8.450910
 31
0.000000
  0
LINE
  8
0
 62
3
  6
CONTINUOUS
 10
7.213593
 20
8.450910
 30
0.000000
 11
7.213593
 21
8.700910
 31
0.000000
  0
LINE
  8
0
 62
3
  6
CONTINUOUS
 10
7.213593
 20
8.700910
 30
0.000000
 11
7.083241
 21
8.700914
 31
0.000000
  0
LINE
  8
0
 62
3
  6
CONTINUOUS
 10
7.023598
 20
8.650911
 30
0.000000
 11
7.001245
 21
7.539899
 31
0.000000
  0
LINE
  8
0
 62
3
  6
CONTINUOUS
 10
7.106168
 20
7.226849
 30
0.000000
 11
7.109116
 21
7.224592
 31
0.000000
  0
LINE
  8
0
 62
3
  6
CONTINUOUS
 10
7.109116
 20
7.224592
 30
0.000000
 11
7.117222
 21
7.218305
 31
0.000000
  0
LINE
  8
0
 62
3
  6
CONTINUOUS
 10
7.117222
 20
7.218305
 30
0.000000
 11
7.129377
 21
7.208734
 31
0.000000
  0
LINE
  8
0
 62
3
  6
CONTINUOUS
 10
7.129377
 20
7.208734
 30
0.000000
 11
7.144476
 21
7.196613
 31
0.000000
  0
LINE
  8
0
 62
3
  6
CONTINUOUS
 10
7.144476
 20
7.196613
 30
0.000000
 11
7.161411
 21
7.182684
 31
0.000000
  0
LINE
  8
0
 62
3
  6
CONTINUOUS
 10
7.161411
 20
7.182684
 30
0.000000
 11
7.179079
 21
7.167686
 31
0.000000
  0
LINE
  8
0
 62
3
  6
CONTINUOUS
 10
7.179079
 20
7.167686
 30
0.000000
 11
7.196367
 21
7.152358
 31
0.000000
  0
LINE
  8
0
 62
3
  6
CONTINUOUS
 10
7.196367
 20
7.152358
 30
0.000000
 11
7.212173
 21
7.137436
 31
0.000000
  0
LINE
  8
0
 62
3
  6
CONTINUOUS
 10
7.212173
 20
7.137436
 30
0.000000
 11
7.225389
 21
7.123663
 31
0.000000
  0
LINE
  8
0
 62
3
  6
CONTINUOUS
 10
7.225389
 20
7.123663
 30
0.000000
 11
7.234909
 21
7.111780
 31
0.000000
  0
LINE
  8
0
 62
3
  6
CONTINUOUS
 10
7.234909
 20
7.111780
 30
0.000000
 11
7.245426
 21
7.094831
 31
0.000000
  0
LINE
  8
0
 62
3
  6
CONTINUOUS
 10
7.245426
 20
7.094831
 30
0.000000
 11
7.256226
 21
7.074602
 31
0.000000
  0
LINE
  8
0
 62
3
  6
CONTINUOUS
 10
7.256226
 20
7.074602
 30
0.000000
 11
7.267025
 21
7.051836
 31
0.000000
  0
LINE
  8
0
 62
3
  6
CONTINUOUS
 10
7.267025
 20
7.051836
 30
0.000000
 11
7.277546
 21
7.027279
 31
0.000000
  0
LINE
  8
0
 62
3
  6
CONTINUOUS
 10
7.277546
 20
7.027279
 30
0.000000
 11
7.287504
 21
7.001676
 31
0.000000
  0
LINE
  8
0
 62
3
  6
CONTINUOUS
 10
7.287504
 20
7.001676
 30
0.000000
 11
7.296619
 21
6.975765
 31
0.000000
  0
LINE
  8
0
 62
3
  6
CONTINUOUS
 10
7.296619
 20
6.975765
 30
0.000000
 11
7.304611
 21
6.950292
 31
0.000000
  0
LINE
  8
0
 62
3
  6
CONTINUOUS
 10
7.304611
 20
6.950292
 30
0.000000
 11
7.311197
 21
6.926002
 31
0.000000
  0
LINE
  8
0
 62
3
  6
CONTINUOUS
 10
7.311197
 20
6.926002
 30
0.000000
 11
7.316093
 21
6.903637
 31
0.000000
  0
LINE
  8
0
 62
3
  6
CONTINUOUS
 10
7.316093
 20
6.903637
 30
0.000000
 11
7.319023
 21
6.883943
 31
0.000000
  0
LINE
  8
0
 62
3
  6
CONTINUOUS
 10
6.912996
 20
6.914566
 30
0.000000
 11
6.885061
 21
8.669356
 31
0.000000
  0
LINE
  8
0
 62
3
  6
CONTINUOUS
 10
6.803062
 20
8.719354
 30
0.000000
 11
6.713593
 21
8.719354
 31
0.000000
  0
LINE
  8
0
 62
3
  6
CONTINUOUS
 10
6.713593
 20
8.719354
 30
0.000000
 11
6.713593
 21
8.469354
 31
0.000000
  0
LINE
  8
0
 62
3
  6
CONTINUOUS
 10
6.713593
 20
8.469354
 30
0.000000
 11
6.588593
 21
8.469354
 31
0.000000
  0
LINE
  8
0
 62
3
  6
CONTINUOUS
 10
6.588593
 20
8.469354
 30
0.000000
 11
6.588593
 21
8.719354
 31
0.000000
  0
LINE
  8
0
 62
3
  6
CONTINUOUS
 10
6.588593
 20
8.719354
 30
0.000000
 11
6.458241
 21
8.719358
 31
0.000000
  0
LINE
  8
0
 62
3
  6
CONTINUOUS
 10
6.398598
 20
8.669355
 30
0.000000
 11
6.376246
 21
7.558342
 31
0.000000
  0
LINE
  8
0
 62
3
  6
CONTINUOUS
 10
6.481169
 20
7.245294
 30
0.000000
 11
6.484116
 21
7.243036
 31
0.000000
  0
LINE
  8
0
 62
3
  6
CONTINUOUS
 10
6.484116
 20
7.243036
 30
0.000000
 11
6.492222
 21
7.236749
 31
0.000000
  0
LINE
  8
0
 62
3
  6
CONTINUOUS
 10
6.492222
 20
7.236749
 30
0.000000
 11
6.504377
 21
7.227178
 31
0.000000
  0
LINE
  8
0
 62
3
  6
CONTINUOUS
 10
6.504377
 20
7.227178
 30
0.000000
 11
6.519476
 21
7.215056
 31
0.000000
  0
LINE
  8
0
 62
3
  6
CONTINUOUS
 10
6.519476
 20
7.215056
 30
0.000000
 11
6.536411
 21
7.201128
 31
0.000000
  0
LINE
  8
0
 62
3
  6
CONTINUOUS
 10
6.536411
 20
7.201128
 30
0.000000
 11
6.554079
 21
7.186130
 31
0.000000
  0
LINE
  8
0
 62
3
  6
CONTINUOUS
 10
6.554079
 20
7.186130
 30
0.000000
 11
6.571367
 21
7.170803
 31
0.000000
  0
LINE
  8
0
 62
3
  6
CONTINUOUS
 10
6.571367
 20
7.170803
 30
0.000000
 11
6.587173
 21
7.155880
 31
0.000000
  0
LINE
  8
0
 62
3
  6
CONTINUOUS
 10
6.587173
 20
7.155880
 30
0.000000
 11
6.600389
 21
7.142107
 31
0.000000
  0
LINE
  8
0
 62
3
  6
CONTINUOUS
 10
6.600389
 20
7.142107
 30
0.000000
 11
6.609909
 21
7.130224
 31
0.000000
  0
LINE
  8
0
 62
3
  6
CONTINUOUS
 10
6.609909
 20
7.130224
 30
0.000000
 11
6.620426
 21
7.113275
 31
0.000000
  0
LINE
  8
0
 62
3
  6
CONTINUOUS
 10
6.620426
 20
7.113275
 30
0.000000
 11
6.631226
 21
7.093046
 31
0.000000
  0
LINE
  8
0
 62
3
  6
CONTINUOUS
 10
6.631226
 20
7.093046
 30
0.000000
 11
6.642025
 21
7.070281
 31
0.000000
  0
LINE
  8
0
 62
3
  6
CONTINUOUS
 10
6.642025
 20
7.070281
 30
0.000000
 11
6.652546
 21
7.045723
 31
0.000000
  0
LINE
  8
0
 62
3
  6
CONTINUOUS
 10
6.652546
 20
7.045723
 30
0.000000
 11
6.662504
 21
7.020120
 31
0.000000
  0
LINE
  8
0
 62
3
  6
CONTINUOUS
 10
6.662504
 20
7.020120
 30
0.000000
 11
6.671619
 21
6.994209
 31
0.000000
  0
LINE
  8
0
 62
3
  6
CONTINUOUS
 10
6.671619
 20
6.994209
 30
0.000000
 11
6.679611
 21
6.968736
 31
0.000000
  0
LINE
  8
0
 62
3
  6
CONTINUOUS
 10
6.679611
 20
6.968736
 30
0.000000
 11
6.686197
 21
6.944446
 31
0.000000
  0
LINE
  8
0
 62
3
  6
CONTINUOUS
 10
6.686197
 20
6.944446
 30
0.000000
 11
6.691093
 21
6.922081
 31
0.000000
  0
LINE
  8
0
 62
3
  6
CONTINUOUS
 10
6.691093
 20
6.922081
 30
0.000000
 11
6.694023
 21
6.902387
 31
0.000000
  0
LINE
  8
0
 62
3
  6
CONTINUOUS
 10
7.740707
 20
8.708410
 30
0.000000
 11
7.889767
 21
8.708410
 31
0.000000
  0
LINE
  8
0
 62
3
  6
CONTINUOUS
 10
7.889767
 20
8.708410
 30
0.000000
 11
7.889767
 21
8.450910
 31
0.000000
  0
LINE
  8
0
 62
3
  6
CONTINUOUS
 10
7.889767
 20
8.450910
 30
0.000000
 11
8.014767
 21
8.450910
 31
0.000000
  0
LINE
  8
0
 62
3
  6
CONTINUOUS
 10
8.014767
 20
8.450910
 30
0.000000
 11
8.014767
 21
8.708410
 31
0.000000
  0
LINE
  8
0
 62
3
  6
CONTINUOUS
 10
8.014767
 20
8.708410
 30
0.000000
 11
8.152472
 21
8.708406
 31
0.000000
  0
LINE
  8
0
 62
3
  6
CONTINUOUS
 10
8.222019
 20
8.656909
 30
0.000000
 11
8.267107
 21
6.689768
 31
0.000000
  0
LINE
  8
0
 62
3
  6
CONTINUOUS
 10
7.639046
 20
7.367910
 30
0.000000
 11
7.671156
 21
8.656910
 31
0.000000
  0
LINE
  8
0
 62
3
  6
CONTINUOUS
 10
7.125692
 20
12.451610
 30
0.000000
 11
7.125692
 21
12.723260
 31
0.000000
  0
LINE
  8
0
 62
3
  6
CONTINUOUS
 10
7.125692
 20
12.723260
 30
0.000000
 11
7.625692
 21
12.723260
 31
0.000000
  0
LINE
  8
0
 62
3
  6
CONTINUOUS
 10
7.625692
 20
12.723260
 30
0.000000
 11
7.625692
 21
12.848260
 31
0.000000
  0
LINE
  8
0
 62
3
  6
CONTINUOUS
 10
7.625692
 20
12.848260
 30
0.000000
 11
7.125692
 21
12.848260
 31
0.000000
  0
LINE
  8
0
 62
3
  6
CONTINUOUS
 10
7.125692
 20
12.848260
 30
0.000000
 11
7.125694
 21
12.995120
 31
0.000000
  0
LINE
  8
0
 62
3
  6
CONTINUOUS
 10
7.248007
 20
13.179420
 30
0.000000
 11
7.286579
 21
13.195680
 31
0.000000
  0
LINE
  8
0
 62
3
  6
CONTINUOUS
 10
7.673914
 20
13.320300
 30
0.000000
 11
7.910450
 21
13.617240
 31
0.000000
  0
LINE
  8
0
 62
3
  6
CONTINUOUS
 10
7.910450
 20
13.617240
 30
0.000000
 11
7.912653
 21
13.364680
 31
0.000000
  0
LINE
  8
0
 62
3
  6
CONTINUOUS
 10
7.912653
 20
13.364680
 30
0.000000
 11
8.037647
 21
13.365770
 31
0.000000
  0
LINE
  8
0
 62
3
  6
CONTINUOUS
 10
8.037647
 20
13.365770
 30
0.000000
 11
8.035196
 21
13.646820
 31
0.000000
  0
LINE
  8
0
 62
3
  6
CONTINUOUS
 10
8.035196
 20
13.646820
 30
0.000000
 11
8.161448
 21
13.682890
 31
0.000000
  0
LINE
  8
0
 62
3
  6
CONTINUOUS
 10
8.161448
 20
13.682890
 30
0.000000
 11
8.252428
 21
13.695390
 31
0.000000
  0
LINE
  8
0
 62
3
  6
CONTINUOUS
 10
8.252428
 20
13.695390
 30
0.000000
 11
8.263475
 21
13.452660
 31
0.000000
  0
LINE
  8
0
 62
3
  6
CONTINUOUS
 10
8.263475
 20
13.452660
 30
0.000000
 11
8.388336
 21
13.458530
 31
0.000000
  0
LINE
  8
0
 62
3
  6
CONTINUOUS
 10
8.388336
 20
13.458530
 30
0.000000
 11
8.375685
 21
13.723330
 31
0.000000
  0
LINE
  8
0
 62
3
  6
CONTINUOUS
 10
8.375685
 20
13.723330
 30
0.000000
 11
8.613424
 21
13.776900
 31
0.000000
  0
LINE
  8
0
 62
3
  6
CONTINUOUS
 10
8.613424
 20
13.776900
 30
0.000000
 11
8.623428
 21
13.536670
 31
0.000000
  0
LINE
  8
0
 62
3
  6
CONTINUOUS
 10
8.623428
 20
13.536670
 30
0.000000
 11
8.748320
 21
13.541870
 31
0.000000
  0
LINE
  8
0
 62
3
  6
CONTINUOUS
 10
8.748320
 20
13.541870
 30
0.000000
 11
8.738453
 21
13.778810
 31
0.000000
  0
LINE
  8
0
 62
3
  6
CONTINUOUS
 10
8.738453
 20
13.778810
 30
0.000000
 11
8.982174
 21
13.772270
 31
0.000000
  0
LINE
  8
0
 62
3
  6
CONTINUOUS
 10
8.982174
 20
13.772270
 30
0.000000
 11
8.960722
 21
13.523230
 31
0.000000
  0
LINE
  8
0
 62
3
  6
CONTINUOUS
 10
8.960722
 20
13.523230
 30
0.000000
 11
9.085262
 21
13.512500
 31
0.000000
  0
LINE
  8
0
 62
3
  6
CONTINUOUS
 10
9.085262
 20
13.512500
 30
0.000000
 11
9.107096
 21
13.766000
 31
0.000000
  0
LINE
  8
0
 62
3
  6
CONTINUOUS
 10
9.107096
 20
13.766000
 30
0.000000
 11
9.346121
 21
13.744110
 31
0.000000
  0
LINE
  8
0
 62
3
  6
CONTINUOUS
 10
9.346121
 20
13.744110
 30
0.000000
 11
9.293852
 21
13.502980
 31
0.000000
  0
LINE
  8
0
 62
3
  6
CONTINUOUS
 10
9.293852
 20
13.502980
 30
0.000000
 11
9.416018
 21
13.476510
 31
0.000000
  0
LINE
  8
0
 62
3
  6
CONTINUOUS
 10
9.416018
 20
13.476510
 30
0.000000
 11
9.471348
 21
13.731760
 31
0.000000
  0
LINE
  8
0
 62
3
  6
CONTINUOUS
 10
9.471348
 20
13.731760
 30
0.000000
 11
9.703266
 21
13.708910
 31
0.000000
  0
LINE
  8
0
 62
3
  6
CONTINUOUS
 10
9.703266
 20
13.708910
 30
0.000000
 11
9.624300
 21
13.486390
 31
0.000000
  0
LINE
  8
0
 62
3
  6
CONTINUOUS
 10
9.624300
 20
13.486390
 30
0.000000
 11
9.742102
 21
13.444590
 31
0.000000
  0
LINE
  8
0
 62
3
  6
CONTINUOUS
 10
9.742102
 20
13.444590
 30
0.000000
 11
9.824574
 21
13.682720
 31
0.000000
  0
LINE
  8
0
 62
3
  6
CONTINUOUS
 10
9.824574
 20
13.682720
 30
0.000000
 11
10.069170
 21
13.606320
 31
0.000000
  0
LINE
  8
0
 62
3
  6
CONTINUOUS
 10
10.069170
 20
13.606320
 30
0.000000
 11
9.979315
 21
13.385360
 31
0.000000
  0
LINE
  8
0
 62
3
  6
CONTINUOUS
 10
9.979315
 20
13.385360
 30
0.000000
 11
10.095340
 21
13.338850
 31
0.000000
  0
LINE
  8
0
 62
3
  6
CONTINUOUS
 10
10.095340
 20
13.338850
 30
0.000000
 11
10.188830
 21
13.572060
 31
0.000000
  0
LINE
  8
0
 62
3
  6
CONTINUOUS
 10
10.188830
 20
13.572060
 30
0.000000
 11
10.396630
 21
13.481870
 31
0.000000
  0
LINE
  8
0
 62
3
  6
CONTINUOUS
 10
10.396630
 20
13.481870
 30
0.000000
 11
10.279960
 21
13.281050
 31
0.000000
  0
LINE
  8
0
 62
3
  6
CONTINUOUS
 10
10.279960
 20
13.281050
 30
0.000000
 11
10.388050
 21
13.218260
 31
0.000000
  0
LINE
  8
0
 62
3
  6
CONTINUOUS
 10
10.388050
 20
13.218260
 30
0.000000
 11
10.506860
 21
13.422770
 31
0.000000
  0
LINE
  8
0
 62
3
  6
CONTINUOUS
 10
10.506860
 20
13.422770
 30
0.000000
 11
10.586050
 21
13.381870
 31
0.000000
  0
LINE
  8
0
 62
3
  6
CONTINUOUS
 10
10.586050
 20
13.381870
 30
0.000000
 11
10.686750
 21
13.295360
 31
0.000000
  0
LINE
  8
0
 62
3
  6
CONTINUOUS
 10
10.686750
 20
13.295360
 30
0.000000
 11
10.527130
 21
13.101470
 31
0.000000
  0
LINE
  8
0
 62
3
  6
CONTINUOUS
 10
10.527130
 20
13.101470
 30
0.000000
 11
10.623640
 21
13.022030
 31
0.000000
  0
LINE
  8
0
 62
3
  6
CONTINUOUS
 10
10.623640
 20
13.022030
 30
0.000000
 11
10.780180
 21
13.212190
 31
0.000000
  0
LINE
  8
0
 62
3
  6
CONTINUOUS
 10
10.780180
 20
13.212190
 30
0.000000
 11
10.943920
 21
13.048590
 31
0.000000
  0
LINE
  8
0
 62
3
  6
CONTINUOUS
 10
10.943920
 20
13.048590
 30
0.000000
 11
10.773360
 21
12.876650
 31
0.000000
  0
LINE
  8
0
 62
3
  6
CONTINUOUS
 10
10.773360
 20
12.876650
 30
0.000000
 11
10.862100
 21
12.788620
 31
0.000000
  0
LINE
  8
0
 62
3
  6
CONTINUOUS
 10
10.862100
 20
12.788620
 30
0.000000
 11
11.031100
 21
12.958980
 31
0.000000
  0
LINE
  8
0
 62
3
  6
CONTINUOUS
 10
11.031100
 20
12.958980
 30
0.000000
 11
11.193660
 21
12.787780
 31
0.000000
  0
LINE
  8
0
 62
3
  6
CONTINUOUS
 10
11.193660
 20
12.787780
 30
0.000000
 11
11.010740
 21
12.617660
 31
0.000000
  0
LINE
  8
0
 62
3
  6
CONTINUOUS
 10
11.010740
 20
12.617660
 30
0.000000
 11
11.095860
 21
12.526120
 31
0.000000
  0
LINE
  8
0
 62
3
  6
CONTINUOUS
 10
11.095860
 20
12.526120
 30
0.000000
 11
11.277340
 21
12.694900
 31
0.000000
  0
LINE
  8
0
 62
3
  6
CONTINUOUS
 10
11.277340
 20
12.694900
 30
0.000000
 11
11.429770
 21
12.520080
 31
0.000000
  0
LINE
  8
0
 62
3
  6
CONTINUOUS
 10
11.429770
 20
12.520080
 30
0.000000
 11
11.233620
 21
12.369110
 31
0.000000
  0
LINE
  8
0
 62
3
  6
CONTINUOUS
 10
11.233620
 20
12.369110
 30
0.000000
 11
11.309740
 21
12.269960
 31
0.000000
  0
LINE
  8
0
 62
3
  6
CONTINUOUS
 10
11.309740
 20
12.269960
 30
0.000000
 11
11.506720
 21
12.421190
 31
0.000000
  0
LINE
  8
0
 62
3
  6
CONTINUOUS
 10
11.506720
 20
12.421190
 30
0.000000
 11
11.638500
 21
12.256380
 31
0.000000
  0
LINE
  8
0
 62
3
  6
CONTINUOUS
 10
11.638500
 20
12.256380
 30
0.000000
 11
11.428870
 21
12.136720
 31
0.000000
  0
LINE
  8
0
 62
3
  6
CONTINUOUS
 10
11.428870
 20
12.136720
 30
0.000000
 11
11.490050
 21
12.027720
 31
0.000000
  0
LINE
  8
0
 62
3
  6
CONTINUOUS
 10
11.490050
 20
12.027720
 30
0.000000
 11
11.715650
 21
12.154360
 31
0.000000
  0
LINE
  8
0
 62
3
  6
CONTINUOUS
 10
11.715650
 20
12.154360
 30
0.000000
 11
11.874000
 21
11.959270
 31
0.000000
  0
LINE
  8
0
 62
3
  6
CONTINUOUS
 10
11.874000
 20
11.959270
 30
0.000000
 11
11.653460
 21
11.904280
 31
0.000000
  0
LINE
  8
0
 62
3
  6
CONTINUOUS
 10
11.653460
 20
11.904280
 30
0.000000
 11
11.683700
 21
11.783000
 31
0.000000
  0
LINE
  8
0
 62
3
  6
CONTINUOUS
 10
11.683700
 20
11.783000
 30
0.000000
 11
12.434550
 21
11.975510
 31
0.000000
  0
LINE
  8
0
 62
3
  6
CONTINUOUS
 10
12.434550
 20
11.975510
 30
0.000000
 11
12.437570
 21
11.888850
 31
0.000000
  0
LINE
  8
0
 62
3
  6
CONTINUOUS
 10
12.245280
 20
11.636840
 30
0.000000
 11
11.527210
 21
11.466960
 31
0.000000
  0
LINE
  8
0
 62
3
  6
CONTINUOUS
 10
11.008390
 20
11.658540
 30
0.000000
 11
10.862000
 21
11.858870
 31
0.000000
  0
LINE
  8
0
 62
3
  6
CONTINUOUS
 10
10.862000
 20
11.858870
 30
0.000000
 11
10.364290
 21
12.356400
 31
0.000000
  0
LINE
  8
0
 62
3
  6
CONTINUOUS
 10
10.364290
 20
12.356400
 30
0.000000
 11
9.809704
 21
12.763000
 31
0.000000
  0
LINE
  8
0
 62
3
  6
CONTINUOUS
 10
9.809704
 20
12.763000
 30
0.000000
 11
9.329941
 21
12.943250
 31
0.000000
  0
LINE
  8
0
 62
3
  6
CONTINUOUS
 10
9.329941
 20
12.943250
 30
0.000000
 11
9.013033
 21
13.027080
 31
0.000000
  0
LINE
  8
0
 62
3
  6
CONTINUOUS
 10
9.013033
 20
13.027080
 30
0.000000
 11
8.731337
 21
13.060620
 31
0.000000
  0
LINE
  8
0
 62
3
  6
CONTINUOUS
 10
8.731337
 20
13.060620
 30
0.000000
 11
8.388876
 21
13.012890
 31
0.000000
  0
LINE
  8
0
 62
3
  6
CONTINUOUS
 10
8.354117
 20
13.001260
 30
0.000000
 11
8.171503
 21
12.899810
 31
0.000000
  0
LINE
  8
0
 62
3
  6
CONTINUOUS
 10
8.149170
 20
12.882920
 30
0.000000
 11
8.010554
 21
12.743570
 31
0.000000
  0
LINE
  8
0
 62
3
  6
CONTINUOUS
 10
7.993925
 20
12.721420
 30
0.000000
 11
7.920092
 21
12.587820
 31
0.000000
  0
LINE
  8
0
 62
3
  6
CONTINUOUS
 10
7.901531
 20
12.563770
 30
0.000000
 11
7.858195
 21
12.522500
 31
0.000000
  0
LINE
  8
0
 62
3
  6
CONTINUOUS
 10
7.832224
 20
12.504630
 30
0.000000
 11
7.796609
 21
12.487670
 31
0.000000
  0
LINE
  8
0
 62
3
  6
CONTINUOUS
 10
7.753616
 20
12.477960
 30
0.000000
 11
7.705790
 21
12.477960
 31
0.000000
  0
LINE
  8
0
 62
3
  6
CONTINUOUS
 10
7.705790
 20
12.477960
 30
0.000000
 11
7.556137
 21
12.503110
 31
0.000000
  0
LINE
  8
0
 62
3
  6
CONTINUOUS
 10
7.556137
 20
12.503110
 30
0.000000
 11
7.506397
 21
12.509030
 31
0.000000
  0
LINE
  8
0
 62
3
  6
CONTINUOUS
 10
7.506397
 20
12.509030
 30
0.000000
 11
7.468966
 21
12.502630
 31
0.000000
  0
LINE
  8
0
 62
3
  6
CONTINUOUS
 10
7.468966
 20
12.502630
 30
0.000000
 11
7.430693
 21
12.482380
 31
0.000000
  0
LINE
  8
0
 62
3
  6
CONTINUOUS
 10
7.392183
 20
12.446230
 30
0.000000
 11
7.320500
 21
12.359030
 31
0.000000
  0
LINE
  8
0
 62
3
  6
CONTINUOUS
 10
7.282713
 20
12.351610
 30
0.000000
 11
7.225693
 21
12.351610
 31
0.000000
  0
LINE
  8
0
 62
3
  6
CONTINUOUS
 10
5.987969
 20
5.127681
 30
0.000000
 11
5.974904
 21
5.251997
 31
0.000000
  0
LINE
  8
0
 62
3
  6
CONTINUOUS
 10
5.974904
 20
5.251997
 30
0.000000
 11
4.446897
 21
5.091397
 31
0.000000
  0
LINE
  8
0
 62
3
  6
CONTINUOUS
 10
4.446897
 20
5.091397
 30
0.000000
 11
4.446897
 21
5.196484
 31
0.000000
  0
LINE
  8
0
 62
3
  6
CONTINUOUS
 10
4.446897
 20
5.196484
 30
0.000000
 11
4.492524
 21
5.281003
 31
0.000000
  0
LINE
  8
0
 62
3
  6
CONTINUOUS
 10
4.492524
 20
5.281003
 30
0.000000
 11
4.675033
 21
5.431261
 31
0.000000
  0
LINE
  8
0
 62
3
  6
CONTINUOUS
 10
4.675033
 20
5.431261
 30
0.000000
 11
4.939672
 21
5.600301
 31
0.000000
  0
LINE
  8
0
 62
3
  6
CONTINUOUS
 10
4.939672
 20
5.600301
 30
0.000000
 11
5.204311
 21
5.703602
 31
0.000000
  0
LINE
  8
0
 62
3
  6
CONTINUOUS
 10
5.204311
 20
5.703602
 30
0.000000
 11
5.496326
 21
5.825686
 31
0.000000
  0
LINE
  8
0
 62
3
  6
CONTINUOUS
 10
5.496326
 20
5.825686
 30
0.000000
 11
5.779216
 21
5.910206
 31
0.000000
  0
LINE
  8
0
 62
3
  6
CONTINUOUS
 10
5.779216
 20
5.910206
 30
0.000000
 11
6.062104
 21
5.966553
 31
0.000000
  0
LINE
  8
0
 62
3
  6
CONTINUOUS
 10
6.062104
 20
5.966553
 30
0.000000
 11
6.335868
 21
5.985335
 31
0.000000
  0
LINE
  8
0
 62
3
  6
CONTINUOUS
 10
6.335868
 20
5.985335
 30
0.000000
 11
6.621514
 21
5.985335
 31
0.000000
  0
LINE
  8
0
 62
3
  6
CONTINUOUS
 10
6.621514
 20
5.985335
 30
0.000000
 11
6.621514
 21
5.581518
 31
0.000000
  0
LINE
  8
0
 62
3
  6
CONTINUOUS
 10
6.621514
 20
5.581518
 30
0.000000
 11
6.746514
 21
5.581518
 31
0.000000
  0
LINE
  8
0
 62
3
  6
CONTINUOUS
 10
6.746514
 20
5.581518
 30
0.000000
 11
6.746514
 21
5.975943
 31
0.000000
  0
LINE
  8
0
 62
3
  6
CONTINUOUS
 10
6.746514
 20
5.975943
 30
0.000000
 11
6.864242
 21
5.975039
 31
0.000000
  0
LINE
  8
0
 62
3
  6
CONTINUOUS
 10
6.922344
 20
5.965946
 30
0.000000
 11
7.160586
 21
5.891517
 31
0.000000
  0
LINE
  8
0
 62
3
  6
CONTINUOUS
 10
7.247303
 20
5.859966
 30
0.000000
 11
7.618567
 21
5.705132
 31
0.000000
  0
LINE
  8
0
 62
3
  6
CONTINUOUS
 10
7.738300
 20
5.645506
 30
0.000000
 11
8.027198
 21
5.476635
 31
0.000000
  0
LINE
  8
0
 62
3
  6
CONTINUOUS
 10
8.027198
 20
5.476635
 30
0.000000
 11
8.099918
 21
5.418127
 31
0.000000
  0
LINE
  8
0
 62
3
  6
CONTINUOUS
 10
8.219383
 20
4.955007
 30
0.000000
 11
8.178475
 21
4.855022
 31
0.000000
  0
LINE
  8
0
 62
3
  6
CONTINUOUS
 10
8.178475
 20
4.855022
 30
0.000000
 11
7.745303
 21
5.105114
 31
0.000000
  0
LINE
  8
0
 62
3
  6
CONTINUOUS
 10
7.745303
 20
5.105114
 30
0.000000
 11
7.682803
 21
4.996861
 31
0.000000
  0
LINE
  8
0
 62
3
  6
CONTINUOUS
 10
7.682803
 20
4.996861
 30
0.000000
 11
8.117620
 21
4.745820
 31
0.000000
  0
LINE
  8
0
 62
3
  6
CONTINUOUS
 10
7.771123
 20
4.555719
 30
0.000000
 11
7.579617
 21
4.558575
 31
0.000000
  0
LINE
  8
0
 62
3
  6
CONTINUOUS
 10
7.484898
 20
4.567532
 30
0.000000
 11
7.159978
 21
4.624529
 31
0.000000
  0
LINE
  8
0
 62
3
  6
CONTINUOUS
 10
6.766977
 20
4.559181
 30
0.000000
 11
6.751618
 21
4.550724
 31
0.000000
  0
LINE
  8
0
 62
3
  6
CONTINUOUS
 10
6.575550
 20
4.487143
 30
0.000000
 11
6.354763
 21
4.444700
 31
0.000000
  0
LINE
  8
0
 62
3
  6
CONTINUOUS
 10
6.334561
 20
4.174332
 30
0.000000
 11
6.952377
 21
3.602830
 31
0.000000
  0
LINE
  8
0
 62
3
  6
CONTINUOUS
 10
7.010585
 20
3.565316
 30
0.000000
 11
7.317405
 21
3.436144
 31
0.000000
  0
LINE
  8
0
 62
3
  6
CONTINUOUS
 10
7.387650
 20
3.386500
 30
0.000000
 11
7.415879
 21
3.355513
 31
0.000000
  0
LINE
  8
0
 62
3
  6
CONTINUOUS
 10
7.462377
 20
3.173614
 30
0.000000
 11
7.456112
 21
3.147815
 31
0.000000
  0
LINE
  8
0
 62
3
  6
CONTINUOUS
 10
7.430552
 20
3.133497
 30
0.000000
 11
7.294043
 21
3.177399
 31
0.000000
  0
LINE
  8
0
 62
3
  6
CONTINUOUS
 10
7.294043
 20
3.177399
 30
0.000000
 11
7.157161
 21
3.233745
 31
0.000000
  0
LINE
  8
0
 62
3
  6
CONTINUOUS
 10
7.157161
 20
3.233745
 30
0.000000
 11
6.904406
 21
3.285768
 31
0.000000
  0
LINE
  8
0
 62
3
  6
CONTINUOUS
 10
6.904406
 20
3.285768
 30
0.000000
 11
6.480279
 21
3.709895
 31
0.000000
  0
LINE
  8
0
 62
3
  6
CONTINUOUS
 10
6.480279
 20
3.709895
 30
0.000000
 11
6.391890
 21
3.621507
 31
0.000000
  0
LINE
  8
0
 62
3
  6
CONTINUOUS
 10
6.391890
 20
3.621507
 30
0.000000
 11
6.718707
 21
3.294689
 31
0.000000
  0
LINE
  8
0
 62
3
  6
CONTINUOUS
 10
6.718707
 20
3.294689
 30
0.000000
 11
6.221668
 21
3.294689
 31
0.000000
  0
LINE
  8
0
 62
3
  6
CONTINUOUS
 10
6.221668
 20
3.294689
 30
0.000000
 11
6.221668
 21
3.689660
 31
0.000000
  0
LINE
  8
0
 62
3
  6
CONTINUOUS
 10
6.221668
 20
3.689660
 30
0.000000
 11
6.096668
 21
3.689660
 31
0.000000
  0
LINE
  8
0
 62
3
  6
CONTINUOUS
 10
6.096668
 20
3.689660
 30
0.000000
 11
6.096668
 21
3.303572
 31
0.000000
  0
LINE
  8
0
 62
3
  6
CONTINUOUS
 10
6.096668
 20
3.303572
 30
0.000000
 11
5.983160
 21
3.303574
 31
0.000000
  0
LINE
  8
0
 62
3
  6
CONTINUOUS
 10
5.886804
 20
3.376821
 30
0.000000
 11
5.879596
 21
3.402785
 31
0.000000
  0
LINE
  8
0
 62
3
  6
CONTINUOUS
 10
5.879596
 20
3.402785
 30
0.000000
 11
5.820099
 21
3.479320
 31
0.000000
  0
LINE
  8
0
 62
3
  6
CONTINUOUS
 10
5.815504
 20
3.595649
 30
0.000000
 11
5.977778
 21
3.842354
 31
0.000000
  0
LINE
  8
0
 62
3
  6
CONTINUOUS
 10
5.957611
 20
3.974659
 30
0.000000
 11
5.392677
 21
4.437540
 31
0.000000
  0
LINE
  8
0
 62
3
  6
CONTINUOUS
 10
5.356073
 20
4.513022
 30
0.000000
 11
5.354440
 21
4.600624
 31
0.000000
  0
LINE
  8
0
 62
3
  6
CONTINUOUS
 10
5.254455
 20
4.698756
 30
0.000000
 11
5.194372
 21
4.698756
 31
0.000000
  0
LINE
  8
0
 62
3
  6
CONTINUOUS
 10
5.141480
 20
4.702268
 30
0.000000
 11
4.675033
 21
4.764493
 31
0.000000
  0
LINE
  8
0
 62
3
  6
CONTINUOUS
 10
4.675033
 20
4.764493
 30
0.000000
 11
4.596933
 21
4.798939
 31
0.000000
  0
LINE
  8
0
 62
3
  6
CONTINUOUS
 10
4.418139
 20
4.954550
 30
0.000000
 11
4.413416
 21
4.962189
 31
0.000000
  0
LINE
  8
0
 62
3
  6
CONTINUOUS
 10
4.413416
 20
4.962189
 30
0.000000
 11
5.987969
 21
5.127681
 31
0.000000
  0
LINE
  8
0
 62
3
  6
CONTINUOUS
 10
6.676062
 20
3.294689
 30
0.000000
 11
6.682636
 21
3.290092
 31
0.000000
  0
LINE
  8
0
 62
3
  6
CONTINUOUS
 10
8.182022
 20
2.273725
 30
0.000000
 11
8.185368
 21
2.276891
 31
0.000000
  0
LINE
  8
0
 62
3
  6
CONTINUOUS
 10
9.303996
 20
2.193972
 30
0.000000
 11
9.514900
 21
2.240151
 31
0.000000
  0
LINE
  8
0
 62
3
  6
CONTINUOUS
 10
9.561320
 20
2.264342
 30
0.000000
 11
9.659143
 21
2.354595
 31
0.000000
  0
LINE
  8
0
 62
3
  6
CONTINUOUS
 10
9.726953
 20
2.381099
 30
0.000000
 11
9.905059
 21
2.381099
 31
0.000000
  0
LINE
  8
0
 62
3
  6
CONTINUOUS
 10
9.905059
 20
2.381099
 30
0.000000
 11
10.064620
 21
2.437275
 31
0.000000
  0
LINE
  8
0
 62
3
  6
CONTINUOUS
 10
10.129550
 20
2.437787
 30
0.000000
 11
10.284780
 21
2.385865
 31
0.000000
  0
LINE
  8
0
 62
3
  6
CONTINUOUS
 10
10.314050
 20
2.380730
 30
0.000000
 11
10.481910
 21
2.376618
 31
0.000000
  0
LINE
  8
0
 62
3
  6
CONTINUOUS
 10
10.535430
 20
2.359521
 30
0.000000
 11
10.659670
 21
2.275613
 31
0.000000
  0
LINE
  8
0
 62
3
  6
CONTINUOUS
 10
10.688030
 20
2.262369
 30
0.000000
 11
10.889990
 21
2.204368
 31
0.000000
  0
LINE
  8
0
 62
3
  6
CONTINUOUS
 10
10.682160
 20
2.260424
 30
0.000000
 11
11.549200
 21
3.558051
 31
0.000000
  0
LINE
  8
0
 62
3
  6
CONTINUOUS
 10
10.894210
 20
4.940730
 30
0.000000
 11
11.087070
 21
5.615730
 31
0.000000
  0
LINE
  8
0
 62
3
  6
CONTINUOUS
 10
10.990920
 20
5.743202
 30
0.000000
 11
10.670730
 21
5.743202
 31
0.000000
  0
LINE
  8
0
 62
3
  6
CONTINUOUS
 10
10.670730
 20
5.743202
 30
0.000000
 11
10.670730
 21
5.493831
 31
0.000000
  0
LINE
  8
0
 62
3
  6
CONTINUOUS
 10
10.670730
 20
5.493831
 30
0.000000
 11
10.545730
 21
5.493831
 31
0.000000
  0
LINE
  8
0
 62
3
  6
CONTINUOUS
 10
10.545730
 20
5.493831
 30
0.000000
 11
10.545730
 21
5.743202
 31
0.000000
  0
LINE
  8
0
 62
3
  6
CONTINUOUS
 10
10.545730
 20
5.743202
 30
0.000000
 11
10.165140
 21
5.743202
 31
0.000000
  0
LINE
  8
0
 62
3
  6
CONTINUOUS
 10
10.165140
 20
5.743202
 30
0.000000
 11
10.165140
 21
5.493831
 31
0.000000
  0
LINE
  8
0
 62
3
  6
CONTINUOUS
 10
10.165140
 20
5.493831
 30
0.000000
 11
10.040370
 21
5.493831
 31
0.000000
  0
LINE
  8
0
 62
3
  6
CONTINUOUS
 10
10.040370
 20
5.493831
 30
0.000000
 11
10.040370
 21
5.743202
 31
0.000000
  0
LINE
  8
0
 62
3
  6
CONTINUOUS
 10
10.040370
 20
5.743202
 30
0.000000
 11
9.659780
 21
5.743202
 31
0.000000
  0
LINE
  8
0
 62
3
  6
CONTINUOUS
 10
9.659780
 20
5.743202
 30
0.000000
 11
9.659780
 21
5.493831
 31
0.000000
  0
LINE
  8
0
 62
3
  6
CONTINUOUS
 10
9.659780
 20
5.493831
 30
0.000000
 11
9.534780
 21
5.493831
 31
0.000000
  0
LINE
  8
0
 62
3
  6
CONTINUOUS
 10
9.534780
 20
5.493831
 30
0.000000
 11
9.534780
 21
5.743202
 31
0.000000
  0
LINE
  8
0
 62
3
  6
CONTINUOUS
 10
9.534780
 20
5.743202
 30
0.000000
 11
9.214587
 21
5.743202
 31
0.000000
  0
LINE
  8
0
 62
3
  6
CONTINUOUS
 10
9.118435
 20
5.615730
 30
0.000000
 11
9.311293
 21
4.940730
 31
0.000000
  0
LINE
  8
0
 62
3
  6
CONTINUOUS
 10
9.506063
 20
4.869132
 30
0.000000
 11
9.421802
 21
5.144741
 31
0.000000
  0
LINE
  8
0
 62
3
  6
CONTINUOUS
 10
9.421802
 20
5.144741
 30
0.000000
 11
9.541340
 21
5.181287
 31
0.000000
  0
LINE
  8
0
 62
3
  6
CONTINUOUS
 10
9.541340
 20
5.181287
 30
0.000000
 11
9.637060
 21
4.868202
 31
0.000000
  0
LINE
  8
0
 62
3
  6
CONTINUOUS
 10
9.637060
 20
4.868202
 30
0.000000
 11
10.568730
 21
4.868202
 31
0.000000
  0
LINE
  8
0
 62
3
  6
CONTINUOUS
 10
10.568730
 20
4.868202
 30
0.000000
 11
10.664490
 21
5.181441
 31
0.000000
  0
LINE
  8
0
 62
3
  6
CONTINUOUS
 10
10.664490
 20
5.181441
 30
0.000000
 11
10.784030
 21
5.144894
 31
0.000000
  0
LINE
  8
0
 62
3
  6
CONTINUOUS
 10
10.784030
 20
5.144894
 30
0.000000
 11
10.699770
 21
4.869286
 31
0.000000
  0
LINE
  8
0
 62
3
  6
CONTINUOUS
 10
10.104270
 20
4.085274
 30
0.000000
 11
10.104270
 21
2.442741
 31
0.000000
  0
LINE
  8
0
 62
3
  6
CONTINUOUS
 10
10.300300
 20
2.381068
 30
0.000000
 11
10.624470
 21
4.010754
 31
0.000000
  0
LINE
  8
0
 62
3
  6
CONTINUOUS
 10
9.582302
 20
4.019681
 30
0.000000
 11
9.906125
 21
2.391708
 31
0.000000
  0
LINE
  8
0
 62
3
  6
CONTINUOUS
 10
10.511210
 20
2.377980
 30
0.000000
 11
11.117570
 21
3.841866
 31
0.000000
  0
LINE
  8
0
 62
3
  6
CONTINUOUS
 10
9.089435
 20
3.845592
 30
0.000000
 11
9.698167
 21
2.375983
 31
0.000000
  0
LINE
  8
0
 62
3
  6
CONTINUOUS
 10
8.660602
 20
3.556164
 30
0.000000
 11
9.533027
 21
2.250488
 31
0.000000
  0
LINE
  8
0
 62
3
  6
CONTINUOUS
 10
9.546083
 20
0.329981
 30
0.000000
 11
9.508026
 21
1.018205
 31
0.000000
  0
LINE
  8
0
 62
3
  6
CONTINUOUS
 10
9.508026
 20
1.018205
 30
0.000000
 11
9.632907
 21
1.023658
 31
0.000000
  0
LINE
  8
0
 62
3
  6
CONTINUOUS
 10
9.632907
 20
1.023658
 30
0.000000
 11
9.671201
 21
0.329981
 31
0.000000
  0
LINE
  8
0
 62
3
  6
CONTINUOUS
 10
9.671201
 20
0.329981
 30
0.000000
 11
10.527580
 21
0.329981
 31
0.000000
  0
LINE
  8
0
 62
3
  6
CONTINUOUS
 10
10.527580
 20
0.329981
 30
0.000000
 11
10.565870
 21
1.023658
 31
0.000000
  0
LINE
  8
0
 62
3
  6
CONTINUOUS
 10
10.565870
 20
1.023658
 30
0.000000
 11
10.690750
 21
1.018205
 31
0.000000
  0
LINE
  8
0
 62
3
  6
CONTINUOUS
 10
10.690750
 20
1.018205
 30
0.000000
 11
10.652700
 21
0.329981
 31
0.000000
  0
LINE
  8
0
 62
3
  6
CONTINUOUS
 10
10.852350
 20
0.470624
 30
0.000000
 11
10.953970
 21
2.050620
 31
0.000000
  0
LINE
  8
0
 62
3
  6
CONTINUOUS
 10
10.896600
 20
2.185968
 30
0.000000
 11
11.862140
 21
3.153425
 31
0.000000
  0
LINE
  8
0
 62
3
  6
CONTINUOUS
 10
11.888790
 20
3.246972
 30
0.000000
 11
11.852430
 21
3.401989
 31
0.000000
  0
LINE
  8
0
 62
3
  6
CONTINUOUS
 10
11.788420
 20
3.473428
 30
0.000000
 11
11.578260
 21
3.547776
 31
0.000000
  0
LINE
  8
0
 62
3
  6
CONTINUOUS
 10
11.522720
 20
3.596232
 30
0.000000
 11
11.438010
 21
3.760555
 31
0.000000
  0
LINE
  8
0
 62
3
  6
CONTINUOUS
 10
11.360490
 20
3.814090
 30
0.000000
 11
11.146050
 21
3.838610
 31
0.000000
  0
LINE
  8
0
 62
3
  6
CONTINUOUS
 10
11.083340
 20
3.870782
 30
0.000000
 11
10.954470
 21
4.012870
 31
0.000000
  0
LINE
  8
0
 62
3
  6
CONTINUOUS
 10
10.866500
 20
4.044720
 30
0.000000
 11
10.663020
 21
4.016164
 31
0.000000
  0
LINE
  8
0
 62
3
  6
CONTINUOUS
 10
10.587280
 20
4.036609
 30
0.000000
 11
10.436090
 21
4.155582
 31
0.000000
  0
LINE
  8
0
 62
3
  6
CONTINUOUS
 10
10.336570
 20
4.169626
 30
0.000000
 11
10.136500
 21
4.088227
 31
0.000000
  0
LINE
  8
0
 62
3
  6
CONTINUOUS
 10
10.061550
 20
4.088058
 30
0.000000
 11
9.872095
 21
4.164145
 31
0.000000
  0
LINE
  8
0
 62
3
  6
CONTINUOUS
 10
9.776683
 20
4.152707
 30
0.000000
 11
9.609973
 21
4.033566
 31
0.000000
  0
LINE
  8
0
 62
3
  6
CONTINUOUS
 10
9.537616
 20
4.015940
 30
0.000000
 11
9.338497
 21
4.044534
 31
0.000000
  0
LINE
  8
0
 62
3
  6
CONTINUOUS
 10
9.250286
 20
4.012813
 30
0.000000
 11
9.118208
 21
3.867517
 31
0.000000
  0
LINE
  8
0
 62
3
  6
CONTINUOUS
 10
9.046783
 20
3.834816
 30
0.000000
 11
8.877227
 21
3.830454
 31
0.000000
  0
LINE
  8
0
 62
3
  6
CONTINUOUS
 10
8.791194
 20
3.776847
 30
0.000000
 11
8.695660
 21
3.594259
 31
0.000000
  0
LINE
  8
0
 62
3
  6
CONTINUOUS
 10
8.635894
 20
3.544869
 30
0.000000
 11
8.450738
 21
3.489100
 31
0.000000
  0
LINE
  8
0
 62
3
  6
CONTINUOUS
 10
8.383394
 20
3.420704
 30
0.000000
 11
8.331986
 21
3.239948
 31
0.000000
  0
LINE
  8
0
 62
3
  6
CONTINUOUS
 10
8.357046
 20
3.142299
 30
0.000000
 11
9.302175
 21
2.185968
 31
0.000000
  0
LINE
  8
0
 62
3
  6
CONTINUOUS
 10
9.244805
 20
2.050620
 30
0.000000
 11
9.346433
 21
0.470624
 31
0.000000
  0
LINE
  8
0
 62
3
  6
CONTINUOUS
 10
7.407777
 20
0.307611
 30
0.000000
 11
7.557777
 21
0.307609
 31
0.000000
  0
LINE
  8
0
 62
3
  6
CONTINUOUS
 10
7.657775
 20
0.407609
 30
0.000000
 11
7.657777
 21
0.582611
 31
0.000000
  0
LINE
  8
0
 62
3
  6
CONTINUOUS
 10
7.757777
 20
0.682610
 30
0.000000
 11
8.307777
 21
0.682610
 31
0.000000
  0
LINE
  8
0
 62
3
  6
CONTINUOUS
 10
8.407778
 20
0.782610
 30
0.000000
 11
8.407776
 21
0.873876
 31
0.000000
  0
LINE
  8
0
 62
3
  6
CONTINUOUS
 10
8.407776
 20
0.873876
 30
0.000000
 11
8.032776
 21
0.873876
 31
0.000000
  0
LINE
  8
0
 62
3
  6
CONTINUOUS
 10
8.032776
 20
0.873876
 30
0.000000
 11
8.032776
 21
0.998876
 31
0.000000
  0
LINE
  8
0
 62
3
  6
CONTINUOUS
 10
8.032776
 20
0.998876
 30
0.000000
 11
8.407776
 21
0.998876
 31
0.000000
  0
LINE
  8
0
 62
3
  6
CONTINUOUS
 10
8.407776
 20
0.998876
 30
0.000000
 11
8.407775
 21
1.082611
 31
0.000000
  0
LINE
  8
0
 62
3
  6
CONTINUOUS
 10
8.307777
 20
1.182611
 30
0.000000
 11
7.507778
 21
1.182611
 31
0.000000
  0
LINE
  8
0
 62
3
  6
CONTINUOUS
 10
6.918817
 20
1.182611
 30
0.000000
 11
6.118817
 21
1.182611
 31
0.000000
  0
LINE
  8
0
 62
3
  6
CONTINUOUS
 10
6.018816
 20
1.082611
 30
0.000000
 11
6.018817
 21
0.998876
 31
0.000000
  0
LINE
  8
0
 62
3
  6
CONTINUOUS
 10
6.018817
 20
0.998876
 30
0.000000
 11
6.393817
 21
0.998876
 31
0.000000
  0
LINE
  8
0
 62
3
  6
CONTINUOUS
 10
6.393817
 20
0.998876
 30
0.000000
 11
6.393817
 21
0.873876
 31
0.000000
  0
LINE
  8
0
 62
3
  6
CONTINUOUS
 10
6.393817
 20
0.873876
 30
0.000000
 11
6.018817
 21
0.873876
 31
0.000000
  0
LINE
  8
0
 62
3
  6
CONTINUOUS
 10
6.018817
 20
0.873876
 30
0.000000
 11
6.018817
 21
0.782611
 31
0.000000
  0
LINE
  8
0
 62
3
  6
CONTINUOUS
 10
6.118817
 20
0.682609
 30
0.000000
 11
6.668817
 21
0.682611
 31
0.000000
  0
LINE
  8
0
 62
3
  6
CONTINUOUS
 10
6.768817
 20
0.582611
 30
0.000000
 11
6.768817
 21
0.407611
 31
0.000000
  0
LINE
  8
0
 62
3
  6
CONTINUOUS
 10
6.868817
 20
0.307610
 30
0.000000
 11
7.018817
 21
0.307611
 31
0.000000
  0
LINE
  8
0
 62
3
  6
CONTINUOUS
 10
12.765250
 20
1.813162
 30
0.000000
 11
12.765250
 21
1.938162
 31
0.000000
  0
LINE
  8
0
 62
3
  6
CONTINUOUS
 10
12.765250
 20
1.938162
 30
0.000000
 11
12.497400
 21
1.938164
 31
0.000000
  0
LINE
  8
0
 62
3
  6
CONTINUOUS
 10
14.310670
 20
3.748045
 30
0.000000
 11
14.310670
 21
3.481070
 31
0.000000
  0
LINE
  8
0
 62
3
  6
CONTINUOUS
 10
14.310670
 20
3.481070
 30
0.000000
 11
14.435670
 21
3.481070
 31
0.000000
  0
LINE
  8
0
 62
3
  6
CONTINUOUS
 10
14.435670
 20
3.481070
 30
0.000000
 11
14.435670
 21
3.747924
 31
0.000000
  0
LINE
  8
0
 62
3
  6
CONTINUOUS
 10
16.245319
 20
1.934968
 30
0.000000
 11
15.974810
 21
1.934968
 31
0.000000
  0
LINE
  8
0
 62
3
  6
CONTINUOUS
 10
15.974810
 20
1.934968
 30
0.000000
 11
15.974810
 21
1.809968
 31
0.000000
  0
LINE
  8
0
 62
3
  6
CONTINUOUS
 10
15.974810
 20
1.809968
 30
0.000000
 11
16.245211
 21
1.809967
 31
0.000000
  0
LINE
  8
0
 62
3
  6
CONTINUOUS
 10
14.431750
 20
0.000000
 30
0.000000
 11
14.431750
 21
0.265530
 31
0.000000
  0
LINE
  8
0
 62
3
  6
CONTINUOUS
 10
14.431750
 20
0.265530
 30
0.000000
 11
14.306750
 21
0.265530
 31
0.000000
  0
LINE
  8
0
 62
3
  6
CONTINUOUS
 10
14.306750
 20
0.265530
 30
0.000000
 11
14.306750
 21
0.000144
 31
0.000000
  0
LINE
  8
0
 62
3
  6
CONTINUOUS
 10
12.497300
 20
1.813163
 30
0.000000
 11
12.765250
 21
1.813162
 31
0.000000
  0
LINE
  8
0
 62
3
  6
CONTINUOUS
 10
18.804859
 20
4.292283
 30
0.000000
 11
18.804859
 21
4.024540
 31
0.000000
  0
LINE
  8
0
 62
3
  6
CONTINUOUS
 10
18.804859
 20
4.024540
 30
0.000000
 11
18.929859
 21
4.024540
 31
0.000000
  0
LINE
  8
0
 62
3
  6
CONTINUOUS
 10
18.929859
 20
4.024540
 30
0.000000
 11
18.929859
 21
4.292153
 31
0.000000
  0
LINE
  8
0
 62
3
  6
CONTINUOUS
 10
20.989241
 20
2.232068
 30
0.000000
 11
20.713551
 21
2.232068
 31
0.000000
  0
LINE
  8
0
 62
3
  6
CONTINUOUS
 10
20.713551
 20
2.232068
 30
0.000000
 11
20.713551
 21
2.107068
 31
0.000000
  0
LINE
  8
0
 62
3
  6
CONTINUOUS
 10
20.713551
 20
2.107068
 30
0.000000
 11
20.989321
 21
2.107068
 31
0.000000
  0
LINE
  8
0
 62
3
  6
CONTINUOUS
 10
18.924820
 20
0.043976
 30
0.000000
 11
18.924820
 21
0.314415
 31
0.000000
  0
LINE
  8
0
 62
3
  6
CONTINUOUS
 10
18.924820
 20
0.314415
 30
0.000000
 11
18.799820
 21
0.314415
 31
0.000000
  0
LINE
  8
0
 62
3
  6
CONTINUOUS
 10
18.799820
 20
0.314415
 30
0.000000
 11
18.799820
 21
0.044148
 31
0.000000
  0
LINE
  8
0
 62
3
  6
CONTINUOUS
 10
16.741131
 20
2.105263
 30
0.000000
 11
17.019270
 21
2.105263
 31
0.000000
  0
LINE
  8
0
 62
3
  6
CONTINUOUS
 10
17.019270
 20
2.105263
 30
0.000000
 11
17.019270
 21
2.230263
 31
0.000000
  0
LINE
  8
0
 62
3
  6
CONTINUOUS
 10
17.019270
 20
2.230263
 30
0.000000
 11
16.741110
 21
2.230263
 31
0.000000
  0
ARC
  8
0
 62
3
  6
CONTINUOUS
 10
1.074975
 20
0.808026
 30
0.000000
 40
0.069864
 50
271.271820
 51
323.882355
  0
ARC
  8
0
 62
3
  6
CONTINUOUS
 10
1.238474
 20
0.790895
 30
0.000000
 40
0.069868
 50
91.289055
 51
143.880325
  0
ARC
  8
0
 62
3
  6
CONTINUOUS
 10
1.259714
 20
0.790486
 30
0.000000
 40
0.070287
 50
34.555431
 51
88.639809
  0
ARC
  8
0
 62
3
  6
CONTINUOUS
 10
1.420986
 20
0.808450
 30
0.000000
 40
0.070290
 50
214.555710
 51
268.620911
  0
ARC
  8
0
 62
3
  6
CONTINUOUS
 10
1.492518
 20
0.655055
 30
0.000000
 40
0.083533
 50
355.279083
 51
84.332451
  0
ARC
  8
0
 62
3
  6
CONTINUOUS
 10
1.542468
 20
0.284238
 30
0.000000
 40
0.033413
 50
275.667725
 51
4.722594
  0
ARC
  8
0
 62
3
  6
CONTINUOUS
 10
0.952819
 20
0.284238
 30
0.000000
 40
0.033414
 50
175.278946
 51
264.331116
  0
ARC
  8
0
 62
3
  6
CONTINUOUS
 10
1.002767
 20
0.655055
 30
0.000000
 40
0.083533
 50
95.667831
 51
184.721039
  0
ARC
  8
0
 62
3
  6
CONTINUOUS
 10
1.870917
 20
0.289754
 30
0.000000
 40
0.040000
 50
179.999954
 51
269.999817
  0
ARC
  8
0
 62
3
  6
CONTINUOUS
 10
1.930917
 20
0.691079
 30
0.000000
 40
0.100000
 50
90.000000
 51
179.999969
  0
ARC
  8
0
 62
3
  6
CONTINUOUS
 10
2.040261
 20
0.891078
 30
0.000000
 40
0.099999
 50
270.000122
 51
317.040161
  0
ARC
  8
0
 62
3
  6
CONTINUOUS
 10
2.254123
 20
0.827260
 30
0.000000
 40
0.100002
 50
90.015709
 51
137.038681
  0
ARC
  8
0
 62
3
  6
CONTINUOUS
 10
2.286763
 20
0.827270
 30
0.000000
 40
0.100001
 50
41.469833
 51
90.014481
  0
ARC
  8
0
 62
3
  6
CONTINUOUS
 10
2.497284
 20
0.891078
 30
0.000000
 40
0.099999
 50
221.468918
 51
270.000275
  0
ARC
  8
0
 62
3
  6
CONTINUOUS
 10
2.605918
 20
0.691079
 30
0.000000
 40
0.099999
 50
359.999939
 51
90.000954
  0
ARC
  8
0
 62
3
  6
CONTINUOUS
 10
2.665917
 20
0.289754
 30
0.000000
 40
0.040000
 50
270.000000
 51
0.000256
  0
ARC
  8
0
 62
3
  6
CONTINUOUS
 10
3.054424
 20
0.248467
 30
0.000000
 40
0.039999
 50
180.000198
 51
270.000000
  0
ARC
  8
0
 62
3
  6
CONTINUOUS
 10
3.114424
 20
0.649792
 30
0.000000
 40
0.100000
 50
89.999733
 51
180.000061
  0
ARC
  8
0
 62
3
  6
CONTINUOUS
 10
3.223769
 20
0.849791
 30
0.000000
 40
0.099999
 50
269.998779
 51
317.039734
  0
ARC
  8
0
 62
3
  6
CONTINUOUS
 10
3.437630
 20
0.785973
 30
0.000000
 40
0.100002
 50
90.015297
 51
137.038513
  0
ARC
  8
0
 62
3
  6
CONTINUOUS
 10
3.470273
 20
0.785986
 30
0.000000
 40
0.099999
 50
41.469402
 51
90.016113
  0
ARC
  8
0
 62
3
  6
CONTINUOUS
 10
3.680790
 20
0.849791
 30
0.000000
 40
0.099999
 50
221.468933
 51
270.000824
  0
ARC
  8
0
 62
3
  6
CONTINUOUS
 10
3.789423
 20
0.649792
 30
0.000000
 40
0.099999
 50
359.999512
 51
89.999863
  0
ARC
  8
0
 62
3
  6
CONTINUOUS
 10
3.849424
 20
0.248467
 30
0.000000
 40
0.040000
 50
269.998627
 51
0.000021
  0
ARC
  8
0
 62
3
  6
CONTINUOUS
 10
4.407272
 20
0.911720
 30
0.000000
 40
0.099997
 50
270.000549
 51
317.039703
  0
ARC
  8
0
 62
3
  6
CONTINUOUS
 10
4.621137
 20
0.847906
 30
0.000000
 40
0.100000
 50
90.014748
 51
137.039230
  0
ARC
  8
0
 62
3
  6
CONTINUOUS
 10
4.653778
 20
0.847916
 30
0.000000
 40
0.100000
 50
41.468922
 51
90.015297
  0
ARC
  8
0
 62
3
  6
CONTINUOUS
 10
4.864298
 20
0.911724
 30
0.000000
 40
0.100002
 50
221.469818
 51
270.000275
  0
ARC
  8
0
 62
3
  6
CONTINUOUS
 10
4.972929
 20
0.711724
 30
0.000000
 40
0.099999
 50
359.999481
 51
89.998909
  0
ARC
  8
0
 62
3
  6
CONTINUOUS
 10
5.032930
 20
0.310396
 30
0.000000
 40
0.039999
 50
269.998627
 51
0.001793
  0
ARC
  8
0
 62
3
  6
CONTINUOUS
 10
4.237929
 20
0.310398
 30
0.000000
 40
0.039999
 50
180.000687
 51
270.000671
  0
ARC
  8
0
 62
3
  6
CONTINUOUS
 10
4.297929
 20
0.711722
 30
0.000000
 40
0.100000
 50
90.000267
 51
180.000168
  0
ARC
  8
0
 62
3
  6
CONTINUOUS
 10
4.110135
 20
1.536578
 30
0.000000
 40
0.330235
 50
14.819175
 51
66.367653
  0
ARC
  8
0
 62
3
  6
CONTINUOUS
 10
2.954550
 20
1.246320
 30
0.000000
 40
0.500001
 50
27.441118
 51
97.740562
  0
ARC
  8
0
 62
3
  6
CONTINUOUS
 10
4.019539
 20
1.799324
 30
0.000000
 40
0.700005
 50
207.440826
 51
241.808472
  0
ARC
  8
0
 62
3
  6
CONTINUOUS
 10
4.025867
 20
1.384355
 30
0.000000
 40
0.329999
 50
253.087387
 51
336.048767
  0
ARC
  8
0
 62
3
  6
CONTINUOUS
 10
5.397310
 20
1.712722
 30
0.000000
 40
0.075857
 50
351.920013
 51
78.515129
  0
ARC
  8
0
 62
3
  6
CONTINUOUS
 10
5.442371
 20
1.356670
 30
0.000000
 40
0.030344
 50
281.486145
 51
8.076752
  0
ARC
  8
0
 62
3
  6
CONTINUOUS
 10
4.977457
 20
1.356671
 30
0.000000
 40
0.030344
 50
171.923126
 51
258.517639
  0
ARC
  8
0
 62
3
  6
CONTINUOUS
 10
5.022520
 20
1.712723
 30
0.000000
 40
0.075858
 50
101.484413
 51
188.080475
  0
ARC
  8
0
 62
3
  6
CONTINUOUS
 10
5.070181
 20
1.840807
 30
0.000000
 40
0.053822
 50
273.024231
 51
330.291748
  0
ARC
  8
0
 62
3
  6
CONTINUOUS
 10
5.204183
 20
1.849060
 30
0.000000
 40
0.053833
 50
93.046501
 51
150.286682
  0
ARC
  8
0
 62
3
  6
CONTINUOUS
 10
5.217832
 20
1.848426
 30
0.000000
 40
0.054485
 50
28.129259
 51
86.764053
  0
ARC
  8
0
 62
3
  6
CONTINUOUS
 10
5.350333
 20
1.841463
 30
0.000000
 40
0.054493
 50
208.130051
 51
266.739380
  0
ARC
  8
0
 62
3
  6
CONTINUOUS
 10
6.580993
 20
2.642026
 30
0.000000
 40
0.411208
 50
242.489639
 51
319.024536
  0
ARC
  8
0
 62
3
  6
CONTINUOUS
 10
6.705176
 20
1.988371
 30
0.000000
 40
0.426805
 50
58.201359
 51
143.010788
  0
ARC
  8
0
 62
3
  6
CONTINUOUS
 10
8.102428
 20
2.008343
 30
0.000000
 40
0.099999
 50
299.759094
 51
21.758209
  0
ARC
  8
0
 62
3
  6
CONTINUOUS
 10
8.032424
 20
1.830093
 30
0.000000
 40
0.020000
 50
119.758606
 51
238.866806
  0
ARC
  8
0
 62
3
  6
CONTINUOUS
 10
8.042491
 20
1.683795
 30
0.000000
 40
0.100021
 50
30.464911
 51
58.864170
  0
ARC
  8
0
 62
3
  6
CONTINUOUS
 10
8.080130
 20
1.619870
 30
0.000000
 40
0.099985
 50
9.511646
 51
30.461523
  0
ARC
  8
0
 62
3
  6
CONTINUOUS
 10
4.641304
 20
3.001972
 30
0.000000
 40
0.426802
 50
38.030849
 51
121.243279
  0
ARC
  8
0
 62
3
  6
CONTINUOUS
 10
4.765488
 20
3.655623
 30
0.000000
 40
0.411210
 50
220.975525
 51
297.510406
  0
ARC
  8
0
 62
3
  6
CONTINUOUS
 10
3.266365
 20
2.633457
 30
0.000000
 40
0.100002
 50
149.538315
 51
170.483688
  0
ARC
  8
0
 62
3
  6
CONTINUOUS
 10
3.303984
 20
2.697399
 30
0.000000
 40
0.100012
 50
121.136024
 51
149.536758
  0
ARC
  8
0
 62
3
  6
CONTINUOUS
 10
3.314056
 20
2.843690
 30
0.000000
 40
0.020000
 50
301.134888
 51
60.241566
  0
ARC
  8
0
 62
3
  6
CONTINUOUS
 10
3.244052
 20
3.021942
 30
0.000000
 40
0.100001
 50
158.244003
 51
240.241394
  0
ARC
  8
0
 62
3
  6
CONTINUOUS
 10
3.490824
 20
4.760299
 30
0.000000
 40
0.400000
 50
293.799500
 51
328.268677
  0
ARC
  8
0
 62
3
  6
CONTINUOUS
 10
3.054774
 20
4.694560
 30
0.000000
 40
0.400427
 50
270.003510
 51
277.593872
  0
ARC
  8
0
 62
3
  6
CONTINUOUS
 10
2.994716
 20
4.194132
 30
0.000000
 40
0.099998
 50
89.998093
 51
178.930862
  0
ARC
  8
0
 62
3
  6
CONTINUOUS
 10
2.793112
 20
4.110269
 30
0.000000
 40
0.100005
 50
309.329407
 51
358.927917
  0
ARC
  8
0
 62
3
  6
CONTINUOUS
 10
2.354939
 20
3.492683
 30
0.000000
 40
0.100001
 50
129.329361
 51
213.335938
  0
ARC
  8
0
 62
3
  6
CONTINUOUS
 10
2.350122
 20
3.136066
 30
0.000000
 40
0.099999
 50
322.140472
 51
33.337559
  0
ARC
  8
0
 62
3
  6
CONTINUOUS
 10
2.266012
 20
2.998947
 30
0.000000
 40
0.100000
 50
269.999725
 51
344.482910
  0
ARC
  8
0
 62
3
  6
CONTINUOUS
 10
0.812496
 20
2.747911
 30
0.000000
 40
0.020000
 50
193.653366
 51
287.829407
  0
ARC
  8
0
 62
3
  6
CONTINUOUS
 10
0.981143
 20
2.816200
 30
0.000000
 40
0.200002
 50
137.666870
 51
193.653824
  0
ARC
  8
0
 62
3
  6
CONTINUOUS
 10
1.009367
 20
2.847186
 30
0.000000
 40
0.199999
 50
112.830421
 51
137.666733
  0
ARC
  8
0
 62
3
  6
CONTINUOUS
 10
1.160972
 20
3.345047
 30
0.000000
 40
0.200030
 50
292.830780
 51
312.766876
  0
ARC
  8
0
 62
3
  6
CONTINUOUS
 10
1.778798
 20
3.916523
 30
0.000000
 40
0.200001
 50
312.770355
 51
14.684933
  0
ARC
  8
0
 62
3
  6
CONTINUOUS
 10
1.875529
 20
3.941870
 30
0.000000
 40
0.100004
 50
14.685985
 51
79.117126
  0
ARC
  8
0
 62
3
  6
CONTINUOUS
 10
1.786873
 20
4.671682
 30
0.000000
 40
0.599952
 50
241.168137
 51
259.119141
  0
ARC
  8
0
 62
3
  6
CONTINUOUS
 10
1.192862
 20
3.628941
 30
0.000000
 40
0.599986
 50
61.168762
 51
99.949852
  0
ARC
  8
0
 62
3
  6
CONTINUOUS
 10
0.660582
 20
4.754112
 30
0.000000
 40
0.600229
 50
270.856262
 51
279.947693
  0
ARC
  8
0
 62
3
  6
CONTINUOUS
 10
0.472081
 20
4.551043
 30
0.000000
 40
0.399996
 50
211.643173
 51
270.854492
  0
ARC
  8
0
 62
3
  6
CONTINUOUS
 10
0.399999
 20
4.701849
 30
0.000000
 40
0.399998
 50
128.819336
 51
202.251724
  0
ARC
  8
0
 62
3
  6
CONTINUOUS
 10
1.015644
 20
4.377328
 30
0.000000
 40
1.000259
 50
112.639969
 51
120.307579
  0
ARC
  8
0
 62
3
  6
CONTINUOUS
 10
1.386535
 20
4.533095
 30
0.000000
 40
0.999251
 50
107.347885
 51
112.640930
  0
ARC
  8
0
 62
3
  6
CONTINUOUS
 10
1.386464
 20
5.370450
 30
0.000000
 40
0.199969
 50
90.439835
 51
107.351723
  0
ARC
  8
0
 62
3
  6
CONTINUOUS
 10
2.138593
 20
8.669352
 30
0.000000
 40
0.050002
 50
90.001366
 51
179.996719
  0
ARC
  8
0
 62
3
  6
CONTINUOUS
 10
2.413588
 20
8.669348
 30
0.000000
 40
0.050005
 50
0.007649
 51
89.995628
  0
ARC
  8
0
 62
3
  6
CONTINUOUS
 10
2.388592
 20
7.567568
 30
0.000000
 40
0.074997
 50
270.000183
 51
0.002550
  0
ARC
  8
0
 62
3
  6
CONTINUOUS
 10
2.384940
 20
7.567566
 30
0.000000
 40
0.074995
 50
206.563507
 51
270.002930
  0
ARC
  8
0
 62
3
  6
CONTINUOUS
 10
2.856312
 20
8.182368
 30
0.000000
 40
0.771595
 50
174.255188
 51
205.946609
  0
ARC
  8
0
 62
3
  6
CONTINUOUS
 10
1.913594
 20
8.669353
 30
0.000000
 40
0.049999
 50
0.002186
 51
90.003136
  0
ARC
  8
0
 62
3
  6
CONTINUOUS
 10
1.888595
 20
7.669351
 30
0.000000
 40
0.074996
 50
269.997559
 51
0.003279
  0
ARC
  8
0
 62
3
  6
CONTINUOUS
 10
1.884945
 20
7.669354
 30
0.000000
 40
0.075000
 50
206.563705
 51
269.998260
  0
ARC
  8
0
 62
3
  6
CONTINUOUS
 10
2.288592
 20
8.259601
 30
0.000000
 40
0.699999
 50
180.000000
 51
206.564896
  0
ARC
  8
0
 62
3
  6
CONTINUOUS
 10
1.638595
 20
8.669348
 30
0.000000
 40
0.050004
 50
90.003136
 51
179.992355
  0
ARC
  8
0
 62
3
  6
CONTINUOUS
 10
3.043086
 20
8.668846
 30
0.000000
 40
0.050511
 50
0.577682
 51
90.561195
  0
ARC
  8
0
 62
3
  6
CONTINUOUS
 10
3.017836
 20
7.490984
 30
0.000000
 40
0.075762
 50
269.437439
 51
359.428040
  0
ARC
  8
0
 62
3
  6
CONTINUOUS
 10
3.013046
 20
7.491883
 30
0.000000
 40
0.076657
 50
207.331421
 51
270.242889
  0
ARC
  8
0
 62
3
  6
CONTINUOUS
 10
3.399866
 20
8.080723
 30
0.000000
 40
0.688776
 50
180.020554
 51
207.055893
  0
ARC
  8
0
 62
3
  6
CONTINUOUS
 10
2.761596
 20
8.668847
 30
0.000000
 40
0.050507
 50
89.438507
 51
179.423355
  0
ARC
  8
0
 62
3
  6
CONTINUOUS
 10
3.674945
 20
8.668057
 30
0.000000
 40
0.051314
 50
1.449415
 51
91.376984
  0
ARC
  8
0
 62
3
  6
CONTINUOUS
 10
3.649300
 20
7.419765
 30
0.000000
 40
0.076970
 50
268.621216
 51
358.549164
  0
ARC
  8
0
 62
3
  6
CONTINUOUS
 10
3.642826
 20
7.422108
 30
0.000000
 40
0.079294
 50
208.498047
 51
270.570923
  0
ARC
  8
0
 62
3
  6
CONTINUOUS
 10
4.233932
 20
8.095960
 30
0.000000
 40
0.916392
 50
169.713348
 51
205.946243
  0
ARC
  8
0
 62
3
  6
CONTINUOUS
 10
3.383568
 20
8.668053
 30
0.000000
 40
0.051316
 50
88.627594
 51
178.546387
  0
ARC
  8
0
 62
3
  6
CONTINUOUS
 10
4.274301
 20
7.351159
 30
0.000000
 40
0.076966
 50
268.620789
 51
358.552979
  0
ARC
  8
0
 62
3
  6
CONTINUOUS
 10
4.267823
 20
7.353500
 30
0.000000
 40
0.079291
 50
208.495438
 51
270.572662
  0
ARC
  8
0
 62
3
  6
CONTINUOUS
 10
4.942039
 20
8.058998
 30
0.000000
 40
1.004996
 50
168.485901
 51
205.495026
  0
ARC
  8
0
 62
3
  6
CONTINUOUS
 10
4.008562
 20
8.668053
 30
0.000000
 40
0.051316
 50
88.622002
 51
178.546341
  0
ARC
  8
0
 62
3
  6
CONTINUOUS
 10
4.299943
 20
8.668057
 30
0.000000
 40
0.051314
 50
1.449408
 51
91.376984
  0
ARC
  8
0
 62
3
  6
CONTINUOUS
 10
4.834889
 20
7.264765
 30
0.000000
 40
0.078265
 50
267.831696
 51
357.651093
  0
ARC
  8
0
 62
3
  6
CONTINUOUS
 10
4.826724
 20
7.268632
 30
0.000000
 40
0.082088
 50
209.656540
 51
270.877014
  0
ARC
  8
0
 62
3
  6
CONTINUOUS
 10
5.572135
 20
8.012877
 30
0.000000
 40
1.093053
 50
166.954559
 51
205.706238
  0
ARC
  8
0
 62
3
  6
CONTINUOUS
 10
4.559422
 20
8.667222
 30
0.000000
 40
0.052169
 50
87.829285
 51
177.655319
  0
ARC
  8
0
 62
3
  6
CONTINUOUS
 10
4.860959
 20
8.667217
 30
0.000000
 40
0.052175
 50
2.349692
 51
92.173096
  0
ARC
  8
0
 62
3
  6
CONTINUOUS
 10
5.566635
 20
8.666024
 30
0.000000
 40
0.053410
 50
3.575856
 51
93.178696
  0
ARC
  8
0
 62
3
  6
CONTINUOUS
 10
5.554755
 20
7.121716
 30
0.000000
 40
0.080109
 50
266.817780
 51
356.433075
  0
ARC
  8
0
 62
3
  6
CONTINUOUS
 10
5.530435
 20
7.126391
 30
0.000000
 40
0.086118
 50
210.108704
 51
280.551849
  0
ARC
  8
0
 62
3
  6
CONTINUOUS
 10
6.818040
 20
8.091651
 30
0.000000
 40
1.647754
 50
174.149796
 51
205.051910
  0
ARC
  8
0
 62
3
  6
CONTINUOUS
 10
5.251223
 20
8.666022
 30
0.000000
 40
0.053414
 50
86.817902
 51
176.421280
  0
ARC
  8
0
 62
3
  6
CONTINUOUS
 10
6.175950
 20
8.666020
 30
0.000000
 40
0.053417
 50
3.579461
 51
93.168533
  0
ARC
  8
0
 62
3
  6
CONTINUOUS
 10
6.164082
 20
7.121721
 30
0.000000
 40
0.080114
 50
266.816284
 51
356.430908
  0
ARC
  8
0
 62
3
  6
CONTINUOUS
 10
6.139754
 20
7.126387
 30
0.000000
 40
0.086112
 50
210.107391
 51
280.553925
  0
ARC
  8
0
 62
3
  6
CONTINUOUS
 10
7.427376
 20
8.091660
 30
0.000000
 40
1.647766
 50
174.150162
 51
205.052063
  0
ARC
  8
0
 62
3
  6
CONTINUOUS
 10
5.860552
 20
8.666013
 30
0.000000
 40
0.053423
 50
86.826637
 51
176.413742
  0
ARC
  8
0
 62
3
  6
CONTINUOUS
 10
6.139751
 20
10.682571
 30
0.000000
 40
0.086100
 50
79.441399
 51
149.899948
  0
ARC
  8
0
 62
3
  6
CONTINUOUS
 10
6.164081
 20
10.687221
 30
0.000000
 40
0.080111
 50
3.569548
 51
93.183502
  0
ARC
  8
0
 62
3
  6
CONTINUOUS
 10
6.175953
 20
9.142922
 30
0.000000
 40
0.053414
 50
266.827667
 51
356.422363
  0
ARC
  8
0
 62
3
  6
CONTINUOUS
 10
5.860554
 20
9.142927
 30
0.000000
 40
0.053418
 50
183.582489
 51
273.172638
  0
ARC
  8
0
 62
3
  6
CONTINUOUS
 10
7.427364
 20
9.717295
 30
0.000000
 40
1.647753
 50
154.948273
 51
185.850281
  0
ARC
  8
0
 62
3
  6
CONTINUOUS
 10
5.530429
 20
10.682555
 30
0.000000
 40
0.086112
 50
79.444778
 51
149.892288
  0
ARC
  8
0
 62
3
  6
CONTINUOUS
 10
5.554762
 20
10.687231
 30
0.000000
 40
0.080104
 50
3.565080
 51
93.187210
  0
ARC
  8
0
 62
3
  6
CONTINUOUS
 10
5.566628
 20
9.142925
 30
0.000000
 40
0.053417
 50
266.828339
 51
356.419464
  0
ARC
  8
0
 62
3
  6
CONTINUOUS
 10
5.251232
 20
9.142929
 30
0.000000
 40
0.053420
 50
183.584412
 51
273.170990
  0
ARC
  8
0
 62
3
  6
CONTINUOUS
 10
6.818057
 20
9.717289
 30
0.000000
 40
1.647770
 50
154.948288
 51
185.850098
  0
ARC
  8
0
 62
3
  6
CONTINUOUS
 10
4.860957
 20
9.141728
 30
0.000000
 40
0.052175
 50
267.828461
 51
357.650299
  0
ARC
  8
0
 62
3
  6
CONTINUOUS
 10
4.559426
 20
9.141731
 30
0.000000
 40
0.052178
 50
182.352707
 51
272.165619
  0
ARC
  8
0
 62
3
  6
CONTINUOUS
 10
5.572122
 20
9.796071
 30
0.000000
 40
1.093039
 50
154.293594
 51
193.045715
  0
ARC
  8
0
 62
3
  6
CONTINUOUS
 10
4.826729
 20
10.540298
 30
0.000000
 40
0.082100
 50
89.127434
 51
150.336182
  0
ARC
  8
0
 62
3
  6
CONTINUOUS
 10
4.834891
 20
10.544182
 30
0.000000
 40
0.078262
 50
2.343769
 51
92.169777
  0
ARC
  8
0
 62
3
  6
CONTINUOUS
 10
4.299946
 20
9.140886
 30
0.000000
 40
0.051311
 50
268.621887
 51
358.551575
  0
ARC
  8
0
 62
3
  6
CONTINUOUS
 10
4.008559
 20
9.140883
 30
0.000000
 40
0.051310
 50
181.445267
 51
271.384033
  0
ARC
  8
0
 62
3
  6
CONTINUOUS
 10
4.942035
 20
9.749949
 30
0.000000
 40
1.004992
 50
154.504944
 51
191.514374
  0
ARC
  8
0
 62
3
  6
CONTINUOUS
 10
4.267820
 20
10.455437
 30
0.000000
 40
0.079291
 50
89.428024
 51
151.502563
  0
ARC
  8
0
 62
3
  6
CONTINUOUS
 10
4.274303
 20
10.457791
 30
0.000000
 40
0.076965
 50
1.446326
 51
91.380638
  0
ARC
  8
0
 62
3
  6
CONTINUOUS
 10
3.649303
 20
10.389182
 30
0.000000
 40
0.076966
 50
1.448438
 51
91.380623
  0
ARC
  8
0
 62
3
  6
CONTINUOUS
 10
3.674946
 20
9.140885
 30
0.000000
 40
0.051310
 50
268.621582
 51
358.552612
  0
ARC
  8
0
 62
3
  6
CONTINUOUS
 10
3.383564
 20
9.140888
 30
0.000000
 40
0.051312
 50
181.450531
 51
271.379944
  0
ARC
  8
0
 62
3
  6
CONTINUOUS
 10
4.233948
 20
9.712980
 30
0.000000
 40
0.916411
 50
154.053970
 51
190.286072
  0
ARC
  8
0
 62
3
  6
CONTINUOUS
 10
3.642820
 20
10.386842
 30
0.000000
 40
0.079285
 50
89.424866
 51
151.506424
  0
ARC
  8
0
 62
3
  6
CONTINUOUS
 10
3.399845
 20
9.728224
 30
0.000000
 40
0.688753
 50
152.943588
 51
179.979767
  0
ARC
  8
0
 62
3
  6
CONTINUOUS
 10
3.013048
 20
10.317049
 30
0.000000
 40
0.076667
 50
89.759277
 51
152.660553
  0
ARC
  8
0
 62
3
  6
CONTINUOUS
 10
3.017838
 20
10.317962
 30
0.000000
 40
0.075759
 50
0.571246
 51
90.564583
  0
ARC
  8
0
 62
3
  6
CONTINUOUS
 10
3.043087
 20
9.140097
 30
0.000000
 40
0.050510
 50
269.438263
 51
359.423401
  0
ARC
  8
0
 62
3
  6
CONTINUOUS
 10
2.761599
 20
9.140096
 30
0.000000
 40
0.050511
 50
180.575516
 51
270.559021
  0
ARC
  8
0
 62
3
  6
CONTINUOUS
 10
2.384941
 20
10.241374
 30
0.000000
 40
0.074996
 50
89.997086
 51
153.436172
  0
ARC
  8
0
 62
3
  6
CONTINUOUS
 10
2.388595
 20
10.241369
 30
0.000000
 40
0.074998
 50
0.002186
 51
90.002914
  0
ARC
  8
0
 62
3
  6
CONTINUOUS
 10
2.413589
 20
9.139592
 30
0.000000
 40
0.050002
 50
270.000824
 51
359.996735
  0
ARC
  8
0
 62
3
  6
CONTINUOUS
 10
2.138598
 20
9.139598
 30
0.000000
 40
0.050005
 50
180.009842
 51
269.992340
  0
ARC
  8
0
 62
3
  6
CONTINUOUS
 10
2.856291
 20
9.626577
 30
0.000000
 40
0.771575
 50
154.052795
 51
185.744904
  0
ARC
  8
0
 62
3
  6
CONTINUOUS
 10
1.888594
 20
10.139590
 30
0.000000
 40
0.074998
 50
359.997101
 51
90.001183
  0
ARC
  8
0
 62
3
  6
CONTINUOUS
 10
1.913596
 20
9.139586
 30
0.000000
 40
0.049996
 50
269.993439
 51
0.004372
  0
ARC
  8
0
 62
3
  6
CONTINUOUS
 10
1.638597
 20
9.139597
 30
0.000000
 40
0.050004
 50
180.008743
 51
269.994812
  0
ARC
  8
0
 62
3
  6
CONTINUOUS
 10
2.288593
 20
9.549341
 30
0.000000
 40
0.700001
 50
153.435028
 51
179.999924
  0
ARC
  8
0
 62
3
  6
CONTINUOUS
 10
1.884943
 20
10.139599
 30
0.000000
 40
0.074996
 50
89.998543
 51
153.436981
  0
ARC
  8
0
 62
3
  6
CONTINUOUS
 10
6.263576
 20
13.476056
 30
0.000000
 40
0.249992
 50
218.538452
 51
273.212616
  0
ARC
  8
0
 62
3
  6
CONTINUOUS
 10
6.299997
 20
12.827051
 30
0.000000
 40
0.400034
 50
67.145027
 51
93.211807
  0
ARC
  8
0
 62
3
  6
CONTINUOUS
 10
6.416266
 20
12.995128
 30
0.000000
 40
0.199991
 50
359.998627
 51
67.144829
  0
ARC
  8
0
 62
3
  6
CONTINUOUS
 10
6.516254
 20
12.451621
 30
0.000000
 40
0.100004
 50
270.000824
 51
359.997803
  0
ARC
  8
0
 62
3
  6
CONTINUOUS
 10
6.459239
 20
12.451616
 30
0.000000
 40
0.100005
 50
247.799133
 51
269.998901
  0
ARC
  8
0
 62
3
  6
CONTINUOUS
 10
6.264495
 20
12.394005
 30
0.000000
 40
0.099992
 50
31.485676
 51
62.116863
  0
ARC
  8
0
 62
3
  6
CONTINUOUS
 10
5.988327
 20
12.577940
 30
0.000000
 40
0.099983
 50
244.536804
 51
270.003265
  0
ARC
  8
0
 62
3
  6
CONTINUOUS
 10
5.952672
 20
12.594857
 30
0.000000
 40
0.099922
 50
226.393707
 51
244.545288
  0
ARC
  8
0
 62
3
  6
CONTINUOUS
 10
5.909306
 20
12.636135
 30
0.000000
 40
0.099906
 50
208.920547
 51
226.409225
  0
ARC
  8
0
 62
3
  6
CONTINUOUS
 10
5.660431
 20
12.672988
 30
0.000000
 40
0.100092
 50
28.936441
 51
44.845203
  0
ARC
  8
0
 62
3
  6
CONTINUOUS
 10
5.521876
 20
12.812379
 30
0.000000
 40
0.100016
 50
44.852238
 51
60.945477
  0
ARC
  8
0
 62
3
  6
CONTINUOUS
 10
5.339240
 20
12.913751
 30
0.000000
 40
0.100099
 50
60.957062
 51
82.055832
  0
ARC
  8
0
 62
3
  6
CONTINUOUS
 10
2.329854
 20
11.953528
 30
0.000000
 40
0.500002
 50
256.690338
 51
323.844238
  0
ARC
  8
0
 62
3
  6
CONTINUOUS
 10
1.554232
 20
11.880129
 30
0.000000
 40
0.250003
 50
178.001053
 51
256.689026
  0
ARC
  8
0
 62
3
  6
CONTINUOUS
 10
4.507772
 20
12.053773
 30
0.000000
 40
0.349988
 50
89.999687
 51
122.327713
  0
ARC
  8
0
 62
3
  6
CONTINUOUS
 10
4.682778
 20
12.053760
 30
0.000000
 40
0.349996
 50
359.999542
 51
90.000465
  0
ARC
  8
0
 62
3
  6
CONTINUOUS
 10
4.832775
 20
11.853769
 30
0.000000
 40
0.200005
 50
269.034607
 51
359.998352
  0
ARC
  8
0
 62
3
  6
CONTINUOUS
 10
4.507774
 20
12.003760
 30
0.000000
 40
0.350000
 50
179.999222
 51
270.000000
  0
ARC
  8
0
 62
3
  6
CONTINUOUS
 10
4.507770
 20
12.053768
 30
0.000000
 40
0.349996
 50
142.918335
 51
180.000473
  0
ARC
  8
0
 62
3
  6
CONTINUOUS
 10
6.803433
 20
10.908670
 30
0.000000
 40
0.109430
 50
352.565125
 51
181.109085
  0
ARC
  8
0
 62
3
  6
CONTINUOUS
 10
6.845650
 20
10.267380
 30
0.000000
 40
0.469706
 50
140.893860
 51
182.047165
  0
ARC
  8
0
 62
3
  6
CONTINUOUS
 10
6.453815
 20
9.144875
 30
0.000000
 40
0.055469
 50
185.468628
 51
274.578613
  0
ARC
  8
0
 62
3
  6
CONTINUOUS
 10
6.823753
 20
9.147888
 30
0.000000
 40
0.061861
 50
250.459015
 51
352.291260
  0
ARC
  8
0
 62
3
  6
CONTINUOUS
 10
7.428435
 20
10.927151
 30
0.000000
 40
0.109431
 50
352.549042
 51
181.125549
  0
ARC
  8
0
 62
3
  6
CONTINUOUS
 10
7.470665
 20
10.285819
 30
0.000000
 40
0.469717
 50
140.894669
 51
182.046768
  0
ARC
  8
0
 62
3
  6
CONTINUOUS
 10
7.078812
 20
9.163317
 30
0.000000
 40
0.055466
 50
185.466949
 51
274.582336
  0
ARC
  8
0
 62
3
  6
CONTINUOUS
 10
7.448762
 20
9.166329
 30
0.000000
 40
0.061861
 50
250.450623
 51
352.292877
  0
ARC
  8
0
 62
3
  6
CONTINUOUS
 10
7.675846
 20
11.145097
 30
0.000000
 40
0.406424
 50
292.424866
 51
359.214691
  0
ARC
  8
0
 62
3
  6
CONTINUOUS
 10
8.174825
 20
11.130769
 30
0.000000
 40
0.093006
 50
352.837891
 51
174.598129
  0
ARC
  8
0
 62
3
  6
CONTINUOUS
 10
8.160324
 20
9.162639
 30
0.000000
 40
0.062598
 50
262.793579
 51
350.245667
  0
ARC
  8
0
 62
3
  6
CONTINUOUS
 10
7.732853
 20
9.162648
 30
0.000000
 40
0.062605
 50
189.762360
 51
277.203918
  0
ARC
  8
0
 62
3
  6
CONTINUOUS
 10
7.957499
 20
10.475210
 30
0.000000
 40
0.320284
 50
113.285812
 51
186.125580
  0
ARC
  8
0
 62
3
  6
CONTINUOUS
 10
8.445585
 20
11.145115
 30
0.000000
 40
0.406450
 50
292.425934
 51
359.211639
  0
ARC
  8
0
 62
3
  6
CONTINUOUS
 10
8.944579
 20
11.130710
 30
0.000000
 40
0.093002
 50
352.874908
 51
174.561203
  0
ARC
  8
0
 62
3
  6
CONTINUOUS
 10
8.930086
 20
9.162633
 30
0.000000
 40
0.062593
 50
262.789429
 51
350.249054
  0
ARC
  8
0
 62
3
  6
CONTINUOUS
 10
8.502614
 20
9.162653
 30
0.000000
 40
0.062607
 50
189.766357
 51
277.201019
  0
ARC
  8
0
 62
3
  6
CONTINUOUS
 10
8.727274
 20
10.475210
 30
0.000000
 40
0.320298
 50
113.288391
 51
186.124283
  0
ARC
  8
0
 62
3
  6
CONTINUOUS
 10
8.909170
 20
11.853758
 30
0.000000
 40
0.199995
 50
179.998901
 51
270.967224
  0
ARC
  8
0
 62
3
  6
CONTINUOUS
 10
9.059182
 20
12.053757
 30
0.000000
 40
0.350006
 50
90.001091
 51
179.998749
  0
ARC
  8
0
 62
3
  6
CONTINUOUS
 10
9.234168
 20
12.053731
 30
0.000000
 40
0.350030
 50
57.674526
 51
89.998596
  0
ARC
  8
0
 62
3
  6
CONTINUOUS
 10
9.234192
 20
12.053768
 30
0.000000
 40
0.349983
 50
359.998749
 51
37.082134
  0
ARC
  8
0
 62
3
  6
CONTINUOUS
 10
9.234187
 20
12.003749
 30
0.000000
 40
0.349991
 50
269.998138
 51
0.001717
  0
ARC
  8
0
 62
3
  6
CONTINUOUS
 10
9.775514
 20
11.189279
 30
0.000000
 40
0.104929
 50
359.178741
 51
169.221970
  0
ARC
  8
0
 62
3
  6
CONTINUOUS
 10
8.974073
 20
11.418072
 30
0.000000
 40
0.729017
 50
300.063629
 51
343.326355
  0
ARC
  8
0
 62
3
  6
CONTINUOUS
 10
9.646052
 20
10.482016
 30
0.000000
 40
0.432670
 50
135.154755
 51
182.294907
  0
ARC
  8
0
 62
3
  6
CONTINUOUS
 10
9.279472
 20
9.162654
 30
0.000000
 40
0.062617
 50
189.765747
 51
262.796722
  0
ARC
  8
0
 62
3
  6
CONTINUOUS
 10
9.749893
 20
9.162644
 30
0.000000
 40
0.062602
 50
262.796722
 51
350.241638
  0
ARC
  8
0
 62
3
  6
CONTINUOUS
 10
10.525520
 20
11.189301
 30
0.000000
 40
0.104928
 50
359.170410
 51
169.231049
  0
ARC
  8
0
 62
3
  6
CONTINUOUS
 10
9.724094
 20
11.418054
 30
0.000000
 40
0.728986
 50
300.062866
 51
343.327606
  0
ARC
  8
0
 62
3
  6
CONTINUOUS
 10
10.396054
 20
10.482009
 30
0.000000
 40
0.432674
 50
135.155029
 51
182.294510
  0
ARC
  8
0
 62
3
  6
CONTINUOUS
 10
10.029461
 20
9.162651
 30
0.000000
 40
0.062608
 50
189.764496
 51
262.803528
  0
ARC
  8
0
 62
3
  6
CONTINUOUS
 10
10.499899
 20
9.162641
 30
0.000000
 40
0.062600
 50
262.792053
 51
350.243225
  0
ARC
  8
0
 62
3
  6
CONTINUOUS
 10
13.079731
 20
9.802749
 30
0.000000
 40
0.200000
 50
37.860485
 51
90.000000
  0
ARC
  8
0
 62
3
  6
CONTINUOUS
 10
13.508431
 20
9.903008
 30
0.000000
 40
0.199990
 50
217.859940
 51
270.001373
  0
ARC
  8
0
 62
3
  6
CONTINUOUS
 10
15.125890
 20
9.903032
 30
0.000000
 40
0.200015
 50
270.001892
 51
322.137238
  0
ARC
  8
0
 62
3
  6
CONTINUOUS
 10
15.554600
 20
9.802755
 30
0.000000
 40
0.199996
 50
89.999458
 51
142.140045
  0
ARC
  8
0
 62
3
  6
CONTINUOUS
 10
16.102884
 20
9.902744
 30
0.000000
 40
0.100008
 50
0.002732
 51
89.996727
  0
ARC
  8
0
 62
3
  6
CONTINUOUS
 10
16.102871
 20
9.687835
 30
0.000000
 40
0.100019
 50
284.972656
 51
359.991791
  0
ARC
  8
0
 62
3
  6
CONTINUOUS
 10
16.110252
 20
9.536275
 30
0.000000
 40
0.050006
 50
90.006554
 51
166.513397
  0
ARC
  8
0
 62
3
  6
CONTINUOUS
 10
15.969809
 20
9.089702
 30
0.000000
 40
0.049995
 50
166.512466
 51
225.143753
  0
ARC
  8
0
 62
3
  6
CONTINUOUS
 10
15.830439
 20
8.946264
 30
0.000000
 40
0.149989
 50
325.439240
 51
45.145031
  0
ARC
  8
0
 62
3
  6
CONTINUOUS
 10
14.317263
 20
6.997328
 30
0.000000
 40
2.215946
 50
50.253265
 51
58.449303
  0
ARC
  8
0
 62
3
  6
CONTINUOUS
 10
14.317162
 20
7.013015
 30
0.000000
 40
2.189978
 50
61.585384
 51
88.120575
  0
ARC
  8
0
 62
3
  6
CONTINUOUS
 10
14.317172
 20
7.013046
 30
0.000000
 40
2.189951
 50
91.391502
 51
117.731911
  0
ARC
  8
0
 62
3
  6
CONTINUOUS
 10
14.317616
 20
6.996582
 30
0.000000
 40
2.216869
 50
120.864403
 51
129.745178
  0
ARC
  8
0
 62
3
  6
CONTINUOUS
 10
12.803906
 20
8.946264
 30
0.000000
 40
0.149994
 50
134.854980
 51
214.561035
  0
ARC
  8
0
 62
3
  6
CONTINUOUS
 10
12.664523
 20
9.089707
 30
0.000000
 40
0.050000
 50
314.853180
 51
13.482811
  0
ARC
  8
0
 62
3
  6
CONTINUOUS
 10
12.524079
 20
9.536267
 30
0.000000
 40
0.050010
 50
13.495903
 51
89.992355
  0
ARC
  8
0
 62
3
  6
CONTINUOUS
 10
12.531450
 20
9.687819
 30
0.000000
 40
0.099997
 50
180.000000
 51
255.037216
  0
ARC
  8
0
 62
3
  6
CONTINUOUS
 10
12.531439
 20
9.902756
 30
0.000000
 40
0.099993
 50
89.995628
 51
180.003830
  0
ARC
  8
0
 62
3
  6
CONTINUOUS
 10
17.722845
 20
9.738994
 30
0.000000
 40
0.199997
 50
37.860939
 51
90.001091
  0
ARC
  8
0
 62
3
  6
CONTINUOUS
 10
18.151541
 20
9.839238
 30
0.000000
 40
0.199977
 50
217.858093
 51
270.003815
  0
ARC
  8
0
 62
3
  6
CONTINUOUS
 10
19.769016
 20
9.839273
 30
0.000000
 40
0.200015
 50
270.000549
 51
322.136627
  0
ARC
  8
0
 62
3
  6
CONTINUOUS
 10
20.197720
 20
9.738997
 30
0.000000
 40
0.199994
 50
90.001640
 51
142.141678
  0
ARC
  8
0
 62
3
  6
CONTINUOUS
 10
20.746000
 20
9.838988
 30
0.000000
 40
0.100002
 50
0.003278
 51
89.998909
  0
ARC
  8
0
 62
3
  6
CONTINUOUS
 10
20.745998
 20
9.624062
 30
0.000000
 40
0.100001
 50
284.966339
 51
0.001093
  0
ARC
  8
0
 62
3
  6
CONTINUOUS
 10
20.753368
 20
9.472523
 30
0.000000
 40
0.049998
 50
90.000000
 51
166.518799
  0
ARC
  8
0
 62
3
  6
CONTINUOUS
 10
20.612919
 20
9.025942
 30
0.000000
 40
0.049985
 50
166.506226
 51
225.147644
  0
ARC
  8
0
 62
3
  6
CONTINUOUS
 10
20.473553
 20
8.882507
 30
0.000000
 40
0.149992
 50
325.440063
 51
45.144257
  0
ARC
  8
0
 62
3
  6
CONTINUOUS
 10
18.960205
 20
6.933326
 30
0.000000
 40
2.216247
 50
50.253857
 51
58.826015
  0
ARC
  8
0
 62
3
  6
CONTINUOUS
 10
18.960279
 20
6.949278
 30
0.000000
 40
2.189958
 50
61.959496
 51
117.507912
  0
ARC
  8
0
 62
3
  6
CONTINUOUS
 10
18.960218
 20
6.933545
 30
0.000000
 40
2.215990
 50
120.637245
 51
129.747040
  0
ARC
  8
0
 62
3
  6
CONTINUOUS
 10
17.447029
 20
8.882507
 30
0.000000
 40
0.150001
 50
134.858337
 51
214.557449
  0
ARC
  8
0
 62
3
  6
CONTINUOUS
 10
17.307619
 20
9.025953
 30
0.000000
 40
0.050015
 50
314.867889
 51
13.472915
  0
ARC
  8
0
 62
3
  6
CONTINUOUS
 10
17.167200
 20
9.472519
 30
0.000000
 40
0.050003
 50
13.486552
 51
89.997818
  0
ARC
  8
0
 62
3
  6
CONTINUOUS
 10
17.174568
 20
9.624069
 30
0.000000
 40
0.100010
 50
180.003830
 51
255.031479
  0
ARC
  8
0
 62
3
  6
CONTINUOUS
 10
17.174553
 20
9.838993
 30
0.000000
 40
0.099997
 50
89.997818
 51
179.999451
  0
ARC
  8
0
 62
3
  6
CONTINUOUS
 10
18.967876
 20
6.970487
 30
0.000000
 40
2.124928
 50
92.897720
 51
118.370331
  0
ARC
  8
0
 62
3
  6
CONTINUOUS
 10
18.968086
 20
6.970441
 30
0.000000
 40
1.624983
 50
93.797661
 51
144.667740
  0
ARC
  8
0
 62
3
  6
CONTINUOUS
 10
18.968081
 20
6.970431
 30
0.000000
 40
1.624986
 50
149.866623
 51
177.722473
  0
ARC
  8
0
 62
3
  6
CONTINUOUS
 10
19.049255
 20
6.981452
 30
0.000000
 40
1.706531
 50
182.365860
 51
209.379883
  0
ARC
  8
0
 62
3
  6
CONTINUOUS
 10
18.968090
 20
6.970419
 30
0.000000
 40
1.624998
 50
215.783981
 51
266.252930
  0
ARC
  8
0
 62
3
  6
CONTINUOUS
 10
18.968090
 20
6.970423
 30
0.000000
 40
2.125000
 50
121.966499
 51
267.060608
  0
ARC
  8
0
 62
3
  6
CONTINUOUS
 10
18.971659
 20
6.961481
 30
0.000000
 40
2.124997
 50
272.939453
 51
58.033379
  0
ARC
  8
0
 62
3
  6
CONTINUOUS
 10
18.971666
 20
6.961462
 30
0.000000
 40
1.624983
 50
273.746704
 51
324.216217
  0
ARC
  8
0
 62
3
  6
CONTINUOUS
 10
18.890377
 20
6.972547
 30
0.000000
 40
1.706653
 50
330.621063
 51
357.633057
  0
ARC
  8
0
 62
3
  6
CONTINUOUS
 10
18.971695
 20
6.961492
 30
0.000000
 40
1.624966
 50
2.277400
 51
30.133709
  0
ARC
  8
0
 62
3
  6
CONTINUOUS
 10
18.971659
 20
6.961480
 30
0.000000
 40
1.625004
 50
35.332558
 51
86.202049
  0
ARC
  8
0
 62
3
  6
CONTINUOUS
 10
18.971836
 20
6.961421
 30
0.000000
 40
2.125053
 50
61.630558
 51
87.101578
  0
ARC
  8
0
 62
3
  6
CONTINUOUS
 10
14.329028
 20
6.970417
 30
0.000000
 40
1.625009
 50
35.332672
 51
88.429092
  0
ARC
  8
0
 62
3
  6
CONTINUOUS
 10
14.329219
 20
6.970501
 30
0.000000
 40
2.124924
 50
61.628948
 51
88.799225
  0
ARC
  8
0
 62
3
  6
CONTINUOUS
 10
14.329031
 20
6.970424
 30
0.000000
 40
2.124995
 50
293.705872
 51
58.033596
  0
ARC
  8
0
 62
3
  6
CONTINUOUS
 10
15.223582
 20
4.933167
 30
0.000000
 40
0.100008
 50
113.710403
 51
179.997543
  0
ARC
  8
0
 62
3
  6
CONTINUOUS
 10
14.398571
 20
4.745893
 30
0.000000
 40
0.099997
 50
359.998901
 51
90.001640
  0
ARC
  8
0
 62
3
  6
CONTINUOUS
 10
14.329039
 20
6.970401
 30
0.000000
 40
1.624976
 50
271.570343
 51
324.216187
  0
ARC
  8
0
 62
3
  6
CONTINUOUS
 10
14.247870
 20
6.981458
 30
0.000000
 40
1.706530
 50
330.619965
 51
357.633972
  0
ARC
  8
0
 62
3
  6
CONTINUOUS
 10
14.329042
 20
6.970430
 30
0.000000
 40
1.624984
 50
2.277576
 51
30.133442
  0
ARC
  8
0
 62
3
  6
CONTINUOUS
 10
14.328139
 20
6.970489
 30
0.000000
 40
2.124978
 50
91.201103
 51
118.375565
  0
ARC
  8
0
 62
3
  6
CONTINUOUS
 10
14.328148
 20
6.970462
 30
0.000000
 40
1.625007
 50
91.571045
 51
144.667404
  0
ARC
  8
0
 62
3
  6
CONTINUOUS
 10
14.328137
 20
6.970468
 30
0.000000
 40
1.624994
 50
149.866531
 51
177.722305
  0
ARC
  8
0
 62
3
  6
CONTINUOUS
 10
14.409386
 20
6.981516
 30
0.000000
 40
1.706615
 50
182.366516
 51
209.379135
  0
ARC
  8
0
 62
3
  6
CONTINUOUS
 10
14.328152
 20
6.970472
 30
0.000000
 40
1.625006
 50
215.784180
 51
268.429138
  0
ARC
  8
0
 62
3
  6
CONTINUOUS
 10
14.258599
 20
4.745931
 30
0.000000
 40
0.100001
 50
90.000000
 51
179.998367
  0
ARC
  8
0
 62
3
  6
CONTINUOUS
 10
13.433601
 20
4.933215
 30
0.000000
 40
0.100003
 50
359.998901
 51
66.291443
  0
ARC
  8
0
 62
3
  6
CONTINUOUS
 10
14.328149
 20
6.970469
 30
0.000000
 40
2.124997
 50
121.966682
 51
246.294022
  0
ARC
  8
0
 62
3
  6
CONTINUOUS
 10
10.499901
 20
8.678071
 30
0.000000
 40
0.062597
 50
9.751202
 51
97.209145
  0
ARC
  8
0
 62
3
  6
CONTINUOUS
 10
10.029467
 20
8.678059
 30
0.000000
 40
0.062606
 50
97.194954
 51
170.238647
  0
ARC
  8
0
 62
3
  6
CONTINUOUS
 10
10.396020
 20
7.358684
 30
0.000000
 40
0.432644
 50
177.703751
 51
224.846878
  0
ARC
  8
0
 62
3
  6
CONTINUOUS
 10
9.724092
 20
6.422660
 30
0.000000
 40
0.728987
 50
16.672163
 51
59.936611
  0
ARC
  8
0
 62
3
  6
CONTINUOUS
 10
10.525510
 20
6.651431
 30
0.000000
 40
0.104931
 50
190.781067
 51
0.816804
  0
ARC
  8
0
 62
3
  6
CONTINUOUS
 10
9.749898
 20
8.678073
 30
0.000000
 40
0.062596
 50
9.750341
 51
97.209259
  0
ARC
  8
0
 62
3
  6
CONTINUOUS
 10
9.279473
 20
8.678053
 30
0.000000
 40
0.062614
 50
97.203712
 51
170.235687
  0
ARC
  8
0
 62
3
  6
CONTINUOUS
 10
9.646024
 20
7.358684
 30
0.000000
 40
0.432643
 50
177.703751
 51
224.846970
  0
ARC
  8
0
 62
3
  6
CONTINUOUS
 10
8.974062
 20
6.422627
 30
0.000000
 40
0.729029
 50
16.673794
 51
59.935841
  0
ARC
  8
0
 62
3
  6
CONTINUOUS
 10
9.775514
 20
6.651433
 30
0.000000
 40
0.104930
 50
190.782547
 51
0.816298
  0
ARC
  8
0
 62
3
  6
CONTINUOUS
 10
8.502616
 20
8.646292
 30
0.000000
 40
0.062611
 50
82.799538
 51
170.236099
  0
ARC
  8
0
 62
3
  6
CONTINUOUS
 10
8.930084
 20
8.646302
 30
0.000000
 40
0.062598
 50
9.755355
 51
97.208168
  0
ARC
  8
0
 62
3
  6
CONTINUOUS
 10
8.944575
 20
6.678231
 30
0.000000
 40
0.093004
 50
185.437988
 51
7.125235
  0
ARC
  8
0
 62
3
  6
CONTINUOUS
 10
8.445589
 20
6.663836
 30
0.000000
 40
0.406439
 50
0.786833
 51
67.574036
  0
ARC
  8
0
 62
3
  6
CONTINUOUS
 10
8.727271
 20
7.333738
 30
0.000000
 40
0.320295
 50
173.875748
 51
246.712006
  0
ARC
  8
0
 62
3
  6
CONTINUOUS
 10
7.448760
 20
8.642614
 30
0.000000
 40
0.061861
 50
7.708815
 51
109.546997
  0
ARC
  8
0
 62
3
  6
CONTINUOUS
 10
7.078812
 20
8.645625
 30
0.000000
 40
0.055466
 50
85.418633
 51
174.531967
  0
ARC
  8
0
 62
3
  6
CONTINUOUS
 10
7.470662
 20
7.523122
 30
0.000000
 40
0.469718
 50
177.953293
 51
219.105545
  0
ARC
  8
0
 62
3
  6
CONTINUOUS
 10
7.428430
 20
6.881842
 30
0.000000
 40
0.109427
 50
178.899887
 51
7.425498
  0
ARC
  8
0
 62
3
  6
CONTINUOUS
 10
6.823757
 20
8.661053
 30
0.000000
 40
0.061865
 50
7.712777
 51
109.542603
  0
ARC
  8
0
 62
3
  6
CONTINUOUS
 10
6.453815
 20
8.664066
 30
0.000000
 40
0.055469
 50
85.422386
 51
174.528381
  0
ARC
  8
0
 62
3
  6
CONTINUOUS
 10
6.845668
 20
7.541569
 30
0.000000
 40
0.469722
 50
177.953659
 51
219.105392
  0
ARC
  8
0
 62
3
  6
CONTINUOUS
 10
6.803431
 20
6.900287
 30
0.000000
 40
0.109428
 50
178.900391
 51
7.424691
  0
ARC
  8
0
 62
3
  6
CONTINUOUS
 10
8.160326
 20
8.646302
 30
0.000000
 40
0.062598
 50
9.755355
 51
97.207191
  0
ARC
  8
0
 62
3
  6
CONTINUOUS
 10
8.174834
 20
6.678094
 30
0.000000
 40
0.093008
 50
185.352478
 51
7.210493
  0
ARC
  8
0
 62
3
  6
CONTINUOUS
 10
7.675837
 20
6.663840
 30
0.000000
 40
0.406433
 50
0.786172
 51
67.574661
  0
ARC
  8
0
 62
3
  6
CONTINUOUS
 10
7.957501
 20
7.333733
 30
0.000000
 40
0.320284
 50
173.874268
 51
246.713303
  0
ARC
  8
0
 62
3
  6
CONTINUOUS
 10
7.732861
 20
8.646292
 30
0.000000
 40
0.062611
 50
82.801270
 51
170.236877
  0
ARC
  8
0
 62
3
  6
CONTINUOUS
 10
7.225697
 20
12.451623
 30
0.000000
 40
0.100005
 50
180.002731
 51
269.997803
  0
ARC
  8
0
 62
3
  6
CONTINUOUS
 10
7.325690
 20
12.995128
 30
0.000000
 40
0.199997
 50
112.856621
 51
180.000824
  0
ARC
  8
0
 62
3
  6
CONTINUOUS
 10
7.441958
 20
12.827003
 30
0.000000
 40
0.400078
 50
86.789513
 51
112.853424
  0
ARC
  8
0
 62
3
  6
CONTINUOUS
 10
7.478373
 20
13.476052
 30
0.000000
 40
0.249992
 50
266.788025
 51
321.461395
  0
ARC
  8
0
 62
3
  6
CONTINUOUS
 10
12.187722
 20
11.880127
 30
0.000000
 40
0.250003
 50
283.311462
 51
1.999820
  0
ARC
  8
0
 62
3
  6
CONTINUOUS
 10
11.412100
 20
11.953530
 30
0.000000
 40
0.500001
 50
216.155701
 51
283.309814
  0
ARC
  8
0
 62
3
  6
CONTINUOUS
 10
8.402697
 20
12.913780
 30
0.000000
 40
0.100062
 50
97.939125
 51
119.045319
  0
ARC
  8
0
 62
3
  6
CONTINUOUS
 10
8.220052
 20
12.812413
 30
0.000000
 40
0.099977
 50
119.051582
 51
135.151871
  0
ARC
  8
0
 62
3
  6
CONTINUOUS
 10
8.081383
 20
12.673093
 30
0.000000
 40
0.099920
 50
135.141525
 51
151.077103
  0
ARC
  8
0
 62
3
  6
CONTINUOUS
 10
7.832534
 20
12.636221
 30
0.000000
 40
0.100043
 50
313.604492
 51
331.068634
  0
ARC
  8
0
 62
3
  6
CONTINUOUS
 10
7.789244
 20
12.594903
 30
0.000000
 40
0.099983
 50
295.460266
 51
313.601532
  0
ARC
  8
0
 62
3
  6
CONTINUOUS
 10
7.753622
 20
12.577949
 30
0.000000
 40
0.099993
 50
269.996735
 51
295.461853
  0
ARC
  8
0
 62
3
  6
CONTINUOUS
 10
7.477427
 20
12.394025
 30
0.000000
 40
0.099959
 50
117.873779
 51
148.515656
  0
ARC
  8
0
 62
3
  6
CONTINUOUS
 10
7.282713
 20
12.451602
 30
0.000000
 40
0.099988
 50
270.000000
 51
292.204285
  0
ARC
  8
0
 62
3
  6
CONTINUOUS
 10
6.862701
 20
5.775015
 30
0.000000
 40
0.200030
 50
72.652290
 51
89.558701
  0
ARC
  8
0
 62
3
  6
CONTINUOUS
 10
6.862345
 20
4.936862
 30
0.000000
 40
1.000156
 50
67.362648
 51
72.650864
  0
ARC
  8
0
 62
3
  6
CONTINUOUS
 10
7.233610
 20
4.782084
 30
0.000000
 40
1.000104
 50
59.692711
 51
67.361412
  0
ARC
  8
0
 62
3
  6
CONTINUOUS
 10
7.849174
 20
5.106477
 30
0.000000
 40
0.399996
 50
337.748047
 51
51.180984
  0
ARC
  8
0
 62
3
  6
CONTINUOUS
 10
7.777093
 20
4.955668
 30
0.000000
 40
0.399994
 50
269.144745
 51
328.356720
  0
ARC
  8
0
 62
3
  6
CONTINUOUS
 10
7.588570
 20
5.158514
 30
0.000000
 40
0.600006
 50
260.050323
 51
269.145142
  0
ARC
  8
0
 62
3
  6
CONTINUOUS
 10
7.056314
 20
4.033543
 30
0.000000
 40
0.600009
 50
80.050964
 51
118.830460
  0
ARC
  8
0
 62
3
  6
CONTINUOUS
 10
6.462276
 20
5.076391
 30
0.000000
 40
0.600038
 50
280.881500
 51
298.829620
  0
ARC
  8
0
 62
3
  6
CONTINUOUS
 10
6.373639
 20
4.346498
 30
0.000000
 40
0.099999
 50
100.879776
 51
165.315018
  0
ARC
  8
0
 62
3
  6
CONTINUOUS
 10
6.470363
 20
4.321146
 30
0.000000
 40
0.199991
 50
165.313705
 51
227.231400
  0
ARC
  8
0
 62
3
  6
CONTINUOUS
 10
7.088170
 20
3.749616
 30
0.000000
 40
0.199964
 50
227.227875
 51
247.170334
  0
ARC
  8
0
 62
3
  6
CONTINUOUS
 10
7.239786
 20
3.251795
 30
0.000000
 40
0.200023
 50
42.333660
 51
67.166786
  0
ARC
  8
0
 62
3
  6
CONTINUOUS
 10
7.268027
 20
3.220824
 30
0.000000
 40
0.200002
 50
346.346344
 51
42.332363
  0
ARC
  8
0
 62
3
  6
CONTINUOUS
 10
7.436676
 20
3.152539
 30
0.000000
 40
0.020001
 50
252.173676
 51
346.342102
  0
ARC
  8
0
 62
3
  6
CONTINUOUS
 10
5.983158
 20
3.403573
 30
0.000000
 40
0.099998
 50
195.516739
 51
270.001373
  0
ARC
  8
0
 62
3
  6
CONTINUOUS
 10
5.899051
 20
3.540694
 30
0.000000
 40
0.100001
 50
146.663940
 51
217.860260
  0
ARC
  8
0
 62
3
  6
CONTINUOUS
 10
5.894228
 20
3.897308
 30
0.000000
 40
0.100003
 50
326.665680
 51
50.668091
  0
ARC
  8
0
 62
3
  6
CONTINUOUS
 10
5.456059
 20
4.514893
 30
0.000000
 40
0.100005
 50
181.072342
 51
230.668961
  0
ARC
  8
0
 62
3
  6
CONTINUOUS
 10
5.254456
 20
4.598754
 30
0.000000
 40
0.100002
 50
1.071013
 51
90.000267
  0
ARC
  8
0
 62
3
  6
CONTINUOUS
 10
5.194383
 20
5.098958
 30
0.000000
 40
0.400202
 50
262.403900
 51
269.998505
  0
ARC
  8
0
 62
3
  6
CONTINUOUS
 10
4.758345
 20
5.164918
 30
0.000000
 40
0.399993
 50
211.730820
 51
246.200500
  0
ARC
  8
0
 62
3
  6
CONTINUOUS
 10
9.493517
 20
2.337820
 30
0.000000
 40
0.099981
 50
282.349396
 51
312.700134
  0
ARC
  8
0
 62
3
  6
CONTINUOUS
 10
9.726954
 20
2.281099
 30
0.000000
 40
0.100000
 50
90.001091
 51
132.696518
  0
ARC
  8
0
 62
3
  6
CONTINUOUS
 10
10.097829
 20
2.342937
 30
0.000000
 40
0.100013
 50
71.509247
 51
109.393608
  0
ARC
  8
0
 62
3
  6
CONTINUOUS
 10
10.316509
 20
2.480727
 30
0.000000
 40
0.100027
 50
251.506882
 51
268.592682
  0
ARC
  8
0
 62
3
  6
CONTINUOUS
 10
10.479459
 20
2.276642
 30
0.000000
 40
0.100008
 50
55.969048
 51
88.597313
  0
ARC
  8
0
 62
3
  6
CONTINUOUS
 10
10.715628
 20
2.358467
 30
0.000000
 40
0.099982
 50
235.964340
 51
253.977478
  0
ARC
  8
0
 62
3
  6
CONTINUOUS
 10
10.798052
 20
4.968203
 30
0.000000
 40
0.100001
 50
270.002197
 51
344.053864
  0
ARC
  8
0
 62
3
  6
CONTINUOUS
 10
10.990918
 20
5.643202
 30
0.000000
 40
0.100001
 50
344.054535
 51
89.999458
  0
ARC
  8
0
 62
3
  6
CONTINUOUS
 10
9.214585
 20
5.643202
 30
0.000000
 40
0.099998
 50
89.998909
 51
195.946030
  0
ARC
  8
0
 62
3
  6
CONTINUOUS
 10
9.407444
 20
4.968202
 30
0.000000
 40
0.099999
 50
195.945511
 51
270.000000
  0
ARC
  8
0
 62
3
  6
CONTINUOUS
 10
10.702641
 20
0.479979
 30
0.000000
 40
0.149998
 50
269.998169
 51
356.424286
  0
ARC
  8
0
 62
3
  6
CONTINUOUS
 10
10.750095
 20
2.044030
 30
0.000000
 40
0.203986
 50
1.851097
 51
44.092770
  0
ARC
  8
0
 62
3
  6
CONTINUOUS
 10
11.791435
 20
3.224143
 30
0.000000
 40
0.099999
 50
314.993805
 51
13.196662
  0
ARC
  8
0
 62
3
  6
CONTINUOUS
 10
11.755080
 20
3.379154
 30
0.000000
 40
0.099995
 50
13.200336
 51
70.523994
  0
ARC
  8
0
 62
3
  6
CONTINUOUS
 10
11.611609
 20
3.642050
 30
0.000000
 40
0.099999
 50
207.269577
 51
250.518417
  0
ARC
  8
0
 62
3
  6
CONTINUOUS
 10
11.349128
 20
3.714735
 30
0.000000
 40
0.100003
 50
27.270647
 51
83.474510
  0
ARC
  8
0
 62
3
  6
CONTINUOUS
 10
11.157411
 20
3.937955
 30
0.000000
 40
0.099992
 50
222.204697
 51
263.477051
  0
ARC
  8
0
 62
3
  6
CONTINUOUS
 10
10.880399
 20
3.945686
 30
0.000000
 40
0.100006
 50
42.206356
 51
97.987732
  0
ARC
  8
0
 62
3
  6
CONTINUOUS
 10
10.649121
 20
4.115198
 30
0.000000
 40
0.100004
 50
231.800217
 51
277.986816
  0
ARC
  8
0
 62
3
  6
CONTINUOUS
 10
10.374251
 20
4.077004
 30
0.000000
 40
0.099994
 50
51.797962
 51
112.138504
  0
ARC
  8
0
 62
3
  6
CONTINUOUS
 10
10.098810
 20
4.180866
 30
0.000000
 40
0.100010
 50
248.124527
 51
292.134796
  0
ARC
  8
0
 62
3
  6
CONTINUOUS
 10
9.834828
 20
4.071344
 30
0.000000
 40
0.100004
 50
68.120056
 51
125.551048
  0
ARC
  8
0
 62
3
  6
CONTINUOUS
 10
9.551828
 20
4.114933
 30
0.000000
 40
0.100009
 50
261.829865
 51
305.549255
  0
ARC
  8
0
 62
3
  6
CONTINUOUS
 10
9.324283
 20
3.945552
 30
0.000000
 40
0.099998
 50
81.827858
 51
137.729462
  0
ARC
  8
0
 62
3
  6
CONTINUOUS
 10
9.044217
 20
3.934772
 30
0.000000
 40
0.099989
 50
271.470703
 51
317.730072
  0
ARC
  8
0
 62
3
  6
CONTINUOUS
 10
8.879795
 20
3.730490
 30
0.000000
 40
0.099997
 50
91.471695
 51
152.381027
  0
ARC
  8
0
 62
3
  6
CONTINUOUS
 10
8.607057
 20
3.640620
 30
0.000000
 40
0.099999
 50
286.760681
 51
332.378845
  0
ARC
  8
0
 62
3
  6
CONTINUOUS
 10
8.479578
 20
3.393349
 30
0.000000
 40
0.100000
 50
106.762787
 51
164.124390
  0
ARC
  8
0
 62
3
  6
CONTINUOUS
 10
8.428167
 20
3.212591
 30
0.000000
 40
0.099996
 50
164.122726
 51
224.664032
  0
ARC
  8
0
 62
3
  6
CONTINUOUS
 10
9.448707
 20
2.044025
 30
0.000000
 40
0.204009
 50
135.911285
 51
178.147308
  0
ARC
  8
0
 62
3
  6
CONTINUOUS
 10
9.496140
 20
0.479979
 30
0.000000
 40
0.149999
 50
183.575821
 51
270.000366
  0
ARC
  8
0
 62
3
  6
CONTINUOUS
 10
7.557776
 20
0.407608
 30
0.000000
 40
0.099999
 50
270.000275
 51
0.000939
  0
ARC
  8
0
 62
3
  6
CONTINUOUS
 10
7.757777
 20
0.582610
 30
0.000000
 40
0.100000
 50
89.999733
 51
179.999664
  0
ARC
  8
0
 62
3
  6
CONTINUOUS
 10
8.307778
 20
0.782611
 30
0.000000
 40
0.100001
 50
269.999451
 51
359.999512
  0
ARC
  8
0
 62
3
  6
CONTINUOUS
 10
8.307770
 20
1.082606
 30
0.000000
 40
0.100005
 50
0.002664
 51
89.996178
  0
ARC
  8
0
 62
3
  6
CONTINUOUS
 10
7.507776
 20
1.082612
 30
0.000000
 40
0.099999
 50
89.998634
 51
180.000885
  0
ARC
  8
0
 62
3
  6
CONTINUOUS
 10
7.550259
 20
1.075391
 30
0.000000
 40
0.142665
 50
177.099640
 51
244.429825
  0
ARC
  8
0
 62
3
  6
CONTINUOUS
 10
7.479373
 20
0.929000
 30
0.000000
 40
0.019999
 50
311.019653
 51
62.258827
  0
ARC
  8
0
 62
3
  6
CONTINUOUS
 10
7.654553
 20
0.727684
 30
0.000000
 40
0.246865
 50
131.029709
 51
223.897736
  0
ARC
  8
0
 62
3
  6
CONTINUOUS
 10
7.462258
 20
0.542647
 30
0.000000
 40
0.019998
 50
309.606842
 51
43.904583
  0
ARC
  8
0
 62
3
  6
CONTINUOUS
 10
7.608676
 20
0.365743
 30
0.000000
 40
0.209638
 50
129.613983
 51
196.527893
  0
ARC
  8
0
 62
3
  6
CONTINUOUS
 10
6.817918
 20
0.365745
 30
0.000000
 40
0.209637
 50
343.471771
 51
50.386078
  0
ARC
  8
0
 62
3
  6
CONTINUOUS
 10
6.964336
 20
0.542647
 30
0.000000
 40
0.020000
 50
136.104507
 51
230.387680
  0
ARC
  8
0
 62
3
  6
CONTINUOUS
 10
6.772041
 20
0.727685
 30
0.000000
 40
0.246864
 50
316.101471
 51
48.969852
  0
ARC
  8
0
 62
3
  6
CONTINUOUS
 10
6.947227
 20
0.928999
 30
0.000000
 40
0.020000
 50
117.751701
 51
228.973969
  0
ARC
  8
0
 62
3
  6
CONTINUOUS
 10
6.876337
 20
1.075386
 30
0.000000
 40
0.142661
 50
295.570831
 51
2.902485
  0
ARC
  8
0
 62
3
  6
CONTINUOUS
 10
6.918817
 20
1.082612
 30
0.000000
 40
0.099998
 50
359.999390
 51
89.999458
  0
ARC
  8
0
 62
3
  6
CONTINUOUS
 10
6.118815
 20
1.082612
 30
0.000000
 40
0.099999
 50
89.998909
 51
180.000687
  0
ARC
  8
0
 62
3
  6
CONTINUOUS
 10
6.118815
 20
0.782608
 30
0.000000
 40
0.099998
 50
179.998398
 51
270.000549
  0
ARC
  8
0
 62
3
  6
CONTINUOUS
 10
6.668818
 20
0.582611
 30
0.000000
 40
0.099999
 50
0.000000
 51
90.000000
  0
ARC
  8
0
 62
3
  6
CONTINUOUS
 10
6.868816
 20
0.407610
 30
0.000000
 40
0.099999
 50
179.999008
 51
270.000000
  0
ARC
  8
0
 62
3
  6
CONTINUOUS
 10
14.371299
 20
1.874031
 30
0.000000
 40
1.874995
 50
91.853004
 51
178.039810
  0
ARC
  8
0
 62
3
  6
CONTINUOUS
 10
14.371296
 20
1.874016
 30
0.000000
 40
1.875014
 50
1.862854
 51
88.032364
  0
ARC
  8
0
 62
3
  6
CONTINUOUS
 10
14.371313
 20
1.874017
 30
0.000000
 40
1.874991
 50
271.847137
 51
358.042389
  0
ARC
  8
0
 62
3
  6
CONTINUOUS
 10
14.371311
 20
1.874037
 30
0.000000
 40
1.875004
 50
181.860458
 51
268.026794
  0
ARC
  8
0
 62
3
  6
CONTINUOUS
 10
18.865211
 20
2.168146
 30
0.000000
 40
2.124991
 50
1.723789
 51
88.256386
  0
ARC
  8
0
 62
3
  6
CONTINUOUS
 10
18.865196
 20
2.168137
 30
0.000000
 40
2.124998
 50
271.607727
 51
358.353180
  0
ARC
  8
0
 62
3
  6
CONTINUOUS
 10
18.865208
 20
2.168151
 30
0.000000
 40
2.125013
 50
181.695892
 51
268.236603
  0
ARC
  8
0
 62
3
  6
CONTINUOUS
 10
18.865196
 20
2.168139
 30
0.000000
 40
2.125000
 50
91.626968
 51
178.324753
  0
LINE
  8
0
 62
3
  6
CONTINUOUS
 10
9.496141
 20
0.329979
 30
0.000000
 11
9.546083
 21
0.329981
 31
0.000000
  0
LINE
  8
0
 62
3
  6
CONTINUOUS
 10
10.652700
 20
0.329981
 30
0.000000
 11
10.702636
 21
0.329981
 31
0.000000
  0
LINE
  8
0
 62
3
  6
CONTINUOUS
 10
0.809619
 20
6.481552
 30
0.000000
 11
0.684619
 21
6.481552
 31
0.000000
  0
LINE
  8
0
 62
3
  6
CONTINUOUS
 10
0.684619
 20
6.481552
 30
0.000000
 11
0.684619
 21
6.109898
 31
0.000000
  0
LINE
  8
0
 62
3
  6
CONTINUOUS
 10
0.127159
 20
6.670688
 30
0.000000
 11
0.499179
 21
6.670688
 31
0.000000
  0
LINE
  8
0
 62
3
  6
CONTINUOUS
 10
0.499179
 20
6.670688
 30
0.000000
 11
0.499179
 21
6.795688
 31
0.000000
  0
LINE
  8
0
 62
3
  6
CONTINUOUS
 10
0.499179
 20
6.795688
 30
0.000000
 11
0.127489
 21
6.795686
 31
0.000000
  0
LINE
  8
0
 62
3
  6
CONTINUOUS
 10
0.688539
 20
7.353603
 30
0.000000
 11
0.688539
 21
6.981552
 31
0.000000
  0
LINE
  8
0
 62
3
  6
CONTINUOUS
 10
0.688539
 20
6.981552
 30
0.000000
 11
0.813539
 21
6.981552
 31
0.000000
  0
LINE
  8
0
 62
3
  6
CONTINUOUS
 10
0.813539
 20
6.981552
 30
0.000000
 11
0.813539
 21
7.353229
 31
0.000000
  0
LINE
  8
0
 62
3
  6
CONTINUOUS
 10
1.371208
 20
6.792494
 30
0.000000
 11
0.999179
 21
6.792494
 31
0.000000
  0
LINE
  8
0
 62
3
  6
CONTINUOUS
 10
0.999179
 20
6.792494
 30
0.000000
 11
0.999179
 21
6.667494
 31
0.000000
  0
LINE
  8
0
 62
3
  6
CONTINUOUS
 10
0.999179
 20
6.667494
 30
0.000000
 11
1.370898
 21
6.667493
 31
0.000000
  0
LINE
  8
0
 62
3
  6
CONTINUOUS
 10
0.809619
 20
6.109480
 30
0.000000
 11
0.809619
 21
6.481552
 31
0.000000
  0
ARC
  8
0
 62
3
  6
CONTINUOUS
 10
0.749176
 20
6.731545
 30
0.000000
 40
0.624990
 50
185.587967
 51
264.070953
  0
ARC
  8
0
 62
3
  6
CONTINUOUS
 10
0.749179
 20
6.731555
 30
0.000000
 40
0.624997
 50
95.568001
 51
174.110489
  0
ARC
  8
0
 62
3
  6
CONTINUOUS
 10
0.749198
 20
6.731562
 30
0.000000
 40
0.624990
 50
5.594828
 51
84.091034
  0
ARC
  8
0
 62
3
  6
CONTINUOUS
 10
0.749199
 20
6.731537
 30
0.000000
 40
0.624986
 50
275.547516
 51
354.118286
  0
LINE
  8
0
 62
3
  6
CONTINUOUS
 10
3.089066
 20
6.204825
 30
0.000000
 11
3.461086
 21
6.204825
 31
0.000000
  0
LINE
  8
0
 62
3
  6
CONTINUOUS
 10
3.461086
 20
6.204825
 30
0.000000
 11
3.461086
 21
6.329825
 31
0.000000
  0
LINE
  8
0
 62
3
  6
CONTINUOUS
 10
3.461086
 20
6.329825
 30
0.000000
 11
3.089386
 21
6.329827
 31
0.000000
  0
LINE
  8
0
 62
3
  6
CONTINUOUS
 10
3.650446
 20
6.887741
 30
0.000000
 11
3.650446
 21
6.515690
 31
0.000000
  0
LINE
  8
0
 62
3
  6
CONTINUOUS
 10
3.650446
 20
6.515690
 30
0.000000
 11
3.775446
 21
6.515690
 31
0.000000
  0
LINE
  8
0
 62
3
  6
CONTINUOUS
 10
3.775446
 20
6.515690
 30
0.000000
 11
3.775446
 21
6.887368
 31
0.000000
  0
LINE
  8
0
 62
3
  6
CONTINUOUS
 10
4.333117
 20
6.326632
 30
0.000000
 11
3.961086
 21
6.326632
 31
0.000000
  0
LINE
  8
0
 62
3
  6
CONTINUOUS
 10
3.961086
 20
6.326632
 30
0.000000
 11
3.961086
 21
6.201632
 31
0.000000
  0
LINE
  8
0
 62
3
  6
CONTINUOUS
 10
3.961086
 20
6.201632
 30
0.000000
 11
4.332796
 21
6.201632
 31
0.000000
  0
LINE
  8
0
 62
3
  6
CONTINUOUS
 10
3.771526
 20
5.643618
 30
0.000000
 11
3.771526
 21
6.015689
 31
0.000000
  0
LINE
  8
0
 62
3
  6
CONTINUOUS
 10
3.771526
 20
6.015689
 30
0.000000
 11
3.646526
 21
6.015689
 31
0.000000
  0
LINE
  8
0
 62
3
  6
CONTINUOUS
 10
3.646526
 20
6.015689
 30
0.000000
 11
3.646526
 21
5.644032
 31
0.000000
  0
ARC
  8
0
 62
3
  6
CONTINUOUS
 10
3.711088
 20
6.265687
 30
0.000000
 40
0.625002
 50
95.568520
 51
174.109787
  0
ARC
  8
0
 62
3
  6
CONTINUOUS
 10
3.711107
 20
6.265703
 30
0.000000
 40
0.624987
 50
5.594762
 51
84.091209
  0
ARC
  8
0
 62
3
  6
CONTINUOUS
 10
3.711094
 20
6.265681
 30
0.000000
 40
0.624992
 50
275.548218
 51
354.118042
  0
ARC
  8
0
 62
3
  6
CONTINUOUS
 10
3.711097
 20
6.265695
 30
0.000000
 40
0.625008
 50
185.588821
 51
264.069458
  0
CIRCLE
  8
3
 62
3
  6
CONTINUOUS
 10
14.369694
 20
1.880990
 30
0.000000
 40
1.380670
  0
LINE
  8
0
 62
3
  6
CONTINUOUS
 10
17.390251
 20
12.813162
 30
0.000000
 11
17.390251
 21
12.938162
 31
0.000000
  0
LINE
  8
0
 62
3
  6
CONTINUOUS
 10
17.390251
 20
12.938162
 30
0.000000
 11
17.122400
 21
12.938164
 31
0.000000
  0
LINE
  8
0
 62
3
  6
CONTINUOUS
 10
18.935669
 20
14.748045
 30
0.000000
 11
18.935669
 21
14.481070
 31
0.000000
  0
LINE
  8
0
 62
3
  6
CONTINUOUS
 10
18.935669
 20
14.481070
 30
0.000000
 11
19.060669
 21
14.481070
 31
0.000000
  0
LINE
  8
0
 62
3
  6
CONTINUOUS
 10
19.060669
 20
14.481070
 30
0.000000
 11
19.060669
 21
14.747924
 31
0.000000
  0
LINE
  8
0
 62
3
  6
CONTINUOUS
 10
20.870319
 20
12.934968
 30
0.000000
 11
20.599810
 21
12.934968
 31
0.000000
  0
LINE
  8
0
 62
3
  6
CONTINUOUS
 10
20.599810
 20
12.934968
 30
0.000000
 11
20.599810
 21
12.809968
 31
0.000000
  0
LINE
  8
0
 62
3
  6
CONTINUOUS
 10
20.599810
 20
12.809968
 30
0.000000
 11
20.870211
 21
12.809967
 31
0.000000
  0
LINE
  8
0
 62
3
  6
CONTINUOUS
 10
19.056751
 20
11.000000
 30
0.000000
 11
19.056751
 21
11.265530
 31
0.000000
  0
LINE
  8
0
 62
3
  6
CONTINUOUS
 10
19.056751
 20
11.265530
 30
0.000000
 11
18.931751
 21
11.265530
 31
0.000000
  0
LINE
  8
0
 62
3
  6
CONTINUOUS
 10
18.931751
 20
11.265530
 30
0.000000
 11
18.931751
 21
11.000144
 31
0.000000
  0
LINE
  8
0
 62
3
  6
CONTINUOUS
 10
17.122299
 20
12.813163
 30
0.000000
 11
17.390251
 21
12.813162
 31
0.000000
  0
ARC
  8
0
 62
3
  6
CONTINUOUS
 10
18.996302
 20
12.874034
 30
0.000000
 40
1.874993
 50
91.853127
 51
178.039917
  0
ARC
  8
0
 62
3
  6
CONTINUOUS
 10
18.996302
 20
12.874018
 30
0.000000
 40
1.875009
 50
1.862823
 51
88.032524
  0
ARC
  8
0
 62
3
  6
CONTINUOUS
 10
18.996311
 20
12.874018
 30
0.000000
 40
1.874992
 50
271.847168
 51
358.042358
  0
ARC
  8
0
 62
3
  6
CONTINUOUS
 10
18.996309
 20
12.874034
 30
0.000000
 40
1.875002
 50
181.860382
 51
268.026855
  0
CIRCLE
  8
3
 62
3
  6
CONTINUOUS
 10
18.994694
 20
12.880990
 30
0.000000
 40
1.380671
  0
CIRCLE
  8
3
 62
3
  6
CONTINUOUS
 10
18.866655
 20
2.169544
 30
0.000000
 40
1.635424
  0
LINE
  8
0
 62
3
  6
CONTINUOUS
 10
9.407444
 20
4.868203
 30
0.000000
 11
9.506063
 21
4.869132
 31
0.000000
  0
LINE
  8
0
 62
3
  6
CONTINUOUS
 10
10.699770
 20
4.869286
 30
0.000000
 11
10.798056
 21
4.868202
 31
0.000000
  0
ENDSEC
  0
EOF
